ISO-10303-21;
HEADER;
FILE_DESCRIPTION (( 'STEP AP203' ),
    '1' );
FILE_NAME ('06179.STEP',
    '2024-04-30T18:33:17',
    ( '' ),
    ( '' ),
    'SwSTEP 2.0',
    'SolidWorks 2023',
    '' );
FILE_SCHEMA (( 'CONFIG_CONTROL_DESIGN' ));
ENDSEC;

DATA;
#1 = DIRECTION ( 'NONE',  ( -2.438088387897960049E-29, 3.491481338843145188E-15, 1.000000000000000000 ) ) ;
#2 = AXIS2_PLACEMENT_3D ( 'NONE', #312, #209, #182 ) ;
#3 = DIRECTION ( 'NONE',  ( -2.445468806185136597E-29, 3.491481338843145583E-15, 1.000000000000000000 ) ) ;
#4 = APPLICATION_CONTEXT ( 'configuration controlled 3d designs of mechanical parts and assemblies' ) ;
#5 = CYLINDRICAL_SURFACE ( 'NONE', #223, 0.06250000000000006939 ) ;
#6 = FACE_OUTER_BOUND ( 'NONE', #128, .T. ) ;
#7 = SECURITY_CLASSIFICATION ( '', '', #127 ) ;
#8 = DIRECTION ( 'NONE',  ( -2.445468806185136597E-29, 3.491481338843145583E-15, 1.000000000000000000 ) ) ;
#9 = EDGE_LOOP ( 'NONE', ( #190, #166, #339, #333 ) ) ;
#10 = CARTESIAN_POINT ( 'NONE',  ( 0.000000000000000000, 0.000000000000000000, 0.000000000000000000 ) ) ;
#11 = ORIENTED_EDGE ( 'NONE', *, *, #340, .F. ) ;
#12 = LINE ( 'NONE', #195, #277 ) ;
#13 = CARTESIAN_POINT ( 'NONE',  ( -0.1298999999999999877, -4.102736221701993410E-15, -1.439426635205666161 ) ) ;
#14 = LOCAL_TIME ( 14, 33, 17.00000000000000000, #236 ) ;
#15 = ORIENTED_EDGE ( 'NONE', *, *, #16, .T. ) ;
#16 = EDGE_CURVE ( 'NONE', #204, #162, #104, .T. ) ;
#17 = EDGE_CURVE ( 'NONE', #204, #281, #150, .T. ) ;
#18 = DIRECTION ( 'NONE',  ( -2.445468806185136597E-29, 3.491481338843145583E-15, 1.000000000000000000 ) ) ;
#19 = PERSON ( 'UNSPECIFIED', 'UNSPECIFIED', 'UNSPECIFIED', ('UNSPECIFIED'), ('UNSPECIFIED'), ('UNSPECIFIED') ) ;
#20 = PERSON_AND_ORGANIZATION_ROLE ( 'classification_officer' ) ;
#21 = CC_DESIGN_APPROVAL ( #64, ( #153 ) ) ;
#22 = COORDINATED_UNIVERSAL_TIME_OFFSET ( 5, 0, .BEHIND. ) ;
#23 = EDGE_LOOP ( 'NONE', ( #115, #300 ) ) ;
#24 = LINE ( 'NONE', #202, #327 ) ;
#25 = COORDINATED_UNIVERSAL_TIME_OFFSET ( 5, 0, .BEHIND. ) ;
#26 = ORIENTED_EDGE ( 'NONE', *, *, #165, .T. ) ;
#27 = CC_DESIGN_PERSON_AND_ORGANIZATION_ASSIGNMENT ( #171, #174, ( #153 ) ) ;
#28 = ORIENTED_EDGE ( 'NONE', *, *, #206, .F. ) ;
#29 = DIRECTION ( 'NONE',  ( 1.000000000000000000, -6.982962677686266711E-15, 4.876176775795935793E-29 ) ) ;
#30 = EDGE_CURVE ( 'NONE', #281, #95, #284, .T. ) ;
#31 = DIRECTION ( 'NONE',  ( -2.445468806185136597E-29, 3.491481338843145583E-15, 1.000000000000000000 ) ) ;
#32 = APPROVAL_PERSON_ORGANIZATION ( #49, #136, #258 ) ;
#33 = CARTESIAN_POINT ( 'NONE',  ( -9.261009624683002666E-28, 1.322226732217803884E-13, 37.87007874015748143 ) ) ;
#34 = CARTESIAN_POINT ( 'NONE',  ( -0.1298999999999999877, -3.335611273396384568E-15, -1.000000000000000222 ) ) ;
#35 = CARTESIAN_POINT ( 'NONE',  ( 2.445468806185137438E-29, -3.491481338843146371E-15, -1.000000000000000222 ) ) ;
#36 = CIRCLE ( 'NONE', #309, 0.06250000000000000000 ) ;
#37 = DIRECTION ( 'NONE',  ( 1.000000000000000000, -6.982962677686266711E-15, 0.000000000000000000 ) ) ;
#38 = EDGE_CURVE ( 'NONE', #162, #126, #175, .T. ) ;
#39 =( NAMED_UNIT ( * ) PLANE_ANGLE_UNIT ( ) SI_UNIT ( $, .RADIAN. ) );
#40 =( CONVERSION_BASED_UNIT ( 'INCH', #99 ) LENGTH_UNIT ( ) NAMED_UNIT ( #226 ) );
#41 = DIRECTION ( 'NONE',  ( -2.445468806185136597E-29, 3.491481338843145583E-15, 1.000000000000000000 ) ) ;
#42 = DATE_AND_TIME ( #149, #72 ) ;
#43 = ORIENTED_EDGE ( 'NONE', *, *, #269, .T. ) ;
#44 = CIRCLE ( 'NONE', #151, 0.06250000000000012490 ) ;
#45 = DIRECTION ( 'NONE',  ( -2.445468806185136877E-29, 3.491481338843145188E-15, 1.000000000000000000 ) ) ;
#46 = SHAPE_DEFINITION_REPRESENTATION ( #96, #78 ) ;
#47 = ORIENTED_EDGE ( 'NONE', *, *, #48, .F. ) ;
#48 = EDGE_CURVE ( 'NONE', #304, #173, #24, .T. ) ;
#49 = PERSON_AND_ORGANIZATION ( #19, #57 ) ;
#50 = VERTEX_POINT ( 'NONE', #177 ) ;
#51 = CONICAL_SURFACE ( 'NONE', #80, 84.42940631927434936, 1.134464013796316006 ) ;
#52 = ADVANCED_FACE ( 'NONE', ( #74 ), #70, .T. ) ;
#53 = DIRECTION ( 'NONE',  ( 1.000000000000000000, -6.982962677686264344E-15, 0.000000000000000000 ) ) ;
#54 = DIRECTION ( 'NONE',  ( -2.445468806185136597E-29, 3.491481338843145583E-15, 1.000000000000000000 ) ) ;
#55 = CARTESIAN_POINT ( 'NONE',  ( -7.487088864773345706E-50, 1.068957861474247695E-35, 3.061616997868395197E-21 ) ) ;
#56 = AXIS2_PLACEMENT_3D ( 'NONE', #134, #184, #81 ) ;
#57 = ORGANIZATION ( 'UNSPECIFIED', 'UNSPECIFIED', '' ) ;
#58 = CYLINDRICAL_SURFACE ( 'NONE', #218, 0.1298999999999999877 ) ;
#59 = CARTESIAN_POINT ( 'NONE',  ( 2.292627005798581499E-31, -3.273263755165471417E-17, -0.009375000000000063838 ) ) ;
#60 = PERSON_AND_ORGANIZATION ( #19, #57 ) ;
#61 = AXIS2_PLACEMENT_3D ( 'NONE', #286, #288, #152 ) ;
#62 = DIRECTION ( 'NONE',  ( 1.000000000000000000, -6.982962677686265133E-15, 0.000000000000000000 ) ) ;
#63 = CYLINDRICAL_SURFACE ( 'NONE', #334, 0.1298999999999999877 ) ;
#64 = APPROVAL ( #67, 'UNSPECIFIED' ) ;
#65 = VECTOR ( 'NONE', #237, 39.37007874015748143 ) ;
#66 = CARTESIAN_POINT ( 'NONE',  ( 0.000000000000000000, 0.000000000000000000, 0.000000000000000000 ) ) ;
#67 = APPROVAL_STATUS ( 'not_yet_approved' ) ;
#68 = EDGE_LOOP ( 'NONE', ( #200, #257, #43, #47 ) ) ;
#69 = CALENDAR_DATE ( 2024, 30, 4 ) ;
#70 = CONICAL_SURFACE ( 'NONE', #61, 0.06250000000000000000, 0.7853981633974450594 ) ;
#71 = EDGE_LOOP ( 'NONE', ( #305, #15, #28 ) ) ;
#72 = LOCAL_TIME ( 14, 33, 17.00000000000000000, #25 ) ;
#73 = PERSON_AND_ORGANIZATION_ROLE ( 'design_supplier' ) ;
#74 = FACE_OUTER_BOUND ( 'NONE', #321, .T. ) ;
#75 = COORDINATED_UNIVERSAL_TIME_OFFSET ( 5, 0, .BEHIND. ) ;
#76 = VERTEX_POINT ( 'NONE', #262 ) ;
#77 = ORIENTED_EDGE ( 'NONE', *, *, #246, .F. ) ;
#78 = ADVANCED_BREP_SHAPE_REPRESENTATION ( '06179', ( #232, #225, #201 ), #213 ) ;
#79 = CIRCLE ( 'NONE', #109, 0.1298999999999999877 ) ;
#80 = AXIS2_PLACEMENT_3D ( 'NONE', #137, #18, #189 ) ;
#81 = DIRECTION ( 'NONE',  ( 1.000000000000000000, -6.982962677686268288E-15, 0.000000000000000000 ) ) ;
#82 = DIRECTION ( 'NONE',  ( -2.445468806185136597E-29, 3.491481338843145583E-15, 1.000000000000000000 ) ) ;
#83 = ADVANCED_FACE ( 'NONE', ( #107 ), #207, .F. ) ;
#84 = DIRECTION ( 'NONE',  ( 1.000000000000000000, -6.982962677686265922E-15, 4.876176775795935793E-29 ) ) ;
#85 = AXIS2_PLACEMENT_3D ( 'NONE', #33, #82, #238 ) ;
#86 = AXIS2_PLACEMENT_3D ( 'NONE', #59, #192, #119 ) ;
#87 = CARTESIAN_POINT ( 'NONE',  ( 2.445468806185137438E-29, -3.491481338843146371E-15, -1.000000000000000222 ) ) ;
#88 = APPROVAL ( #161, 'UNSPECIFIED' ) ;
#89 = CARTESIAN_POINT ( 'NONE',  ( -0.06250000000000000000, -1.318017778347336672E-15, -0.009375000000000063838 ) ) ;
#90 = EDGE_LOOP ( 'NONE', ( #198, #252, #170 ) ) ;
#91 = CARTESIAN_POINT ( 'NONE',  ( 2.292627005798581499E-31, -3.273263755165471417E-17, -0.009375000000000063838 ) ) ;
#92 = ORIENTED_EDGE ( 'NONE', *, *, #178, .F. ) ;
#93 = AXIS2_PLACEMENT_3D ( 'NONE', #264, #8, #135 ) ;
#94 = AXIS2_PLACEMENT_3D ( 'NONE', #186, #211, #295 ) ;
#95 = VERTEX_POINT ( 'NONE', #34 ) ;
#96 = PRODUCT_DEFINITION_SHAPE ( 'NONE', 'NONE',  #183 ) ;
#97 = DIRECTION ( 'NONE',  ( 1.000000000000000000, -6.982962677686266711E-15, 4.876176628004948512E-29 ) ) ;
#98 = CIRCLE ( 'NONE', #93, 0.06250000000000012490 ) ;
#99 = LENGTH_MEASURE_WITH_UNIT ( LENGTH_MEASURE( 0.02539999999999999897 ), #164 );
#100 = ADVANCED_FACE ( 'NONE', ( #270 ), #144, .T. ) ;
#101 = APPROVAL_DATE_TIME ( #203, #64 ) ;
#102 = ORIENTED_EDGE ( 'NONE', *, *, #165, .F. ) ;
#103 = ORIENTED_EDGE ( 'NONE', *, *, #268, .T. ) ;
#104 = LINE ( 'NONE', #123, #254 ) ;
#105 = APPROVAL_ROLE ( '' ) ;
#106 = ORIENTED_EDGE ( 'NONE', *, *, #269, .F. ) ;
#107 = FACE_OUTER_BOUND ( 'NONE', #23, .T. ) ;
#108 = DIRECTION ( 'NONE',  ( 2.438088387897960049E-29, -3.491481338843145188E-15, -1.000000000000000000 ) ) ;
#109 = AXIS2_PLACEMENT_3D ( 'NONE', #315, #240, #187 ) ;
#110 = CC_DESIGN_PERSON_AND_ORGANIZATION_ASSIGNMENT ( #199, #73, ( #153 ) ) ;
#111 = LINE ( 'NONE', #267, #131 ) ;
#112 = DIRECTION ( 'NONE',  ( -2.445468806185136597E-29, 3.491481338843145583E-15, 1.000000000000000000 ) ) ;
#113 = CARTESIAN_POINT ( 'NONE',  ( 0.000000000000000000, 0.000000000000000000, 0.000000000000000000 ) ) ;
#114 = CONICAL_SURFACE ( 'NONE', #85, 84.42940631927434936, 1.134464013796316006 ) ;
#115 = ORIENTED_EDGE ( 'NONE', *, *, #245, .T. ) ;
#116 = FACE_OUTER_BOUND ( 'NONE', #90, .T. ) ;
#117 = ORIENTED_EDGE ( 'NONE', *, *, #245, .F. ) ;
#118 =( NAMED_UNIT ( * ) SI_UNIT ( $, .STERADIAN. ) SOLID_ANGLE_UNIT ( ) );
#119 = DIRECTION ( 'NONE',  ( 1.000000000000000000, -6.982962677686266711E-15, 0.000000000000000000 ) ) ;
#120 = EDGE_LOOP ( 'NONE', ( #92, #139 ) ) ;
#121 = DIRECTION ( 'NONE',  ( 1.000000000000000000, -6.982962677686266711E-15, 4.876176775795935793E-29 ) ) ;
#122 = PERSON_AND_ORGANIZATION ( #19, #57 ) ;
#123 = CARTESIAN_POINT ( 'NONE',  ( 3.668203209277704895E-29, -5.237222008264718177E-15, -1.500000000000000222 ) ) ;
#124 = CC_DESIGN_DATE_AND_TIME_ASSIGNMENT ( #228, #287, ( #183 ) ) ;
#125 = ORIENTED_EDGE ( 'NONE', *, *, #208, .T. ) ;
#126 = VERTEX_POINT ( 'NONE', #129 ) ;
#127 = SECURITY_CLASSIFICATION_LEVEL ( 'unclassified' ) ;
#128 = EDGE_LOOP ( 'NONE', ( #249, #234, #106, #77 ) ) ;
#129 = CARTESIAN_POINT ( 'NONE',  ( 0.1298999999999999877, -4.398568190674592364E-15, -1.000000000000000222 ) ) ;
#130 = CARTESIAN_POINT ( 'NONE',  ( 2.445468806185137438E-29, -3.491481338843146371E-15, -1.000000000000000222 ) ) ;
#131 = VECTOR ( 'NONE', #311, 39.37007874015748143 ) ;
#132 = DIRECTION ( 'NONE',  ( -2.445468806185136877E-29, 3.491481338843145188E-15, 1.000000000000000000 ) ) ;
#133 = ADVANCED_FACE ( 'NONE', ( #116 ), #114, .T. ) ;
#134 = CARTESIAN_POINT ( 'NONE',  ( 2.445468806185136877E-29, -3.491481338843145977E-15, -1.000000000000000222 ) ) ;
#135 = DIRECTION ( 'NONE',  ( 1.000000000000000000, -6.982962677686264344E-15, 0.000000000000000000 ) ) ;
#136 = APPROVAL ( #145, 'UNSPECIFIED' ) ;
#137 = CARTESIAN_POINT ( 'NONE',  ( -9.261009624683002666E-28, 1.322226732217803884E-13, 37.87007874015748143 ) ) ;
#138 = FACE_OUTER_BOUND ( 'NONE', #71, .T. ) ;
#139 = ORIENTED_EDGE ( 'NONE', *, *, #142, .F. ) ;
#140 = MECHANICAL_CONTEXT ( 'NONE', #337, 'mechanical' ) ;
#141 = CC_DESIGN_PERSON_AND_ORGANIZATION_ASSIGNMENT ( #332, #197, ( #183 ) ) ;
#142 = EDGE_CURVE ( 'NONE', #50, #314, #44, .T. ) ;
#143 = ADVANCED_FACE ( 'NONE', ( #181 ), #154, .F. ) ;
#144 = CONICAL_SURFACE ( 'NONE', #2, 0.06250000000000000000, 0.7853981633974450594 ) ;
#145 = APPROVAL_STATUS ( 'not_yet_approved' ) ;
#146 = CIRCLE ( 'NONE', #86, 0.06250000000000000000 ) ;
#147 = ORIENTED_EDGE ( 'NONE', *, *, #38, .F. ) ;
#148 = CARTESIAN_POINT ( 'NONE',  ( 0.1298999999999999877, -4.398568190674592364E-15, -1.000000000000000222 ) ) ;
#149 = CALENDAR_DATE ( 2024, 30, 4 ) ;
#150 = LINE ( 'NONE', #307, #301 ) ;
#151 = AXIS2_PLACEMENT_3D ( 'NONE', #87, #31, #53 ) ;
#152 = DIRECTION ( 'NONE',  ( -1.000000000000000000, 6.982962677686266711E-15, 0.000000000000000000 ) ) ;
#153 = PRODUCT_DEFINITION_FORMATION_WITH_SPECIFIED_SOURCE ( 'ANY', '', #325, .NOT_KNOWN. ) ;
#154 = PLANE ( 'NONE',  #196 ) ;
#155 = FACE_OUTER_BOUND ( 'NONE', #221, .T. ) ;
#156 = CARTESIAN_POINT ( 'NONE',  ( 0.06250000000000006939, -4.364351673553921624E-16, 3.047610484872463374E-30 ) ) ;
#157 = LOCAL_TIME ( 14, 33, 17.00000000000000000, #75 ) ;
#158 = CC_DESIGN_PERSON_AND_ORGANIZATION_ASSIGNMENT ( #122, #222, ( #325 ) ) ;
#159 = DIRECTION ( 'NONE',  ( 1.000000000000000000, -6.982962677686268288E-15, 0.000000000000000000 ) ) ;
#160 = CARTESIAN_POINT ( 'NONE',  ( -3.743544432386672853E-50, 5.344789307371238476E-36, 1.530808498934197599E-21 ) ) ;
#161 = APPROVAL_STATUS ( 'not_yet_approved' ) ;
#162 = VERTEX_POINT ( 'NONE', #310 ) ;
#163 = APPROVAL_PERSON_ORGANIZATION ( #60, #88, #271 ) ;
#164 =( LENGTH_UNIT ( ) NAMED_UNIT ( * ) SI_UNIT ( $, .METRE. ) );
#165 = EDGE_CURVE ( 'NONE', #126, #95, #239, .T. ) ;
#166 = ORIENTED_EDGE ( 'NONE', *, *, #206, .T. ) ;
#167 = DIRECTION ( 'NONE',  ( -2.445468806185136597E-29, 3.491481338843145583E-15, 1.000000000000000000 ) ) ;
#168 = CIRCLE ( 'NONE', #180, 0.05312499999999999861 ) ;
#169 = DIRECTION ( 'NONE',  ( 0.000000000000000000, 0.000000000000000000, 1.000000000000000000 ) ) ;
#170 = ORIENTED_EDGE ( 'NONE', *, *, #208, .F. ) ;
#171 = PERSON_AND_ORGANIZATION ( #19, #57 ) ;
#172 = CC_DESIGN_APPROVAL ( #88, ( #183 ) ) ;
#173 = VERTEX_POINT ( 'NONE', #89 ) ;
#174 = PERSON_AND_ORGANIZATION_ROLE ( 'creator' ) ;
#175 = LINE ( 'NONE', #148, #65 ) ;
#176 = PERSON_AND_ORGANIZATION ( #19, #57 ) ;
#177 = CARTESIAN_POINT ( 'NONE',  ( -0.06250000000000012490, -1.318017778347335489E-15, -1.000000000000000222 ) ) ;
#178 = EDGE_CURVE ( 'NONE', #314, #50, #98, .T. ) ;
#179 = ORIENTED_EDGE ( 'NONE', *, *, #268, .F. ) ;
#180 = AXIS2_PLACEMENT_3D ( 'NONE', #194, #167, #97 ) ;
#181 = FACE_OUTER_BOUND ( 'NONE', #120, .T. ) ;
#182 = DIRECTION ( 'NONE',  ( -1.000000000000000000, 6.982962677686266711E-15, 0.000000000000000000 ) ) ;
#183 = PRODUCT_DEFINITION ( 'UNKNOWN', '', #153, #227 ) ;
#184 = DIRECTION ( 'NONE',  ( -2.445468806185136597E-29, 3.491481338843145583E-15, 1.000000000000000000 ) ) ;
#185 = CC_DESIGN_DATE_AND_TIME_ASSIGNMENT ( #329, #330, ( #7 ) ) ;
#186 = CARTESIAN_POINT ( 'NONE',  ( 3.179741037935316973E-29, -2.439961710796855615E-15, -1.000000000000000222 ) ) ;
#187 = DIRECTION ( 'NONE',  ( 1.000000000000000000, -6.982962677686268288E-15, 0.000000000000000000 ) ) ;
#188 = ORIENTED_EDGE ( 'NONE', *, *, #30, .T. ) ;
#189 = DIRECTION ( 'NONE',  ( 1.000000000000000000, -6.982962677686266711E-15, 0.000000000000000000 ) ) ;
#190 = ORIENTED_EDGE ( 'NONE', *, *, #30, .F. ) ;
#191 = AXIS2_PLACEMENT_3D ( 'NONE', #10, #41, #121 ) ;
#192 = DIRECTION ( 'NONE',  ( -2.445468806185136597E-29, 3.491481338843145583E-15, 1.000000000000000000 ) ) ;
#193 = ORIENTED_EDGE ( 'NONE', *, *, #142, .T. ) ;
#194 = CARTESIAN_POINT ( 'NONE',  ( -7.487088864773345706E-50, 1.068957861474247695E-35, 3.061616997868395197E-21 ) ) ;
#195 = CARTESIAN_POINT ( 'NONE',  ( -0.06250000000000006939, 4.440892098500631092E-16, -3.074334431409319267E-30 ) ) ;
#196 = AXIS2_PLACEMENT_3D ( 'NONE', #35, #1, #84 ) ;
#197 = PERSON_AND_ORGANIZATION_ROLE ( 'creator' ) ;
#198 = ORIENTED_EDGE ( 'NONE', *, *, #16, .F. ) ;
#199 = PERSON_AND_ORGANIZATION ( #19, #57 ) ;
#200 = ORIENTED_EDGE ( 'NONE', *, *, #328, .F. ) ;
#201 = AXIS2_PLACEMENT_3D ( 'NONE', #66, #169, #278 ) ;
#202 = CARTESIAN_POINT ( 'NONE',  ( -0.06250000000000000000, 4.037025298037369491E-16, -0.009375000000000063838 ) ) ;
#203 = DATE_AND_TIME ( #283, #14 ) ;
#204 = VERTEX_POINT ( 'NONE', #294 ) ;
#205 = ADVANCED_FACE ( 'NONE', ( #6 ), #5, .T. ) ;
#206 = EDGE_CURVE ( 'NONE', #281, #162, #293, .T. ) ;
#207 = PLANE ( 'NONE',  #260 ) ;
#208 = EDGE_CURVE ( 'NONE', #162, #281, #79, .T. ) ;
#209 = DIRECTION ( 'NONE',  ( 2.445468806185136597E-29, -3.491481338843145583E-15, -1.000000000000000000 ) ) ;
#210 = CARTESIAN_POINT ( 'NONE',  ( 2.445468806185136877E-29, -3.491481338843145977E-15, -1.000000000000000222 ) ) ;
#211 = DIRECTION ( 'NONE',  ( 2.438088387897960049E-29, -3.491481338843145188E-15, -1.000000000000000000 ) ) ;
#212 = DIRECTION ( 'NONE',  ( 1.000000000000000000, -6.982962677686266711E-15, 4.876176628004948512E-29 ) ) ;
#213 =( GEOMETRIC_REPRESENTATION_CONTEXT ( 3 ) GLOBAL_UNCERTAINTY_ASSIGNED_CONTEXT ( ( #279 ) ) GLOBAL_UNIT_ASSIGNED_CONTEXT ( ( #40, #39, #118 ) ) REPRESENTATION_CONTEXT ( 'NONE', 'WORKASPACE' ) );
#214 = ORIENTED_EDGE ( 'NONE', *, *, #48, .T. ) ;
#215 = DIRECTION ( 'NONE',  ( 1.000000000000000000, -6.982962677686268288E-15, 0.000000000000000000 ) ) ;
#216 = VECTOR ( 'NONE', #45, 39.37007874015748143 ) ;
#217 = CLOSED_SHELL ( 'NONE', ( #219, #133, #280, #324, #251 ) ) ;
#218 = AXIS2_PLACEMENT_3D ( 'NONE', #130, #292, #243 ) ;
#219 = ADVANCED_FACE ( 'NONE', ( #155 ), #58, .T. ) ;
#220 = DIRECTION ( 'NONE',  ( -2.445468806185136597E-29, 3.491481338843145583E-15, 1.000000000000000000 ) ) ;
#221 = EDGE_LOOP ( 'NONE', ( #125, #188, #102, #147 ) ) ;
#222 = PERSON_AND_ORGANIZATION_ROLE ( 'design_owner' ) ;
#223 = AXIS2_PLACEMENT_3D ( 'NONE', #113, #290, #29 ) ;
#224 = APPROVAL_PERSON_ORGANIZATION ( #176, #64, #105 ) ;
#225 = MANIFOLD_SOLID_BREP ( 'Body-Move/Copy2[2]', #231 ) ;
#226 = DIMENSIONAL_EXPONENTS ( 1.000000000000000000, 0.000000000000000000, 0.000000000000000000, 0.000000000000000000, 0.000000000000000000, 0.000000000000000000, 0.000000000000000000 ) ;
#227 = DESIGN_CONTEXT ( 'detailed design', #4, 'design' ) ;
#228 = DATE_AND_TIME ( #69, #157 ) ;
#229 = DIRECTION ( 'NONE',  ( 0.9063077870366507138, -4.853149677051390623E-15, 0.4226182617406978315 ) ) ;
#230 = ORIENTED_EDGE ( 'NONE', *, *, #246, .T. ) ;
#231 = CLOSED_SHELL ( 'NONE', ( #100, #205, #143, #323, #52, #83 ) ) ;
#232 = MANIFOLD_SOLID_BREP ( 'Body-Move/Copy2[1]', #217 ) ;
#233 = CIRCLE ( 'NONE', #298, 0.05312499999999999861 ) ;
#234 = ORIENTED_EDGE ( 'NONE', *, *, #340, .T. ) ;
#235 = EDGE_CURVE ( 'NONE', #95, #126, #302, .T. ) ;
#236 = COORDINATED_UNIVERSAL_TIME_OFFSET ( 5, 0, .BEHIND. ) ;
#237 = DIRECTION ( 'NONE',  ( -2.445468806185136877E-29, 3.491481338843145188E-15, 1.000000000000000000 ) ) ;
#238 = DIRECTION ( 'NONE',  ( 1.000000000000000000, -6.982962677686266711E-15, 0.000000000000000000 ) ) ;
#239 = CIRCLE ( 'NONE', #56, 0.1298999999999999877 ) ;
#240 = DIRECTION ( 'NONE',  ( -2.445468806185136597E-29, 3.491481338843145583E-15, 1.000000000000000000 ) ) ;
#241 = EDGE_CURVE ( 'NONE', #289, #76, #111, .T. ) ;
#242 = PLANE ( 'NONE',  #94 ) ;
#243 = DIRECTION ( 'NONE',  ( 1.000000000000000000, -6.982962677686265133E-15, 0.000000000000000000 ) ) ;
#244 = CARTESIAN_POINT ( 'NONE',  ( 3.520072935187488206E-29, -5.025731235454363661E-15, -1.439426635205666161 ) ) ;
#245 = EDGE_CURVE ( 'NONE', #304, #289, #233, .T. ) ;
#246 = EDGE_CURVE ( 'NONE', #314, #76, #313, .T. ) ;
#247 = CC_DESIGN_SECURITY_CLASSIFICATION ( #7, ( #153 ) ) ;
#248 = FACE_OUTER_BOUND ( 'NONE', #256, .T. ) ;
#249 = ORIENTED_EDGE ( 'NONE', *, *, #178, .T. ) ;
#250 = CARTESIAN_POINT ( 'NONE',  ( 2.445468806185137438E-29, -3.491481338843146371E-15, -1.000000000000000222 ) ) ;
#251 = ADVANCED_FACE ( 'NONE', ( #266 ), #242, .F. ) ;
#252 = ORIENTED_EDGE ( 'NONE', *, *, #17, .T. ) ;
#253 = CC_DESIGN_PERSON_AND_ORGANIZATION_ASSIGNMENT ( #338, #20, ( #7 ) ) ;
#254 = VECTOR ( 'NONE', #229, 39.37007874015748143 ) ;
#255 = APPROVAL_DATE_TIME ( #335, #88 ) ;
#256 = EDGE_LOOP ( 'NONE', ( #11, #193, #230, #179 ) ) ;
#257 = ORIENTED_EDGE ( 'NONE', *, *, #241, .T. ) ;
#258 = APPROVAL_ROLE ( '' ) ;
#259 = DIRECTION ( 'NONE',  ( -0.7071067811865452413, 2.468850131082233000E-15, -0.7071067811865497932 ) ) ;
#260 = AXIS2_PLACEMENT_3D ( 'NONE', #160, #108, #263 ) ;
#261 = VECTOR ( 'NONE', #132, 39.37007874015748143 ) ;
#262 = CARTESIAN_POINT ( 'NONE',  ( 0.06250000000000000000, -4.691678049070464390E-16, -0.009375000000000063838 ) ) ;
#263 = DIRECTION ( 'NONE',  ( -1.000000000000000000, 6.982962677686265922E-15, -4.876176775795935793E-29 ) ) ;
#264 = CARTESIAN_POINT ( 'NONE',  ( 2.445468806185137438E-29, -3.491481338843146371E-15, -1.000000000000000222 ) ) ;
#265 = CC_DESIGN_APPROVAL ( #136, ( #7 ) ) ;
#266 = FACE_OUTER_BOUND ( 'NONE', #308, .T. ) ;
#267 = CARTESIAN_POINT ( 'NONE',  ( 0.06250000000000000000, -4.615137624123754923E-16, -0.009375000000000063838 ) ) ;
#268 = EDGE_CURVE ( 'NONE', #173, #76, #146, .T. ) ;
#269 = EDGE_CURVE ( 'NONE', #76, #173, #36, .T. ) ;
#270 = FACE_OUTER_BOUND ( 'NONE', #68, .T. ) ;
#271 = APPROVAL_ROLE ( '' ) ;
#272 = LOCAL_TIME ( 14, 33, 17.00000000000000000, #22 ) ;
#273 = DIRECTION ( 'NONE',  ( -2.445468806185136877E-29, 3.491481338843145188E-15, 1.000000000000000000 ) ) ;
#274 = DIRECTION ( 'NONE',  ( -2.445468806185136597E-29, 3.491481338843145583E-15, 1.000000000000000000 ) ) ;
#275 = APPLICATION_PROTOCOL_DEFINITION ( 'international standard', 'config_control_design', 1994, #337 ) ;
#276 = AXIS2_PLACEMENT_3D ( 'NONE', #244, #54, #215 ) ;
#277 = VECTOR ( 'NONE', #273, 39.37007874015748143 ) ;
#278 = DIRECTION ( 'NONE',  ( 1.000000000000000000, 0.000000000000000000, 0.000000000000000000 ) ) ;
#279 = UNCERTAINTY_MEASURE_WITH_UNIT (LENGTH_MEASURE( 1.000000000000000082E-05 ), #40, 'distance_accuracy_value', 'NONE');
#280 = ADVANCED_FACE ( 'NONE', ( #138 ), #51, .T. ) ;
#281 = VERTEX_POINT ( 'NONE', #13 ) ;
#282 = AXIS2_PLACEMENT_3D ( 'NONE', #210, #3, #159 ) ;
#283 = CALENDAR_DATE ( 2024, 30, 4 ) ;
#284 = LINE ( 'NONE', #306, #216 ) ;
#285 = CALENDAR_DATE ( 2024, 30, 4 ) ;
#286 = CARTESIAN_POINT ( 'NONE',  ( 2.292627005798581499E-31, -3.273263755165471417E-17, -0.009375000000000063838 ) ) ;
#287 = DATE_TIME_ROLE ( 'creation_date' ) ;
#288 = DIRECTION ( 'NONE',  ( 2.445468806185136597E-29, -3.491481338843145583E-15, -1.000000000000000000 ) ) ;
#289 = VERTEX_POINT ( 'NONE', #322 ) ;
#290 = DIRECTION ( 'NONE',  ( -2.445468806185136597E-29, 3.491481338843145583E-15, 1.000000000000000000 ) ) ;
#291 = PRODUCT_RELATED_PRODUCT_CATEGORY ( 'detail', '', ( #325 ) ) ;
#292 = DIRECTION ( 'NONE',  ( -2.445468806185136597E-29, 3.491481338843145583E-15, 1.000000000000000000 ) ) ;
#293 = CIRCLE ( 'NONE', #276, 0.1298999999999999877 ) ;
#294 = CARTESIAN_POINT ( 'NONE',  ( 3.668203209277704895E-29, -5.237222008264718177E-15, -1.500000000000000222 ) ) ;
#295 = DIRECTION ( 'NONE',  ( -1.000000000000000000, 6.982962677686265922E-15, -4.876176775795935793E-29 ) ) ;
#296 = APPLICATION_PROTOCOL_DEFINITION ( 'international standard', 'config_control_design', 1994, #4 ) ;
#297 = CALENDAR_DATE ( 2024, 30, 4 ) ;
#298 = AXIS2_PLACEMENT_3D ( 'NONE', #55, #112, #212 ) ;
#299 = CARTESIAN_POINT ( 'NONE',  ( -0.05312499999999999861, 3.873362110279099094E-16, 3.061616995216862494E-21 ) ) ;
#300 = ORIENTED_EDGE ( 'NONE', *, *, #328, .T. ) ;
#301 = VECTOR ( 'NONE', #331, 39.37007874015748143 ) ;
#302 = CIRCLE ( 'NONE', #282, 0.1298999999999999877 ) ;
#303 = APPROVAL_DATE_TIME ( #42, #136 ) ;
#304 = VERTEX_POINT ( 'NONE', #299 ) ;
#305 = ORIENTED_EDGE ( 'NONE', *, *, #17, .F. ) ;
#306 = CARTESIAN_POINT ( 'NONE',  ( -0.1298999999999999877, -2.568486325090776515E-15, -1.000000000000000222 ) ) ;
#307 = CARTESIAN_POINT ( 'NONE',  ( 3.668203209277704895E-29, -5.237222008264718177E-15, -1.500000000000000222 ) ) ;
#308 = EDGE_LOOP ( 'NONE', ( #26, #316 ) ) ;
#309 = AXIS2_PLACEMENT_3D ( 'NONE', #91, #220, #37 ) ;
#310 = CARTESIAN_POINT ( 'NONE',  ( 0.1298999999999999877, -5.932818087285808470E-15, -1.439426635205666161 ) ) ;
#311 = DIRECTION ( 'NONE',  ( 0.7071067811865452413, -7.319954787623248157E-15, -0.7071067811865497932 ) ) ;
#312 = CARTESIAN_POINT ( 'NONE',  ( 2.292627005798581499E-31, -3.273263755165471417E-17, -0.009375000000000063838 ) ) ;
#313 = LINE ( 'NONE', #156, #261 ) ;
#314 = VERTEX_POINT ( 'NONE', #318 ) ;
#315 = CARTESIAN_POINT ( 'NONE',  ( 3.520072935187488206E-29, -5.025731235454363661E-15, -1.439426635205666161 ) ) ;
#316 = ORIENTED_EDGE ( 'NONE', *, *, #235, .T. ) ;
#317 = COORDINATED_UNIVERSAL_TIME_OFFSET ( 5, 0, .BEHIND. ) ;
#318 = CARTESIAN_POINT ( 'NONE',  ( 0.06250000000000012490, -3.927916506198539224E-15, -1.000000000000000222 ) ) ;
#319 = LOCAL_TIME ( 14, 33, 17.00000000000000000, #317 ) ;
#320 = CYLINDRICAL_SURFACE ( 'NONE', #191, 0.06250000000000006939 ) ;
#321 = EDGE_LOOP ( 'NONE', ( #336, #117, #214, #103 ) ) ;
#322 = CARTESIAN_POINT ( 'NONE',  ( 0.05312499999999999861, -4.129888592719939842E-16, 3.061617000609493422E-21 ) ) ;
#323 = ADVANCED_FACE ( 'NONE', ( #248 ), #320, .T. ) ;
#324 = ADVANCED_FACE ( 'NONE', ( #326 ), #63, .T. ) ;
#325 = PRODUCT ( '06179', '06179', '', ( #140 ) ) ;
#326 = FACE_OUTER_BOUND ( 'NONE', #9, .T. ) ;
#327 = VECTOR ( 'NONE', #259, 39.37007874015748143 ) ;
#328 = EDGE_CURVE ( 'NONE', #289, #304, #168, .T. ) ;
#329 = DATE_AND_TIME ( #285, #272 ) ;
#330 = DATE_TIME_ROLE ( 'classification_date' ) ;
#331 = DIRECTION ( 'NONE',  ( -0.9063077870366507138, 7.915267918739014631E-15, 0.4226182617406978315 ) ) ;
#332 = PERSON_AND_ORGANIZATION ( #19, #57 ) ;
#333 = ORIENTED_EDGE ( 'NONE', *, *, #235, .F. ) ;
#334 = AXIS2_PLACEMENT_3D ( 'NONE', #250, #274, #62 ) ;
#335 = DATE_AND_TIME ( #297, #319 ) ;
#336 = ORIENTED_EDGE ( 'NONE', *, *, #241, .F. ) ;
#337 = APPLICATION_CONTEXT ( 'configuration controlled 3d designs of mechanical parts and assemblies' ) ;
#338 = PERSON_AND_ORGANIZATION ( #19, #57 ) ;
#339 = ORIENTED_EDGE ( 'NONE', *, *, #38, .T. ) ;
#340 = EDGE_CURVE ( 'NONE', #50, #173, #12, .T. ) ;
ENDSEC;
END-ISO-10303-21;
