ISO-10303-21;
HEADER;
FILE_DESCRIPTION (( 'STEP AP203' ),
    '1' );
FILE_NAME ('30017.STEP',
    '2023-03-21T20:20:47',
    ( '' ),
    ( '' ),
    'SwSTEP 2.0',
    'SolidWorks 2022',
    '' );
FILE_SCHEMA (( 'CONFIG_CONTROL_DESIGN' ));
ENDSEC;

DATA;
#1 = ORIENTED_EDGE ( 'NONE', *, *, #220, .F. ) ;
#2 = CARTESIAN_POINT ( 'NONE',  ( -0.2099499999999999977, -4.613009414898952931E-15, -1.750000000000000222 ) ) ;
#3 = DIRECTION ( 'NONE',  ( 2.445468806185136597E-29, -3.491481338843145583E-15, -1.000000000000000000 ) ) ;
#4 = AXIS2_PLACEMENT_3D ( 'NONE', #328, #3, #354 ) ;
#5 = EDGE_CURVE ( 'NONE', #183, #231, #383, .T. ) ;
#6 = PERSON_AND_ORGANIZATION_ROLE ( 'creator' ) ;
#7 = CC_DESIGN_PERSON_AND_ORGANIZATION_ASSIGNMENT ( #132, #6, ( #22 ) ) ;
#8 = EDGE_LOOP ( 'NONE', ( #265, #390, #369, #185 ) ) ;
#9 = APPLICATION_PROTOCOL_DEFINITION ( 'international standard', 'config_control_design', 1994, #34 ) ;
#10 = ORIENTED_EDGE ( 'NONE', *, *, #192, .T. ) ;
#11 = EDGE_CURVE ( 'NONE', #178, #102, #244, .T. ) ;
#12 = PERSON_AND_ORGANIZATION ( #37, #230 ) ;
#13 = CLOSED_SHELL ( 'NONE', ( #113, #153, #379, #258, #60 ) ) ;
#14 = AXIS2_PLACEMENT_3D ( 'NONE', #228, #172, #116 ) ;
#15 = VERTEX_POINT ( 'NONE', #104 ) ;
#16 = DATE_AND_TIME ( #130, #136 ) ;
#17 = ORIENTED_EDGE ( 'NONE', *, *, #125, .F. ) ;
#18 = CARTESIAN_POINT ( 'NONE',  ( 1.473055976857960361E-15, 0.2109499999999938924, -1.750000000000000666 ) ) ;
#19 = DIRECTION ( 'NONE',  ( -1.000000000000000000, 6.982962677686266711E-15, 0.000000000000000000 ) ) ;
#20 = AXIS2_PLACEMENT_3D ( 'NONE', #78, #80, #19 ) ;
#21 = ADVANCED_FACE ( 'NONE', ( #71 ), #74, .T. ) ;
#22 = PRODUCT_DEFINITION_FORMATION_WITH_SPECIFIED_SOURCE ( 'ANY', '', #364, .NOT_KNOWN. ) ;
#23 = DIRECTION ( 'NONE',  ( -2.445468806185136597E-29, 3.491481338843145583E-15, 1.000000000000000000 ) ) ;
#24 = EDGE_CURVE ( 'NONE', #355, #102, #27, .T. ) ;
#25 = CARTESIAN_POINT ( 'NONE',  ( 0.000000000000000000, 0.000000000000000000, 0.000000000000000000 ) ) ;
#26 = DIRECTION ( 'NONE',  ( 0.7071067811864267805, -2.468850131080992517E-15, 0.7071067811866682540 ) ) ;
#27 = CIRCLE ( 'NONE', #308, 0.2109499999999997766 ) ;
#28 = DIRECTION ( 'NONE',  ( -2.445468806185136877E-29, 3.491481338843145188E-15, 1.000000000000000000 ) ) ;
#29 = DIRECTION ( 'NONE',  ( 1.000000000000000000, -6.982962677686265922E-15, 0.000000000000000000 ) ) ;
#30 = EDGE_LOOP ( 'NONE', ( #261, #257, #321, #17 ) ) ;
#31 = CARTESIAN_POINT ( 'NONE',  ( -0.2109499999999999986, -6.356943111311146524E-15, -1.750000000000000000 ) ) ;
#32 = VERTEX_POINT ( 'NONE', #341 ) ;
#33 = CYLINDRICAL_SURFACE ( 'NONE', #298, 0.2109499999999999154 ) ;
#34 = APPLICATION_CONTEXT ( 'configuration controlled 3d designs of mechanical parts and assemblies' ) ;
#35 = CARTESIAN_POINT ( 'NONE',  ( 4.279570410823989044E-29, -6.110092342975505460E-15, -1.750000000000000222 ) ) ;
#36 = ORIENTED_EDGE ( 'NONE', *, *, #370, .T. ) ;
#37 = PERSON ( 'UNSPECIFIED', 'UNSPECIFIED', 'UNSPECIFIED', ('UNSPECIFIED'), ('UNSPECIFIED'), ('UNSPECIFIED') ) ;
#38 = APPROVAL_STATUS ( 'not_yet_approved' ) ;
#39 = LOCAL_TIME ( 16, 20, 47.00000000000000000, #365 ) ;
#40 = ORIENTED_EDGE ( 'NONE', *, *, #79, .T. ) ;
#41 = ORIENTED_EDGE ( 'NONE', *, *, #232, .F. ) ;
#42 = PERSON_AND_ORGANIZATION ( #37, #230 ) ;
#43 = EDGE_LOOP ( 'NONE', ( #117, #302, #41 ) ) ;
#44 = AXIS2_PLACEMENT_3D ( 'NONE', #59, #202, #294 ) ;
#45 = ORIENTED_EDGE ( 'NONE', *, *, #181, .F. ) ;
#46 = COORDINATED_UNIVERSAL_TIME_OFFSET ( 5, 0, .BEHIND. ) ;
#47 = DIRECTION ( 'NONE',  ( -1.000000000000000000, 6.982962677686265922E-15, 0.000000000000000000 ) ) ;
#48 = UNCERTAINTY_MEASURE_WITH_UNIT (LENGTH_MEASURE( 1.000000000000000082E-05 ), #296, 'distance_accuracy_value', 'NONE');
#49 = EDGE_CURVE ( 'NONE', #157, #372, #218, .T. ) ;
#50 = CARTESIAN_POINT ( 'NONE',  ( -1.871583226033426040E-19, -9.562973885565287622E-15, -2.738944578960243792 ) ) ;
#51 = FACE_OUTER_BOUND ( 'NONE', #361, .T. ) ;
#52 = CIRCLE ( 'NONE', #81, 0.1909499999999997866 ) ;
#53 = CARTESIAN_POINT ( 'NONE',  ( 1.333396723304190771E-15, 0.1909499999999997866, -6.666983616520978509E-16 ) ) ;
#54 = FACE_OUTER_BOUND ( 'NONE', #150, .T. ) ;
#55 = PRODUCT_RELATED_PRODUCT_CATEGORY ( 'detail', '', ( #364 ) ) ;
#56 = DIRECTION ( 'NONE',  ( 1.000000000000000000, -6.982962677686266711E-15, 0.000000000000000000 ) ) ;
#57 = CIRCLE ( 'NONE', #110, 0.2099499999999999977 ) ;
#58 =( GEOMETRIC_REPRESENTATION_CONTEXT ( 3 ) GLOBAL_UNCERTAINTY_ASSIGNED_CONTEXT ( ( #48 ) ) GLOBAL_UNIT_ASSIGNED_CONTEXT ( ( #296, #149, #256 ) ) REPRESENTATION_CONTEXT ( 'NONE', 'WORKASPACE' ) );
#59 = CARTESIAN_POINT ( 'NONE',  ( 0.000000000000000000, 0.000000000000000000, 0.000000000000000000 ) ) ;
#60 = ADVANCED_FACE ( 'NONE', ( #163 ), #334, .F. ) ;
#61 = EDGE_LOOP ( 'NONE', ( #92, #358 ) ) ;
#62 = CARTESIAN_POINT ( 'NONE',  ( 0.2109499999999997766, -1.517051679406765913E-15, -0.02000000000000005246 ) ) ;
#63 = CC_DESIGN_DATE_AND_TIME_ASSIGNMENT ( #16, #297, ( #338 ) ) ;
#64 = AXIS2_PLACEMENT_3D ( 'NONE', #100, #217, #47 ) ;
#65 = LINE ( 'NONE', #362, #121 ) ;
#66 = PERSON_AND_ORGANIZATION ( #37, #230 ) ;
#67 = CARTESIAN_POINT ( 'NONE',  ( 4.279570410823989044E-29, -6.110092342975505460E-15, -1.750000000000000222 ) ) ;
#68 = APPROVAL_DATE_TIME ( #208, #359 ) ;
#69 = DIRECTION ( 'NONE',  ( 2.445468806185136597E-29, -3.491481338843145583E-15, -1.000000000000000000 ) ) ;
#70 = DATE_AND_TIME ( #122, #353 ) ;
#71 = FACE_OUTER_BOUND ( 'NONE', #97, .T. ) ;
#72 = ORIENTED_EDGE ( 'NONE', *, *, #11, .F. ) ;
#73 = APPROVAL_STATUS ( 'not_yet_approved' ) ;
#74 = CONICAL_SURFACE ( 'NONE', #64, 0.2109499999999997766, 0.7853981633974468357 ) ;
#75 = DIRECTION ( 'NONE',  ( -2.445468806185136597E-29, 3.491481338843145583E-15, 1.000000000000000000 ) ) ;
#76 = ADVANCED_FACE ( 'NONE', ( #134 ), #325, .T. ) ;
#77 = CARTESIAN_POINT ( 'NONE',  ( 6.725039217009124520E-29, -9.601573681818649859E-15, -2.750000000000000000 ) ) ;
#78 = CARTESIAN_POINT ( 'NONE',  ( 1.029763029858249130E-27, -1.470228691156104013E-13, -42.10902331911772478 ) ) ;
#79 = EDGE_CURVE ( 'NONE', #189, #355, #167, .T. ) ;
#80 = DIRECTION ( 'NONE',  ( 2.445468806185136597E-29, -3.491481338843145583E-15, -1.000000000000000000 ) ) ;
#81 = AXIS2_PLACEMENT_3D ( 'NONE', #25, #348, #315 ) ;
#82 = DIRECTION ( 'NONE',  ( -2.445468806185136597E-29, 3.491481338843145583E-15, 1.000000000000000000 ) ) ;
#83 = DIRECTION ( 'NONE',  ( 1.000000000000000000, -6.982962677686266711E-15, 0.000000000000000000 ) ) ;
#84 = CC_DESIGN_SECURITY_CLASSIFICATION ( #105, ( #22 ) ) ;
#85 = LINE ( 'NONE', #143, #87 ) ;
#86 = DIMENSIONAL_EXPONENTS ( 1.000000000000000000, 0.000000000000000000, 0.000000000000000000, 0.000000000000000000, 0.000000000000000000, 0.000000000000000000, 0.000000000000000000 ) ;
#87 = VECTOR ( 'NONE', #320, 39.37007874015748143 ) ;
#88 = APPROVAL_PERSON_ORGANIZATION ( #42, #359, #95 ) ;
#89 = ADVANCED_FACE ( 'NONE', ( #316 ), #250, .T. ) ;
#90 = DIRECTION ( 'NONE',  ( 1.000000000000000000, -6.982962677686265922E-15, 4.876176775795935793E-29 ) ) ;
#91 = APPROVAL ( #73, 'UNSPECIFIED' ) ;
#92 = ORIENTED_EDGE ( 'NONE', *, *, #49, .F. ) ;
#93 = DIRECTION ( 'NONE',  ( -2.445468806185136597E-29, 3.491481338843145583E-15, 1.000000000000000000 ) ) ;
#94 = LINE ( 'NONE', #203, #145 ) ;
#95 = APPROVAL_ROLE ( '' ) ;
#96 = ORIENTED_EDGE ( 'NONE', *, *, #49, .T. ) ;
#97 = EDGE_LOOP ( 'NONE', ( #144, #292, #310, #337 ) ) ;
#98 = CIRCLE ( 'NONE', #247, 0.2109499999999999986 ) ;
#99 = CALENDAR_DATE ( 2023, 21, 3 ) ;
#100 = CARTESIAN_POINT ( 'NONE',  ( 4.890937612370285420E-31, -6.982962677686308865E-17, -0.02000000000000005246 ) ) ;
#101 = PERSON_AND_ORGANIZATION_ROLE ( 'classification_officer' ) ;
#102 = VERTEX_POINT ( 'NONE', #347 ) ;
#103 = APPROVAL_STATUS ( 'not_yet_approved' ) ;
#104 = CARTESIAN_POINT ( 'NONE',  ( 0.2109499999999999986, -7.583148319833423025E-15, -1.750000000000000000 ) ) ;
#105 = SECURITY_CLASSIFICATION ( '', '', #215 ) ;
#106 = ORIENTED_EDGE ( 'NONE', *, *, #246, .F. ) ;
#107 = FACE_OUTER_BOUND ( 'NONE', #30, .T. ) ;
#108 = PLANE ( 'NONE',  #333 ) ;
#109 = DIRECTION ( 'NONE',  ( -2.445468806185136597E-29, 3.491481338843145583E-15, 1.000000000000000000 ) ) ;
#110 = AXIS2_PLACEMENT_3D ( 'NONE', #319, #93, #29 ) ;
#111 = CARTESIAN_POINT ( 'NONE',  ( 0.000000000000000000, 0.000000000000000000, 0.000000000000000000 ) ) ;
#112 = CARTESIAN_POINT ( 'NONE',  ( 4.890937612370285420E-31, -6.982962677686308865E-17, -0.02000000000000005246 ) ) ;
#113 = ADVANCED_FACE ( 'NONE', ( #107 ), #225, .T. ) ;
#114 = VECTOR ( 'NONE', #28, 39.37007874015748143 ) ;
#115 = CC_DESIGN_APPROVAL ( #293, ( #22 ) ) ;
#116 = DIRECTION ( 'NONE',  ( 1.000000000000000000, -6.982962677686266711E-15, 0.000000000000000000 ) ) ;
#117 = ORIENTED_EDGE ( 'NONE', *, *, #192, .F. ) ;
#118 = DIRECTION ( 'NONE',  ( 1.000000000000000000, -6.982962677686265922E-15, 0.000000000000000000 ) ) ;
#119 = ORIENTED_EDGE ( 'NONE', *, *, #356, .T. ) ;
#120 = DIRECTION ( 'NONE',  ( -2.445468806185136597E-29, 3.491481338843145583E-15, 1.000000000000000000 ) ) ;
#121 = VECTOR ( 'NONE', #291, 39.37007874015748143 ) ;
#122 = CALENDAR_DATE ( 2023, 21, 3 ) ;
#123 = SHAPE_DEFINITION_REPRESENTATION ( #254, #190 ) ;
#124 = DIRECTION ( 'NONE',  ( -0.7071067811865464625, 2.468850131082245622E-15, -0.7071067811865485719 ) ) ;
#125 = EDGE_CURVE ( 'NONE', #272, #15, #279, .T. ) ;
#126 = COORDINATED_UNIVERSAL_TIME_OFFSET ( 5, 0, .BEHIND. ) ;
#127 = CARTESIAN_POINT ( 'NONE',  ( -0.2109499999999997766, 1.403226350081053281E-15, -0.02000000000000005246 ) ) ;
#128 = AXIS2_PLACEMENT_3D ( 'NONE', #380, #23, #56 ) ;
#129 = EDGE_CURVE ( 'NONE', #178, #189, #52, .T. ) ;
#130 = CALENDAR_DATE ( 2023, 21, 3 ) ;
#131 = EDGE_LOOP ( 'NONE', ( #242, #133, #323, #45 ) ) ;
#132 = PERSON_AND_ORGANIZATION ( #37, #230 ) ;
#133 = ORIENTED_EDGE ( 'NONE', *, *, #290, .T. ) ;
#134 = FACE_OUTER_BOUND ( 'NONE', #268, .T. ) ;
#135 = AXIS2_PLACEMENT_3D ( 'NONE', #264, #177, #175 ) ;
#136 = LOCAL_TIME ( 16, 20, 47.00000000000000000, #275 ) ;
#137 = CARTESIAN_POINT ( 'NONE',  ( 4.279570410823989044E-29, -6.110092342975505460E-15, -1.750000000000000222 ) ) ;
#138 = DIRECTION ( 'NONE',  ( 0.7071067811865464625, -7.319954787623252890E-15, -0.7071067811865485719 ) ) ;
#139 = CARTESIAN_POINT ( 'NONE',  ( -0.1909499999999997866, 1.368311536692622026E-15, -9.447056881496589484E-30 ) ) ;
#140 = CYLINDRICAL_SURFACE ( 'NONE', #158, 0.2109499999999999986 ) ;
#141 = LINE ( 'NONE', #314, #229 ) ;
#142 = EDGE_CURVE ( 'NONE', #102, #355, #376, .T. ) ;
#143 = CARTESIAN_POINT ( 'NONE',  ( -0.2109499999999999154, 1.498889901085930741E-15, -1.037649357289271961E-29 ) ) ;
#144 = ORIENTED_EDGE ( 'NONE', *, *, #79, .F. ) ;
#145 = VECTOR ( 'NONE', #174, 39.37007874015748143 ) ;
#146 = DIRECTION ( 'NONE',  ( -2.438088387897960049E-29, 3.491481338843145188E-15, 1.000000000000000000 ) ) ;
#147 = FACE_OUTER_BOUND ( 'NONE', #299, .T. ) ;
#148 = ORIENTED_EDGE ( 'NONE', *, *, #366, .F. ) ;
#149 =( NAMED_UNIT ( * ) PLANE_ANGLE_UNIT ( ) SI_UNIT ( $, .RADIAN. ) );
#150 = EDGE_LOOP ( 'NONE', ( #148, #119, #205, #209 ) ) ;
#151 = APPLICATION_PROTOCOL_DEFINITION ( 'international standard', 'config_control_design', 1994, #346 ) ;
#152 = ORIENTED_EDGE ( 'NONE', *, *, #5, .T. ) ;
#153 = ADVANCED_FACE ( 'NONE', ( #198 ), #184, .F. ) ;
#154 = APPROVAL_ROLE ( '' ) ;
#155 = DIRECTION ( 'NONE',  ( -1.000000000000000000, 6.982962677686265922E-15, -4.876176775795935793E-29 ) ) ;
#156 = CC_DESIGN_PERSON_AND_ORGANIZATION_ASSIGNMENT ( #182, #301, ( #338 ) ) ;
#157 = VERTEX_POINT ( 'NONE', #311 ) ;
#158 = AXIS2_PLACEMENT_3D ( 'NONE', #350, #169, #266 ) ;
#159 = DIRECTION ( 'NONE',  ( 0.000000000000000000, 0.000000000000000000, 1.000000000000000000 ) ) ;
#160 = EDGE_LOOP ( 'NONE', ( #305, #152, #201, #374 ) ) ;
#161 = DESIGN_CONTEXT ( 'detailed design', #34, 'design' ) ;
#162 = CALENDAR_DATE ( 2023, 21, 3 ) ;
#163 = FACE_OUTER_BOUND ( 'NONE', #273, .T. ) ;
#164 = DIRECTION ( 'NONE',  ( -2.445468806185136597E-29, 3.491481338843145583E-15, 1.000000000000000000 ) ) ;
#165 = CIRCLE ( 'NONE', #287, 0.2109499999999999986 ) ;
#166 = AXIS2_PLACEMENT_3D ( 'NONE', #309, #159, #277 ) ;
#167 = LINE ( 'NONE', #385, #267 ) ;
#168 = DIRECTION ( 'NONE',  ( -1.000000000000000000, 6.982962677686265922E-15, -4.876176775795935793E-29 ) ) ;
#169 = DIRECTION ( 'NONE',  ( -2.445468806185136597E-29, 3.491481338843145583E-15, 1.000000000000000000 ) ) ;
#170 = CARTESIAN_POINT ( 'NONE',  ( 0.000000000000000000, 0.000000000000000000, 0.000000000000000000 ) ) ;
#171 = CONICAL_SURFACE ( 'NONE', #4, 751.2258538476739886, 1.518436449235074148 ) ;
#172 = DIRECTION ( 'NONE',  ( -2.445468806185136597E-29, 3.491481338843145583E-15, 1.000000000000000000 ) ) ;
#173 = ORIENTED_EDGE ( 'NONE', *, *, #24, .T. ) ;
#174 = DIRECTION ( 'NONE',  ( 0.9986295347545742773, -7.033825938271997912E-15, -0.05233595624293643084 ) ) ;
#175 = DIRECTION ( 'NONE',  ( 1.000000000000000000, -6.982962677686266711E-15, 0.000000000000000000 ) ) ;
#176 = AXIS2_PLACEMENT_3D ( 'NONE', #111, #286, #255 ) ;
#177 = DIRECTION ( 'NONE',  ( -2.445468806185136597E-29, 3.491481338843145583E-15, 1.000000000000000000 ) ) ;
#178 = VERTEX_POINT ( 'NONE', #139 ) ;
#179 = PLANE ( 'NONE',  #224 ) ;
#180 = CC_DESIGN_APPROVAL ( #359, ( #105 ) ) ;
#181 = EDGE_CURVE ( 'NONE', #231, #355, #141, .T. ) ;
#182 = PERSON_AND_ORGANIZATION ( #37, #230 ) ;
#183 = VERTEX_POINT ( 'NONE', #249 ) ;
#184 = CONICAL_SURFACE ( 'NONE', #20, 751.2258538476739886, 1.518436449235074148 ) ;
#185 = ORIENTED_EDGE ( 'NONE', *, *, #262, .F. ) ;
#186 = EDGE_CURVE ( 'NONE', #157, #231, #382, .T. ) ;
#187 = CARTESIAN_POINT ( 'NONE',  ( 4.890937612370285420E-31, -6.982962677686308865E-17, -0.02000000000000005246 ) ) ;
#188 = EDGE_LOOP ( 'NONE', ( #96, #276, #1, #238 ) ) ;
#189 = VERTEX_POINT ( 'NONE', #388 ) ;
#190 = ADVANCED_BREP_SHAPE_REPRESENTATION ( '30017', ( #387, #386, #166 ), #58 ) ;
#191 = DIRECTION ( 'NONE',  ( 1.000000000000000000, -6.982962677686266711E-15, 4.876176775795936353E-29 ) ) ;
#192 = EDGE_CURVE ( 'NONE', #329, #32, #195, .T. ) ;
#193 = DIRECTION ( 'NONE',  ( -2.445468806185136597E-29, 3.491481338843145583E-15, 1.000000000000000000 ) ) ;
#194 = AXIS2_PLACEMENT_3D ( 'NONE', #67, #75, #211 ) ;
#195 = LINE ( 'NONE', #50, #363 ) ;
#196 = ADVANCED_FACE ( 'NONE', ( #54 ), #384, .T. ) ;
#197 = CARTESIAN_POINT ( 'NONE',  ( 0.2099499999999999977, -7.576165357155737011E-15, -1.750000000000000222 ) ) ;
#198 = FACE_OUTER_BOUND ( 'NONE', #43, .T. ) ;
#199 = FACE_OUTER_BOUND ( 'NONE', #61, .T. ) ;
#200 = LOCAL_TIME ( 16, 20, 47.00000000000000000, #46 ) ;
#201 = ORIENTED_EDGE ( 'NONE', *, *, #181, .T. ) ;
#202 = DIRECTION ( 'NONE',  ( -2.445468806185136597E-29, 3.491481338843145583E-15, 1.000000000000000000 ) ) ;
#203 = CARTESIAN_POINT ( 'NONE',  ( 1.871583227373026595E-19, -9.562973885565287622E-15, -2.738944578960243792 ) ) ;
#204 = AXIS2_PLACEMENT_3D ( 'NONE', #236, #278, #340 ) ;
#205 = ORIENTED_EDGE ( 'NONE', *, *, #186, .T. ) ;
#206 = AXIS2_PLACEMENT_3D ( 'NONE', #137, #248, #223 ) ;
#207 = DIRECTION ( 'NONE',  ( -2.445468806185136597E-29, 3.491481338843145583E-15, 1.000000000000000000 ) ) ;
#208 = DATE_AND_TIME ( #339, #335 ) ;
#209 = ORIENTED_EDGE ( 'NONE', *, *, #5, .F. ) ;
#210 = MECHANICAL_CONTEXT ( 'NONE', #346, 'mechanical' ) ;
#211 = DIRECTION ( 'NONE',  ( 1.000000000000000000, -6.982962677686265922E-15, 0.000000000000000000 ) ) ;
#212 = ADVANCED_FACE ( 'NONE', ( #51 ), #108, .F. ) ;
#213 = PERSON_AND_ORGANIZATION_ROLE ( 'design_supplier' ) ;
#214 = ORIENTED_EDGE ( 'NONE', *, *, #303, .F. ) ;
#215 = SECURITY_CLASSIFICATION_LEVEL ( 'unclassified' ) ;
#216 = DIRECTION ( 'NONE',  ( -2.445468806185136597E-29, 3.491481338843145583E-15, 1.000000000000000000 ) ) ;
#217 = DIRECTION ( 'NONE',  ( 2.445468806185136597E-29, -3.491481338843145583E-15, -1.000000000000000000 ) ) ;
#218 = CIRCLE ( 'NONE', #194, 0.2099499999999999977 ) ;
#219 = ORIENTED_EDGE ( 'NONE', *, *, #282, .F. ) ;
#220 = EDGE_CURVE ( 'NONE', #231, #183, #165, .T. ) ;
#221 = DIRECTION ( 'NONE',  ( 2.438088387897960049E-29, -3.491481338843145188E-15, -1.000000000000000000 ) ) ;
#222 = CC_DESIGN_PERSON_AND_ORGANIZATION_ASSIGNMENT ( #12, #306, ( #364 ) ) ;
#223 = DIRECTION ( 'NONE',  ( 1.000000000000000000, -6.982962677686265922E-15, 0.000000000000000000 ) ) ;
#224 = AXIS2_PLACEMENT_3D ( 'NONE', #357, #146, #90 ) ;
#225 = CYLINDRICAL_SURFACE ( 'NONE', #252, 0.2109499999999999986 ) ;
#226 = DIRECTION ( 'NONE',  ( -2.445468806185136877E-29, 3.491481338843145188E-15, 1.000000000000000000 ) ) ;
#227 = LINE ( 'NONE', #322, #344 ) ;
#228 = CARTESIAN_POINT ( 'NONE',  ( 4.279570410823988484E-29, -6.110092342975504671E-15, -1.750000000000000000 ) ) ;
#229 = VECTOR ( 'NONE', #226, 39.37007874015748143 ) ;
#230 = ORGANIZATION ( 'UNSPECIFIED', 'UNSPECIFIED', '' ) ;
#231 = VERTEX_POINT ( 'NONE', #351 ) ;
#232 = EDGE_CURVE ( 'NONE', #32, #272, #98, .T. ) ;
#233 = FACE_OUTER_BOUND ( 'NONE', #131, .T. ) ;
#234 =( LENGTH_UNIT ( ) NAMED_UNIT ( * ) SI_UNIT ( $, .METRE. ) );
#235 = DATE_AND_TIME ( #99, #200 ) ;
#236 = CARTESIAN_POINT ( 'NONE',  ( 4.277124942017804002E-29, -6.106600861636660875E-15, -1.748999999999999888 ) ) ;
#237 = PERSON_AND_ORGANIZATION ( #37, #230 ) ;
#238 = ORIENTED_EDGE ( 'NONE', *, *, #186, .F. ) ;
#239 = AXIS2_PLACEMENT_3D ( 'NONE', #245, #69, #378 ) ;
#240 = CC_DESIGN_PERSON_AND_ORGANIZATION_ASSIGNMENT ( #243, #213, ( #22 ) ) ;
#241 = APPROVAL_DATE_TIME ( #70, #91 ) ;
#242 = ORIENTED_EDGE ( 'NONE', *, *, #220, .T. ) ;
#243 = PERSON_AND_ORGANIZATION ( #37, #230 ) ;
#244 = LINE ( 'NONE', #127, #251 ) ;
#245 = CARTESIAN_POINT ( 'NONE',  ( 4.890937612370285420E-31, -6.982962677686308865E-17, -0.02000000000000005246 ) ) ;
#246 = EDGE_CURVE ( 'NONE', #272, #32, #313, .T. ) ;
#247 = AXIS2_PLACEMENT_3D ( 'NONE', #77, #109, #83 ) ;
#248 = DIRECTION ( 'NONE',  ( -2.445468806185136597E-29, 3.491481338843145583E-15, 1.000000000000000000 ) ) ;
#249 = CARTESIAN_POINT ( 'NONE',  ( -0.2109499999999999986, -1.589325343120829965E-15, -1.748999999999999888 ) ) ;
#250 = CYLINDRICAL_SURFACE ( 'NONE', #176, 0.2109499999999999154 ) ;
#251 = VECTOR ( 'NONE', #124, 39.37007874015748143 ) ;
#252 = AXIS2_PLACEMENT_3D ( 'NONE', #170, #164, #191 ) ;
#253 = DIRECTION ( 'NONE',  ( -0.9986295347545742773, 6.790662755453668466E-15, -0.05233595624293643084 ) ) ;
#254 = PRODUCT_DEFINITION_SHAPE ( 'NONE', 'NONE',  #338 ) ;
#255 = DIRECTION ( 'NONE',  ( 1.000000000000000000, -6.982962677686265922E-15, 4.876176775795935793E-29 ) ) ;
#256 =( NAMED_UNIT ( * ) SI_UNIT ( $, .STERADIAN. ) SOLID_ANGLE_UNIT ( ) );
#257 = ORIENTED_EDGE ( 'NONE', *, *, #331, .T. ) ;
#258 = ADVANCED_FACE ( 'NONE', ( #312 ), #140, .T. ) ;
#259 = FACE_OUTER_BOUND ( 'NONE', #188, .T. ) ;
#260 = AXIS2_PLACEMENT_3D ( 'NONE', #112, #82, #283 ) ;
#261 = ORIENTED_EDGE ( 'NONE', *, *, #246, .T. ) ;
#262 = EDGE_CURVE ( 'NONE', #367, #15, #295, .T. ) ;
#263 = DIRECTION ( 'NONE',  ( -2.445468806185136877E-29, 3.491481338843145188E-15, 1.000000000000000000 ) ) ;
#264 = CARTESIAN_POINT ( 'NONE',  ( 4.279570410823988484E-29, -6.110092342975504671E-15, -1.750000000000000000 ) ) ;
#265 = ORIENTED_EDGE ( 'NONE', *, *, #331, .F. ) ;
#266 = DIRECTION ( 'NONE',  ( 1.000000000000000000, -6.982962677686266711E-15, 4.876176775795936353E-29 ) ) ;
#267 = VECTOR ( 'NONE', #138, 39.37007874015748143 ) ;
#268 = EDGE_LOOP ( 'NONE', ( #214, #40, #173, #72 ) ) ;
#269 = APPROVAL_PERSON_ORGANIZATION ( #66, #91, #154 ) ;
#270 = COORDINATED_UNIVERSAL_TIME_OFFSET ( 5, 0, .BEHIND. ) ;
#271 = DIRECTION ( 'NONE',  ( 2.438088387897960049E-29, -3.491481338843145188E-15, -1.000000000000000000 ) ) ;
#272 = VERTEX_POINT ( 'NONE', #352 ) ;
#273 = EDGE_LOOP ( 'NONE', ( #36, #330 ) ) ;
#274 = VECTOR ( 'NONE', #26, 39.37007874015748143 ) ;
#275 = COORDINATED_UNIVERSAL_TIME_OFFSET ( 5, 0, .BEHIND. ) ;
#276 = ORIENTED_EDGE ( 'NONE', *, *, #366, .T. ) ;
#277 = DIRECTION ( 'NONE',  ( 1.000000000000000000, 0.000000000000000000, 0.000000000000000000 ) ) ;
#278 = DIRECTION ( 'NONE',  ( -2.445468806185136597E-29, 3.491481338843145583E-15, 1.000000000000000000 ) ) ;
#279 = LINE ( 'NONE', #288, #114 ) ;
#280 = AXIS2_PLACEMENT_3D ( 'NONE', #18, #271, #155 ) ;
#281 = CC_DESIGN_APPROVAL ( #91, ( #338 ) ) ;
#282 = EDGE_CURVE ( 'NONE', #329, #272, #94, .T. ) ;
#283 = DIRECTION ( 'NONE',  ( 1.000000000000000000, -6.982962677686265922E-15, 0.000000000000000000 ) ) ;
#284 = DIRECTION ( 'NONE',  ( 1.000000000000000000, -6.982962677686266711E-15, 0.000000000000000000 ) ) ;
#285 = CC_DESIGN_DATE_AND_TIME_ASSIGNMENT ( #336, #373, ( #105 ) ) ;
#286 = DIRECTION ( 'NONE',  ( -2.445468806185136597E-29, 3.491481338843145583E-15, 1.000000000000000000 ) ) ;
#287 = AXIS2_PLACEMENT_3D ( 'NONE', #345, #193, #284 ) ;
#288 = CARTESIAN_POINT ( 'NONE',  ( 0.2109499999999999986, -1.473055976857917959E-15, 1.028629490854152768E-29 ) ) ;
#289 = CARTESIAN_POINT ( 'NONE',  ( 6.698134221675361701E-29, -9.562786727242617886E-15, -2.738944578960243792 ) ) ;
#290 = EDGE_CURVE ( 'NONE', #183, #102, #85, .T. ) ;
#291 = DIRECTION ( 'NONE',  ( -0.7071067811864267805, 7.493145998869918709E-15, 0.7071067811866682540 ) ) ;
#292 = ORIENTED_EDGE ( 'NONE', *, *, #129, .F. ) ;
#293 = APPROVAL ( #38, 'UNSPECIFIED' ) ;
#294 = DIRECTION ( 'NONE',  ( 1.000000000000000000, -6.982962677686266711E-15, 4.876176775795935793E-29 ) ) ;
#295 = CIRCLE ( 'NONE', #14, 0.2109499999999999986 ) ;
#296 =( CONVERSION_BASED_UNIT ( 'INCH', #389 ) LENGTH_UNIT ( ) NAMED_UNIT ( #86 ) );
#297 = DATE_TIME_ROLE ( 'creation_date' ) ;
#298 = AXIS2_PLACEMENT_3D ( 'NONE', #324, #120, #360 ) ;
#299 = EDGE_LOOP ( 'NONE', ( #219, #10, #106 ) ) ;
#300 = APPROVAL_PERSON_ORGANIZATION ( #237, #293, #332 ) ;
#301 = PERSON_AND_ORGANIZATION_ROLE ( 'creator' ) ;
#302 = ORIENTED_EDGE ( 'NONE', *, *, #282, .T. ) ;
#303 = EDGE_CURVE ( 'NONE', #189, #178, #368, .T. ) ;
#304 = APPROVAL_DATE_TIME ( #235, #293 ) ;
#305 = ORIENTED_EDGE ( 'NONE', *, *, #290, .F. ) ;
#306 = PERSON_AND_ORGANIZATION_ROLE ( 'design_owner' ) ;
#307 = ORIENTED_EDGE ( 'NONE', *, *, #303, .T. ) ;
#308 = AXIS2_PLACEMENT_3D ( 'NONE', #187, #216, #375 ) ;
#309 = CARTESIAN_POINT ( 'NONE',  ( 0.000000000000000000, 0.000000000000000000, 0.000000000000000000 ) ) ;
#310 = ORIENTED_EDGE ( 'NONE', *, *, #11, .T. ) ;
#311 = CARTESIAN_POINT ( 'NONE',  ( 0.2099499999999999977, -7.576165357155737011E-15, -1.750000000000000222 ) ) ;
#312 = FACE_OUTER_BOUND ( 'NONE', #8, .T. ) ;
#313 = CIRCLE ( 'NONE', #128, 0.2109499999999999986 ) ;
#314 = CARTESIAN_POINT ( 'NONE',  ( 0.2109499999999999154, -1.473055976857917171E-15, 1.028629490854152208E-29 ) ) ;
#315 = DIRECTION ( 'NONE',  ( 1.000000000000000000, -6.982962677686266711E-15, 4.876176775795935793E-29 ) ) ;
#316 = FACE_OUTER_BOUND ( 'NONE', #160, .T. ) ;
#317 = ADVANCED_FACE ( 'NONE', ( #233 ), #33, .T. ) ;
#318 = AXIS2_PLACEMENT_3D ( 'NONE', #35, #207, #118 ) ;
#319 = CARTESIAN_POINT ( 'NONE',  ( 4.279570410823989044E-29, -6.110092342975505460E-15, -1.750000000000000222 ) ) ;
#320 = DIRECTION ( 'NONE',  ( -2.445468806185136877E-29, 3.491481338843145188E-15, 1.000000000000000000 ) ) ;
#321 = ORIENTED_EDGE ( 'NONE', *, *, #370, .F. ) ;
#322 = CARTESIAN_POINT ( 'NONE',  ( -0.2109499999999999986, 1.498889901085931332E-15, -1.037649357289272522E-29 ) ) ;
#323 = ORIENTED_EDGE ( 'NONE', *, *, #24, .F. ) ;
#324 = CARTESIAN_POINT ( 'NONE',  ( 0.000000000000000000, 0.000000000000000000, 0.000000000000000000 ) ) ;
#325 = CONICAL_SURFACE ( 'NONE', #239, 0.2109499999999997766, 0.7853981633974468357 ) ;
#326 = ORIENTED_EDGE ( 'NONE', *, *, #129, .T. ) ;
#327 = ADVANCED_FACE ( 'NONE', ( #199 ), #179, .F. ) ;
#328 = CARTESIAN_POINT ( 'NONE',  ( 1.029763029858249130E-27, -1.470228691156104013E-13, -42.10902331911772478 ) ) ;
#329 = VERTEX_POINT ( 'NONE', #289 ) ;
#330 = ORIENTED_EDGE ( 'NONE', *, *, #262, .T. ) ;
#331 = EDGE_CURVE ( 'NONE', #32, #367, #227, .T. ) ;
#332 = APPROVAL_ROLE ( '' ) ;
#333 = AXIS2_PLACEMENT_3D ( 'NONE', #53, #221, #168 ) ;
#334 = PLANE ( 'NONE',  #280 ) ;
#335 = LOCAL_TIME ( 16, 20, 47.00000000000000000, #126 ) ;
#336 = DATE_AND_TIME ( #162, #39 ) ;
#337 = ORIENTED_EDGE ( 'NONE', *, *, #142, .T. ) ;
#338 = PRODUCT_DEFINITION ( 'UNKNOWN', '', #22, #161 ) ;
#339 = CALENDAR_DATE ( 2023, 21, 3 ) ;
#340 = DIRECTION ( 'NONE',  ( 1.000000000000000000, -6.982962677686266711E-15, 0.000000000000000000 ) ) ;
#341 = CARTESIAN_POINT ( 'NONE',  ( -0.2109499999999998321, -8.128517704960733872E-15, -2.750000000000000000 ) ) ;
#342 = CC_DESIGN_PERSON_AND_ORGANIZATION_ASSIGNMENT ( #371, #101, ( #105 ) ) ;
#343 = CIRCLE ( 'NONE', #135, 0.2109499999999999986 ) ;
#344 = VECTOR ( 'NONE', #263, 39.37007874015748143 ) ;
#345 = CARTESIAN_POINT ( 'NONE',  ( 4.277124942017804002E-29, -6.106600861636660875E-15, -1.748999999999999888 ) ) ;
#346 = APPLICATION_CONTEXT ( 'configuration controlled 3d designs of mechanical parts and assemblies' ) ;
#347 = CARTESIAN_POINT ( 'NONE',  ( -0.2109499999999997766, 1.403226350081053281E-15, -0.02000000000000005246 ) ) ;
#348 = DIRECTION ( 'NONE',  ( -2.445468806185136597E-29, 3.491481338843145583E-15, 1.000000000000000000 ) ) ;
#349 = CLOSED_SHELL ( 'NONE', ( #381, #317, #76, #21, #89, #196, #327, #212 ) ) ;
#350 = CARTESIAN_POINT ( 'NONE',  ( 0.000000000000000000, 0.000000000000000000, 0.000000000000000000 ) ) ;
#351 = CARTESIAN_POINT ( 'NONE',  ( 0.2109499999999999986, -7.579656838494578440E-15, -1.748999999999999888 ) ) ;
#352 = CARTESIAN_POINT ( 'NONE',  ( 0.2109499999999998321, -1.104879573444855385E-14, -2.750000000000000000 ) ) ;
#353 = LOCAL_TIME ( 16, 20, 47.00000000000000000, #270 ) ;
#354 = DIRECTION ( 'NONE',  ( -1.000000000000000000, 6.982962677686266711E-15, 0.000000000000000000 ) ) ;
#355 = VERTEX_POINT ( 'NONE', #62 ) ;
#356 = EDGE_CURVE ( 'NONE', #372, #157, #57, .T. ) ;
#357 = CARTESIAN_POINT ( 'NONE',  ( 4.279570410823989044E-29, -6.110092342975505460E-15, -1.750000000000000222 ) ) ;
#358 = ORIENTED_EDGE ( 'NONE', *, *, #356, .F. ) ;
#359 = APPROVAL ( #103, 'UNSPECIFIED' ) ;
#360 = DIRECTION ( 'NONE',  ( 1.000000000000000000, -6.982962677686265922E-15, 4.876176775795935793E-29 ) ) ;
#361 = EDGE_LOOP ( 'NONE', ( #326, #307 ) ) ;
#362 = CARTESIAN_POINT ( 'NONE',  ( -0.2099499999999999977, -4.618307869247174544E-15, -1.750000000000000222 ) ) ;
#363 = VECTOR ( 'NONE', #253, 39.37007874015748143 ) ;
#364 = PRODUCT ( '30017', '30017', '', ( #210 ) ) ;
#365 = COORDINATED_UNIVERSAL_TIME_OFFSET ( 5, 0, .BEHIND. ) ;
#366 = EDGE_CURVE ( 'NONE', #372, #183, #65, .T. ) ;
#367 = VERTEX_POINT ( 'NONE', #31 ) ;
#368 = CIRCLE ( 'NONE', #44, 0.1909499999999997866 ) ;
#369 = ORIENTED_EDGE ( 'NONE', *, *, #125, .T. ) ;
#370 = EDGE_CURVE ( 'NONE', #15, #367, #343, .T. ) ;
#371 = PERSON_AND_ORGANIZATION ( #37, #230 ) ;
#372 = VERTEX_POINT ( 'NONE', #2 ) ;
#373 = DATE_TIME_ROLE ( 'classification_date' ) ;
#374 = ORIENTED_EDGE ( 'NONE', *, *, #142, .F. ) ;
#375 = DIRECTION ( 'NONE',  ( 1.000000000000000000, -6.982962677686265922E-15, 0.000000000000000000 ) ) ;
#376 = CIRCLE ( 'NONE', #260, 0.2109499999999997766 ) ;
#377 = CONICAL_SURFACE ( 'NONE', #318, 0.2099499999999999977, 0.7853981633972775267 ) ;
#378 = DIRECTION ( 'NONE',  ( -1.000000000000000000, 6.982962677686265922E-15, 0.000000000000000000 ) ) ;
#379 = ADVANCED_FACE ( 'NONE', ( #147 ), #171, .F. ) ;
#380 = CARTESIAN_POINT ( 'NONE',  ( 6.725039217009124520E-29, -9.601573681818649859E-15, -2.750000000000000000 ) ) ;
#381 = ADVANCED_FACE ( 'NONE', ( #259 ), #377, .T. ) ;
#382 = LINE ( 'NONE', #197, #274 ) ;
#383 = CIRCLE ( 'NONE', #204, 0.2109499999999999986 ) ;
#384 = CONICAL_SURFACE ( 'NONE', #206, 0.2099499999999999977, 0.7853981633972775267 ) ;
#385 = CARTESIAN_POINT ( 'NONE',  ( 0.2109499999999997766, -1.517051679406765913E-15, -0.02000000000000005246 ) ) ;
#386 = MANIFOLD_SOLID_BREP ( 'Body-Move/Copy2[2]', #349 ) ;
#387 = MANIFOLD_SOLID_BREP ( 'Body-Move/Copy2[1]', #13 ) ;
#388 = CARTESIAN_POINT ( 'NONE',  ( 0.1909499999999997866, -1.413531886040619129E-15, 9.604942887381089324E-30 ) ) ;
#389 = LENGTH_MEASURE_WITH_UNIT ( LENGTH_MEASURE( 0.02539999999999999897 ), #234 );
#390 = ORIENTED_EDGE ( 'NONE', *, *, #232, .T. ) ;
ENDSEC;
END-ISO-10303-21;
