ISO-10303-21;
HEADER;
FILE_DESCRIPTION (( 'STEP AP203' ),
    '1' );
FILE_NAME ('30105.STEP',
    '2023-03-21T20:21:35',
    ( '' ),
    ( '' ),
    'SwSTEP 2.0',
    'SolidWorks 2022',
    '' );
FILE_SCHEMA (( 'CONFIG_CONTROL_DESIGN' ));
ENDSEC;

DATA;
#1 = CARTESIAN_POINT ( 'NONE',  ( 0.02344999999999999862, -5.020401017122558756E-15, -1.391000000000000014 ) ) ;
#2 = DIRECTION ( 'NONE',  ( -2.445468806185136597E-29, 3.491481338843145583E-15, 1.000000000000000000 ) ) ;
#3 = EDGE_CURVE ( 'NONE', #12, #109, #324, .T. ) ;
#4 = FACE_OUTER_BOUND ( 'NONE', #318, .T. ) ;
#5 = LENGTH_MEASURE_WITH_UNIT ( LENGTH_MEASURE( 0.02539999999999999897 ), #69 );
#6 = CYLINDRICAL_SURFACE ( 'NONE', #111, 0.02344999999999991536 ) ;
#7 = AXIS2_PLACEMENT_3D ( 'NONE', #141, #254, #226 ) ;
#8 = EDGE_CURVE ( 'NONE', #192, #227, #128, .T. ) ;
#9 = DIRECTION ( 'NONE',  ( 1.000000000000000000, -6.982962677686256455E-15, 0.000000000000000000 ) ) ;
#10 = DIRECTION ( 'NONE',  ( 1.000000000000000000, -6.982962677686265922E-15, 4.876176775795935793E-29 ) ) ;
#11 = FACE_OUTER_BOUND ( 'NONE', #135, .T. ) ;
#12 = VERTEX_POINT ( 'NONE', #1 ) ;
#13 = AXIS2_PLACEMENT_3D ( 'NONE', #204, #62, #60 ) ;
#14 = LOCAL_TIME ( 16, 21, 35.00000000000000000, #292 ) ;
#15 = VERTEX_POINT ( 'NONE', #311 ) ;
#16 = PERSON_AND_ORGANIZATION ( #113, #262 ) ;
#17 = VERTEX_POINT ( 'NONE', #66 ) ;
#18 = ADVANCED_BREP_SHAPE_REPRESENTATION ( '30105', ( #155, #279, #48 ), #283 ) ;
#19 = LINE ( 'NONE', #166, #232 ) ;
#20 = APPLICATION_PROTOCOL_DEFINITION ( 'international standard', 'config_control_design', 1994, #316 ) ;
#21 = ORIENTED_EDGE ( 'NONE', *, *, #23, .F. ) ;
#22 = AXIS2_PLACEMENT_3D ( 'NONE', #208, #180, #274 ) ;
#23 = EDGE_CURVE ( 'NONE', #227, #192, #326, .T. ) ;
#24 = DATE_AND_TIME ( #294, #99 ) ;
#25 = ADVANCED_FACE ( 'NONE', ( #11 ), #187, .T. ) ;
#26 = ORIENTED_EDGE ( 'NONE', *, *, #209, .T. ) ;
#27 = CC_DESIGN_APPROVAL ( #53, ( #106 ) ) ;
#28 = DIRECTION ( 'NONE',  ( -2.445468806185136597E-29, 3.491481338843145583E-15, 1.000000000000000000 ) ) ;
#29 = ORIENTED_EDGE ( 'NONE', *, *, #383, .F. ) ;
#30 = CARTESIAN_POINT ( 'NONE',  ( -0.02344999999999999862, -2.294872072348665492E-15, -1.389999999999999902 ) ) ;
#31 = CIRCLE ( 'NONE', #143, 0.02344999999999983209 ) ;
#32 = CYLINDRICAL_SURFACE ( 'NONE', #342, 0.02344999999999991536 ) ;
#33 = APPROVAL ( #87, 'UNSPECIFIED' ) ;
#34 = CARTESIAN_POINT ( 'NONE',  ( 4.890937612370274034E-31, -6.982962677686292842E-17, -0.02000000000000000389 ) ) ;
#35 = DIRECTION ( 'NONE',  ( 1.000000000000000000, -6.982962677686250933E-15, 0.000000000000000000 ) ) ;
#36 = LINE ( 'NONE', #371, #82 ) ;
#37 = DIRECTION ( 'NONE',  ( 0.000000000000000000, 0.000000000000000000, 1.000000000000000000 ) ) ;
#38 = LINE ( 'NONE', #373, #147 ) ;
#39 = AXIS2_PLACEMENT_3D ( 'NONE', #218, #271, #35 ) ;
#40 = PRODUCT_RELATED_PRODUCT_CATEGORY ( 'detail', '', ( #56 ) ) ;
#41 = DIRECTION ( 'NONE',  ( 1.000000000000000000, -6.982962677686250933E-15, 0.000000000000000000 ) ) ;
#42 = LINE ( 'NONE', #363, #351 ) ;
#43 = PERSON_AND_ORGANIZATION ( #113, #262 ) ;
#44 = CARTESIAN_POINT ( 'NONE',  ( 3.401647109403525181E-29, -4.856650542330816199E-15, -1.391000000000000014 ) ) ;
#45 = ORIENTED_EDGE ( 'NONE', *, *, #383, .T. ) ;
#46 = DIRECTION ( 'NONE',  ( 2.438088387897960049E-29, -3.491481338843145188E-15, -1.000000000000000000 ) ) ;
#47 = ORIENTED_EDGE ( 'NONE', *, *, #209, .F. ) ;
#48 = AXIS2_PLACEMENT_3D ( 'NONE', #73, #37, #337 ) ;
#49 = ORIENTED_EDGE ( 'NONE', *, *, #63, .F. ) ;
#50 = ORIENTED_EDGE ( 'NONE', *, *, #213, .F. ) ;
#51 = PERSON_AND_ORGANIZATION ( #113, #262 ) ;
#52 = CIRCLE ( 'NONE', #115, 0.02344999999999999862 ) ;
#53 = APPROVAL ( #117, 'UNSPECIFIED' ) ;
#54 = AXIS2_PLACEMENT_3D ( 'NONE', #104, #134, #216 ) ;
#55 = COORDINATED_UNIVERSAL_TIME_OFFSET ( 5, 0, .BEHIND. ) ;
#56 = PRODUCT ( '30105', '30105', '', ( #230 ) ) ;
#57 = DATE_TIME_ROLE ( 'classification_date' ) ;
#58 = VECTOR ( 'NONE', #68, 39.37007874015748854 ) ;
#59 = DESIGN_CONTEXT ( 'detailed design', #316, 'design' ) ;
#60 = DIRECTION ( 'NONE',  ( 1.000000000000000000, -6.982962677686265922E-15, 4.876176775795935793E-29 ) ) ;
#61 = ORIENTED_EDGE ( 'NONE', *, *, #172, .T. ) ;
#62 = DIRECTION ( 'NONE',  ( -2.445468806185136597E-29, 3.491481338843145583E-15, 1.000000000000000000 ) ) ;
#63 = EDGE_CURVE ( 'NONE', #138, #192, #74, .T. ) ;
#64 = DIRECTION ( 'NONE',  ( -2.445468806185136597E-29, 3.491481338843145583E-15, 1.000000000000000000 ) ) ;
#65 = CIRCLE ( 'NONE', #116, 0.02344999999999999862 ) ;
#66 = CARTESIAN_POINT ( 'NONE',  ( -0.02344999999999983209, 9.392084801487886415E-17, -0.02000000000000000389 ) ) ;
#67 = EDGE_CURVE ( 'NONE', #227, #17, #38, .T. ) ;
#68 = DIRECTION ( 'NONE',  ( 0.7071067811865202613, -2.468850131081971887E-15, 0.7071067811865746622 ) ) ;
#69 =( LENGTH_UNIT ( ) NAMED_UNIT ( * ) SI_UNIT ( $, .METRE. ) );
#70 = CARTESIAN_POINT ( 'NONE',  ( -0.02344999999999996046, -5.073471533472975620E-15, -1.500000000000000222 ) ) ;
#71 = DIRECTION ( 'NONE',  ( 1.000000000000000000, -6.982962677686250933E-15, 0.000000000000000000 ) ) ;
#72 = ORIENTED_EDGE ( 'NONE', *, *, #185, .T. ) ;
#73 = CARTESIAN_POINT ( 'NONE',  ( 0.000000000000000000, 0.000000000000000000, 0.000000000000000000 ) ) ;
#74 = LINE ( 'NONE', #369, #58 ) ;
#75 = DATE_AND_TIME ( #284, #196 ) ;
#76 = CARTESIAN_POINT ( 'NONE',  ( 0.000000000000000000, 0.000000000000000000, 0.000000000000000000 ) ) ;
#77 = CARTESIAN_POINT ( 'NONE',  ( 3.665197820005382347E-29, -5.232931108894529979E-15, -1.498771037575812981 ) ) ;
#78 = EDGE_LOOP ( 'NONE', ( #205, #350, #26, #319 ) ) ;
#79 = CALENDAR_DATE ( 2023, 21, 3 ) ;
#80 = ADVANCED_FACE ( 'NONE', ( #4 ), #152, .T. ) ;
#81 = ORIENTED_EDGE ( 'NONE', *, *, #260, .F. ) ;
#82 = VECTOR ( 'NONE', #272, 39.37007874015748143 ) ;
#83 = APPROVAL_STATUS ( 'not_yet_approved' ) ;
#84 = CC_DESIGN_APPROVAL ( #175, ( #320 ) ) ;
#85 = ORIENTED_EDGE ( 'NONE', *, *, #260, .T. ) ;
#86 = ORIENTED_EDGE ( 'NONE', *, *, #23, .T. ) ;
#87 = APPROVAL_STATUS ( 'not_yet_approved' ) ;
#88 = CIRCLE ( 'NONE', #388, 0.02344999999999983209 ) ;
#89 = APPROVAL_ROLE ( '' ) ;
#90 = CARTESIAN_POINT ( 'NONE',  ( 9.994349727611313464E-28, -1.426928263389396334E-13, -40.86884977773329553 ) ) ;
#91 = AXIS2_PLACEMENT_3D ( 'NONE', #95, #161, #336 ) ;
#92 = CARTESIAN_POINT ( 'NONE',  ( 0.003449999999999880679, -1.271885114584576516E-16, 5.284449880858267060E-31 ) ) ;
#93 = ADVANCED_FACE ( 'NONE', ( #340 ), #212, .F. ) ;
#94 = LINE ( 'NONE', #331, #258 ) ;
#95 = CARTESIAN_POINT ( 'NONE',  ( 4.890937612370274034E-31, -6.982962677686292842E-17, -0.02000000000000000389 ) ) ;
#96 = EDGE_CURVE ( 'NONE', #203, #256, #132, .T. ) ;
#97 = AXIS2_PLACEMENT_3D ( 'NONE', #179, #2, #365 ) ;
#98 = FACE_OUTER_BOUND ( 'NONE', #329, .T. ) ;
#99 = LOCAL_TIME ( 16, 21, 35.00000000000000000, #55 ) ;
#100 = CARTESIAN_POINT ( 'NONE',  ( 0.000000000000000000, 0.000000000000000000, 0.000000000000000000 ) ) ;
#101 = DIRECTION ( 'NONE',  ( -2.445468806185136877E-29, 3.491481338843145188E-15, 1.000000000000000000 ) ) ;
#102 = DIRECTION ( 'NONE',  ( -2.445468806185136597E-29, 3.491481338843145583E-15, 1.000000000000000000 ) ) ;
#103 = DIRECTION ( 'NONE',  ( -2.445468806185136597E-29, 3.491481338843145583E-15, 1.000000000000000000 ) ) ;
#104 = CARTESIAN_POINT ( 'NONE',  ( 1.637504747917769708E-16, 0.02344999999999514140, -1.391000000000000014 ) ) ;
#105 = CARTESIAN_POINT ( 'NONE',  ( 3.668203209277704895E-29, -5.237222008264718177E-15, -1.500000000000000222 ) ) ;
#106 = SECURITY_CLASSIFICATION ( '', '', #269 ) ;
#107 = ORIENTED_EDGE ( 'NONE', *, *, #282, .F. ) ;
#108 = PRODUCT_DEFINITION ( 'UNKNOWN', '', #320, #59 ) ;
#109 = VERTEX_POINT ( 'NONE', #244 ) ;
#110 = VERTEX_POINT ( 'NONE', #70 ) ;
#111 = AXIS2_PLACEMENT_3D ( 'NONE', #100, #182, #343 ) ;
#112 = ORIENTED_EDGE ( 'NONE', *, *, #146, .T. ) ;
#113 = PERSON ( 'UNSPECIFIED', 'UNSPECIFIED', 'UNSPECIFIED', ('UNSPECIFIED'), ('UNSPECIFIED'), ('UNSPECIFIED') ) ;
#114 = PERSON_AND_ORGANIZATION ( #113, #262 ) ;
#115 = AXIS2_PLACEMENT_3D ( 'NONE', #154, #268, #234 ) ;
#116 = AXIS2_PLACEMENT_3D ( 'NONE', #44, #186, #370 ) ;
#117 = APPROVAL_STATUS ( 'not_yet_approved' ) ;
#118 = ORIENTED_EDGE ( 'NONE', *, *, #146, .F. ) ;
#119 = DIRECTION ( 'NONE',  ( 1.000000000000000000, -6.982962677686267499E-15, 0.000000000000000000 ) ) ;
#120 = DATE_AND_TIME ( #387, #14 ) ;
#121 = DIRECTION ( 'NONE',  ( -2.438088387897960049E-29, 3.491481338843145188E-15, 1.000000000000000000 ) ) ;
#122 = CC_DESIGN_PERSON_AND_ORGANIZATION_ASSIGNMENT ( #16, #140, ( #320 ) ) ;
#123 = FACE_OUTER_BOUND ( 'NONE', #176, .T. ) ;
#124 = LINE ( 'NONE', #158, #389 ) ;
#125 = CARTESIAN_POINT ( 'NONE',  ( 0.000000000000000000, 0.000000000000000000, 0.000000000000000000 ) ) ;
#126 = CARTESIAN_POINT ( 'NONE',  ( 2.409122123801678315E-17, 0.003449999999999880679, -1.204561061900843625E-17 ) ) ;
#127 =( NAMED_UNIT ( * ) SI_UNIT ( $, .STERADIAN. ) SOLID_ANGLE_UNIT ( ) );
#128 = CIRCLE ( 'NONE', #22, 0.02344999999999999862 ) ;
#129 = DIRECTION ( 'NONE',  ( 1.000000000000000000, -6.982962677686267499E-15, 0.000000000000000000 ) ) ;
#130 = CARTESIAN_POINT ( 'NONE',  ( 3.665197820005382347E-29, -5.232931108894529979E-15, -1.498771037575812981 ) ) ;
#131 = DIRECTION ( 'NONE',  ( -2.445468806185136597E-29, 3.491481338843145583E-15, 1.000000000000000000 ) ) ;
#132 = LINE ( 'NONE', #130, #261 ) ;
#133 = APPROVAL_DATE_TIME ( #255, #175 ) ;
#134 = DIRECTION ( 'NONE',  ( 2.438088387897960049E-29, -3.491481338843145188E-15, -1.000000000000000000 ) ) ;
#135 = EDGE_LOOP ( 'NONE', ( #225, #107, #379, #112 ) ) ;
#136 = ADVANCED_FACE ( 'NONE', ( #238 ), #6, .T. ) ;
#137 = CC_DESIGN_APPROVAL ( #33, ( #108 ) ) ;
#138 = VERTEX_POINT ( 'NONE', #306 ) ;
#139 = ORIENTED_EDGE ( 'NONE', *, *, #359, .F. ) ;
#140 = PERSON_AND_ORGANIZATION_ROLE ( 'design_supplier' ) ;
#141 = CARTESIAN_POINT ( 'NONE',  ( 3.401647109403525181E-29, -4.856650542330816199E-15, -1.391000000000000014 ) ) ;
#142 = EDGE_LOOP ( 'NONE', ( #253, #195 ) ) ;
#143 = AXIS2_PLACEMENT_3D ( 'NONE', #34, #64, #119 ) ;
#144 = CALENDAR_DATE ( 2023, 21, 3 ) ;
#145 = APPROVAL_DATE_TIME ( #24, #33 ) ;
#146 = EDGE_CURVE ( 'NONE', #17, #251, #88, .T. ) ;
#147 = VECTOR ( 'NONE', #305, 39.37007874015748143 ) ;
#148 = LOCAL_TIME ( 16, 21, 35.00000000000000000, #347 ) ;
#149 = ORIENTED_EDGE ( 'NONE', *, *, #172, .F. ) ;
#150 = CARTESIAN_POINT ( 'NONE',  ( 3.401647109403525181E-29, -4.856650542330816199E-15, -1.391000000000000014 ) ) ;
#151 = ORIENTED_EDGE ( 'NONE', *, *, #252, .F. ) ;
#152 = CONICAL_SURFACE ( 'NONE', #39, 0.02245000000000000467, 0.7853981633974098653 ) ;
#153 = ORIENTED_EDGE ( 'NONE', *, *, #282, .T. ) ;
#154 = CARTESIAN_POINT ( 'NONE',  ( 3.668203209277704895E-29, -5.237222008264718177E-15, -1.500000000000000222 ) ) ;
#155 = MANIFOLD_SOLID_BREP ( 'Body-Move/Copy2[1]', #355 ) ;
#156 = CYLINDRICAL_SURFACE ( 'NONE', #97, 0.02344999999999999862 ) ;
#157 = CARTESIAN_POINT ( 'NONE',  ( 3.399201640597339578E-29, -4.853159060991972403E-15, -1.389999999999999902 ) ) ;
#158 = CARTESIAN_POINT ( 'NONE',  ( 0.02344999999999983209, -2.307083048246042377E-16, -0.02000000000000000389 ) ) ;
#159 = CARTESIAN_POINT ( 'NONE',  ( -0.02344999999999999862, 1.666222715357434838E-16, -1.153490278664775476E-30 ) ) ;
#160 = DIRECTION ( 'NONE',  ( 2.445468806185136597E-29, -3.491481338843145583E-15, -1.000000000000000000 ) ) ;
#161 = DIRECTION ( 'NONE',  ( 2.445468806185136597E-29, -3.491481338843145583E-15, -1.000000000000000000 ) ) ;
#162 = FACE_OUTER_BOUND ( 'NONE', #167, .T. ) ;
#163 = ORIENTED_EDGE ( 'NONE', *, *, #359, .T. ) ;
#164 = CARTESIAN_POINT ( 'NONE',  ( 4.890937612370274034E-31, -6.982962677686292842E-17, -0.02000000000000000389 ) ) ;
#165 = ORIENTED_EDGE ( 'NONE', *, *, #63, .T. ) ;
#166 = CARTESIAN_POINT ( 'NONE',  ( -0.02344999999999983209, 9.392084801487886415E-17, -0.02000000000000000389 ) ) ;
#167 = EDGE_LOOP ( 'NONE', ( #163, #223, #197, #49 ) ) ;
#168 = EDGE_LOOP ( 'NONE', ( #139, #149 ) ) ;
#169 = CLOSED_SHELL ( 'NONE', ( #357, #136, #325, #25, #235, #80, #239, #93 ) ) ;
#170 = EDGE_CURVE ( 'NONE', #203, #110, #36, .T. ) ;
#171 = APPROVAL_DATE_TIME ( #120, #53 ) ;
#172 = EDGE_CURVE ( 'NONE', #15, #138, #296, .T. ) ;
#173 = VECTOR ( 'NONE', #198, 39.37007874015748143 ) ;
#174 = AXIS2_PLACEMENT_3D ( 'NONE', #375, #160, #247 ) ;
#175 = APPROVAL ( #83, 'UNSPECIFIED' ) ;
#176 = EDGE_LOOP ( 'NONE', ( #378, #248, #257 ) ) ;
#177 = AXIS2_PLACEMENT_3D ( 'NONE', #188, #103, #276 ) ;
#178 = APPROVAL_PERSON_ORGANIZATION ( #358, #53, #353 ) ;
#179 = CARTESIAN_POINT ( 'NONE',  ( 0.000000000000000000, 0.000000000000000000, 0.000000000000000000 ) ) ;
#180 = DIRECTION ( 'NONE',  ( -2.445468806185136597E-29, 3.491481338843145583E-15, 1.000000000000000000 ) ) ;
#181 = EDGE_CURVE ( 'NONE', #217, #251, #124, .T. ) ;
#182 = DIRECTION ( 'NONE',  ( -2.445468806185136597E-29, 3.491481338843145583E-15, 1.000000000000000000 ) ) ;
#183 = DIMENSIONAL_EXPONENTS ( 1.000000000000000000, 0.000000000000000000, 0.000000000000000000, 0.000000000000000000, 0.000000000000000000, 0.000000000000000000, 0.000000000000000000 ) ;
#184 = DIRECTION ( 'NONE',  ( 0.9986295347545743883, -7.033825938271990023E-15, -0.05233595624293420345 ) ) ;
#185 = EDGE_CURVE ( 'NONE', #110, #109, #308, .T. ) ;
#186 = DIRECTION ( 'NONE',  ( -2.445468806185136597E-29, 3.491481338843145583E-15, 1.000000000000000000 ) ) ;
#187 = CONICAL_SURFACE ( 'NONE', #91, 0.02344999999999983209, 0.7853981633974471688 ) ;
#188 = CARTESIAN_POINT ( 'NONE',  ( 3.401647109403525181E-29, -4.856650542330816199E-15, -1.391000000000000014 ) ) ;
#189 = DIRECTION ( 'NONE',  ( 1.000000000000000000, -6.982962677686266711E-15, 4.876176775795936353E-29 ) ) ;
#190 = LINE ( 'NONE', #315, #173 ) ;
#191 = APPROVAL_ROLE ( '' ) ;
#192 = VERTEX_POINT ( 'NONE', #236 ) ;
#193 = EDGE_CURVE ( 'NONE', #110, #256, #265, .T. ) ;
#194 = PERSON_AND_ORGANIZATION ( #113, #262 ) ;
#195 = ORIENTED_EDGE ( 'NONE', *, *, #349, .T. ) ;
#196 = LOCAL_TIME ( 16, 21, 35.00000000000000000, #228 ) ;
#197 = ORIENTED_EDGE ( 'NONE', *, *, #8, .F. ) ;
#198 = DIRECTION ( 'NONE',  ( -2.445468806185136877E-29, 3.491481338843145188E-15, 1.000000000000000000 ) ) ;
#199 = AXIS2_PLACEMENT_3D ( 'NONE', #90, #300, #202 ) ;
#200 = EDGE_CURVE ( 'NONE', #192, #251, #42, .T. ) ;
#201 = CIRCLE ( 'NONE', #266, 0.02245000000000000467 ) ;
#202 = DIRECTION ( 'NONE',  ( -1.000000000000000000, 6.982962677686266711E-15, 0.000000000000000000 ) ) ;
#203 = VERTEX_POINT ( 'NONE', #77 ) ;
#204 = CARTESIAN_POINT ( 'NONE',  ( 0.000000000000000000, 0.000000000000000000, 0.000000000000000000 ) ) ;
#205 = ORIENTED_EDGE ( 'NONE', *, *, #185, .F. ) ;
#206 = CARTESIAN_POINT ( 'NONE',  ( 0.02344999999999996046, -5.398100686312460793E-15, -1.500000000000000222 ) ) ;
#207 = FACE_OUTER_BOUND ( 'NONE', #285, .T. ) ;
#208 = CARTESIAN_POINT ( 'NONE',  ( 3.399201640597339578E-29, -4.853159060991972403E-15, -1.389999999999999902 ) ) ;
#209 = EDGE_CURVE ( 'NONE', #256, #12, #190, .T. ) ;
#210 = APPROVAL_PERSON_ORGANIZATION ( #43, #175, #191 ) ;
#211 = CYLINDRICAL_SURFACE ( 'NONE', #250, 0.02344999999999999862 ) ;
#212 = PLANE ( 'NONE',  #302 ) ;
#213 = EDGE_CURVE ( 'NONE', #348, #17, #19, .T. ) ;
#214 = ADVANCED_FACE ( 'NONE', ( #123 ), #382, .F. ) ;
#215 = DIRECTION ( 'NONE',  ( -2.445468806185136597E-29, 3.491481338843145583E-15, 1.000000000000000000 ) ) ;
#216 = DIRECTION ( 'NONE',  ( -1.000000000000000000, 6.982962677686265922E-15, -4.876176775795935793E-29 ) ) ;
#217 = VERTEX_POINT ( 'NONE', #92 ) ;
#218 = CARTESIAN_POINT ( 'NONE',  ( 3.401647109403525181E-29, -4.856650542330816199E-15, -1.391000000000000014 ) ) ;
#219 = CARTESIAN_POINT ( 'NONE',  ( -0.003449999999999880679, 5.900603462644784368E-17, -2.903871425907594513E-31 ) ) ;
#220 = CIRCLE ( 'NONE', #13, 0.003449999999999880679 ) ;
#221 = AXIS2_PLACEMENT_3D ( 'NONE', #105, #215, #338 ) ;
#222 = DIRECTION ( 'NONE',  ( -2.445468806185136877E-29, 3.491481338843145188E-15, 1.000000000000000000 ) ) ;
#223 = ORIENTED_EDGE ( 'NONE', *, *, #252, .T. ) ;
#224 = ORIENTED_EDGE ( 'NONE', *, *, #170, .T. ) ;
#225 = ORIENTED_EDGE ( 'NONE', *, *, #181, .F. ) ;
#226 = DIRECTION ( 'NONE',  ( 1.000000000000000000, -6.982962677686256455E-15, 0.000000000000000000 ) ) ;
#227 = VERTEX_POINT ( 'NONE', #30 ) ;
#228 = COORDINATED_UNIVERSAL_TIME_OFFSET ( 5, 0, .BEHIND. ) ;
#229 = CC_DESIGN_SECURITY_CLASSIFICATION ( #106, ( #320 ) ) ;
#230 = MECHANICAL_CONTEXT ( 'NONE', #291, 'mechanical' ) ;
#231 = EDGE_LOOP ( 'NONE', ( #346, #314, #81, #289 ) ) ;
#232 = VECTOR ( 'NONE', #298, 39.37007874015748143 ) ;
#233 = DIRECTION ( 'NONE',  ( -0.7071067811865202613, 7.493145998870254764E-15, 0.7071067811865746622 ) ) ;
#234 = DIRECTION ( 'NONE',  ( 1.000000000000000000, -6.982962677686256455E-15, 0.000000000000000000 ) ) ;
#235 = ADVANCED_FACE ( 'NONE', ( #207 ), #32, .T. ) ;
#236 = CARTESIAN_POINT ( 'NONE',  ( 0.02344999999999999862, -5.016909535783714960E-15, -1.389999999999999902 ) ) ;
#237 = FACE_OUTER_BOUND ( 'NONE', #168, .T. ) ;
#238 = FACE_OUTER_BOUND ( 'NONE', #231, .T. ) ;
#239 = ADVANCED_FACE ( 'NONE', ( #237 ), #270, .F. ) ;
#240 = AXIS2_PLACEMENT_3D ( 'NONE', #157, #332, #9 ) ;
#241 = CONICAL_SURFACE ( 'NONE', #174, 0.02344999999999983209, 0.7853981633974471688 ) ;
#242 = DIRECTION ( 'NONE',  ( -2.445468806185136597E-29, 3.491481338843145583E-15, 1.000000000000000000 ) ) ;
#243 = CC_DESIGN_PERSON_AND_ORGANIZATION_ASSIGNMENT ( #364, #333, ( #106 ) ) ;
#244 = CARTESIAN_POINT ( 'NONE',  ( -0.02344999999999999862, -4.880314003762023901E-15, -1.391000000000000014 ) ) ;
#245 = DIRECTION ( 'NONE',  ( -2.445468806185136597E-29, 3.491481338843145583E-15, 1.000000000000000000 ) ) ;
#246 = DIRECTION ( 'NONE',  ( 0.7071067811865466846, -7.319954787623252890E-15, -0.7071067811865483499 ) ) ;
#247 = DIRECTION ( 'NONE',  ( -1.000000000000000000, 6.982962677686267499E-15, 0.000000000000000000 ) ) ;
#248 = ORIENTED_EDGE ( 'NONE', *, *, #96, .T. ) ;
#249 = AXIS2_PLACEMENT_3D ( 'NONE', #150, #121, #362 ) ;
#250 = AXIS2_PLACEMENT_3D ( 'NONE', #76, #245, #189 ) ;
#251 = VERTEX_POINT ( 'NONE', #390 ) ;
#252 = EDGE_CURVE ( 'NONE', #15, #227, #94, .T. ) ;
#253 = ORIENTED_EDGE ( 'NONE', *, *, #3, .T. ) ;
#254 = DIRECTION ( 'NONE',  ( -2.445468806185136597E-29, 3.491481338843145583E-15, 1.000000000000000000 ) ) ;
#255 = DATE_AND_TIME ( #79, #148 ) ;
#256 = VERTEX_POINT ( 'NONE', #206 ) ;
#257 = ORIENTED_EDGE ( 'NONE', *, *, #193, .F. ) ;
#258 = VECTOR ( 'NONE', #233, 39.37007874015748854 ) ;
#259 = UNCERTAINTY_MEASURE_WITH_UNIT (LENGTH_MEASURE( 1.000000000000000082E-05 ), #310, 'distance_accuracy_value', 'NONE');
#260 = EDGE_CURVE ( 'NONE', #251, #17, #31, .T. ) ;
#261 = VECTOR ( 'NONE', #184, 39.37007874015748143 ) ;
#262 = ORGANIZATION ( 'UNSPECIFIED', 'UNSPECIFIED', '' ) ;
#263 = DIRECTION ( 'NONE',  ( 1.000000000000000000, -6.982962677686265133E-15, 4.876176775795935793E-29 ) ) ;
#264 = EDGE_LOOP ( 'NONE', ( #327, #224, #280 ) ) ;
#265 = CIRCLE ( 'NONE', #221, 0.02344999999999999862 ) ;
#266 = AXIS2_PLACEMENT_3D ( 'NONE', #309, #341, #41 ) ;
#267 = ADVANCED_FACE ( 'NONE', ( #386 ), #281, .F. ) ;
#268 = DIRECTION ( 'NONE',  ( -2.445468806185136597E-29, 3.491481338843145583E-15, 1.000000000000000000 ) ) ;
#269 = SECURITY_CLASSIFICATION_LEVEL ( 'unclassified' ) ;
#270 = PLANE ( 'NONE',  #249 ) ;
#271 = DIRECTION ( 'NONE',  ( -2.445468806185136597E-29, 3.491481338843145583E-15, 1.000000000000000000 ) ) ;
#272 = DIRECTION ( 'NONE',  ( -0.9986295347545743883, 6.790662755453677933E-15, -0.05233595624293420345 ) ) ;
#273 = VECTOR ( 'NONE', #101, 39.37007874015748143 ) ;
#274 = DIRECTION ( 'NONE',  ( 1.000000000000000000, -6.982962677686256455E-15, 0.000000000000000000 ) ) ;
#275 = CARTESIAN_POINT ( 'NONE',  ( 0.000000000000000000, 0.000000000000000000, 0.000000000000000000 ) ) ;
#276 = DIRECTION ( 'NONE',  ( 1.000000000000000000, -6.982962677686250933E-15, 0.000000000000000000 ) ) ;
#277 = CARTESIAN_POINT ( 'NONE',  ( 3.401647109403525181E-29, -4.856650542330816199E-15, -1.391000000000000014 ) ) ;
#278 = ORIENTED_EDGE ( 'NONE', *, *, #181, .T. ) ;
#279 = MANIFOLD_SOLID_BREP ( 'Body-Move/Copy2[2]', #169 ) ;
#280 = ORIENTED_EDGE ( 'NONE', *, *, #286, .F. ) ;
#281 = CONICAL_SURFACE ( 'NONE', #334, 751.2258538477058210, 1.518436449235076369 ) ;
#282 = EDGE_CURVE ( 'NONE', #348, #217, #220, .T. ) ;
#283 =( GEOMETRIC_REPRESENTATION_CONTEXT ( 3 ) GLOBAL_UNCERTAINTY_ASSIGNED_CONTEXT ( ( #259 ) ) GLOBAL_UNIT_ASSIGNED_CONTEXT ( ( #310, #307, #127 ) ) REPRESENTATION_CONTEXT ( 'NONE', 'WORKASPACE' ) );
#284 = CALENDAR_DATE ( 2023, 21, 3 ) ;
#285 = EDGE_LOOP ( 'NONE', ( #352, #86, #322, #118 ) ) ;
#286 = EDGE_CURVE ( 'NONE', #256, #110, #52, .T. ) ;
#287 = PERSON_AND_ORGANIZATION_ROLE ( 'design_owner' ) ;
#288 = PERSON_AND_ORGANIZATION_ROLE ( 'creator' ) ;
#289 = ORIENTED_EDGE ( 'NONE', *, *, #200, .F. ) ;
#290 = CC_DESIGN_DATE_AND_TIME_ASSIGNMENT ( #360, #57, ( #106 ) ) ;
#291 = APPLICATION_CONTEXT ( 'configuration controlled 3d designs of mechanical parts and assemblies' ) ;
#292 = COORDINATED_UNIVERSAL_TIME_OFFSET ( 5, 0, .BEHIND. ) ;
#293 = ADVANCED_FACE ( 'NONE', ( #304 ), #156, .T. ) ;
#294 = CALENDAR_DATE ( 2023, 21, 3 ) ;
#295 = COORDINATED_UNIVERSAL_TIME_OFFSET ( 5, 0, .BEHIND. ) ;
#296 = CIRCLE ( 'NONE', #177, 0.02245000000000000467 ) ;
#297 = AXIS2_PLACEMENT_3D ( 'NONE', #277, #102, #71 ) ;
#298 = DIRECTION ( 'NONE',  ( -0.7071067811865466846, 2.468850131082247989E-15, -0.7071067811865483499 ) ) ;
#299 = EDGE_LOOP ( 'NONE', ( #153, #45 ) ) ;
#300 = DIRECTION ( 'NONE',  ( 2.445468806185136597E-29, -3.491481338843145583E-15, -1.000000000000000000 ) ) ;
#301 = CC_DESIGN_PERSON_AND_ORGANIZATION_ASSIGNMENT ( #114, #380, ( #108 ) ) ;
#302 = AXIS2_PLACEMENT_3D ( 'NONE', #126, #46, #366 ) ;
#303 = CIRCLE ( 'NONE', #367, 0.003449999999999880679 ) ;
#304 = FACE_OUTER_BOUND ( 'NONE', #78, .T. ) ;
#305 = DIRECTION ( 'NONE',  ( -2.445468806185136877E-29, 3.491481338843145188E-15, 1.000000000000000000 ) ) ;
#306 = CARTESIAN_POINT ( 'NONE',  ( 0.02245000000000000467, -5.013418054444871953E-15, -1.391000000000000014 ) ) ;
#307 =( NAMED_UNIT ( * ) PLANE_ANGLE_UNIT ( ) SI_UNIT ( $, .RADIAN. ) );
#308 = LINE ( 'NONE', #159, #273 ) ;
#309 = CARTESIAN_POINT ( 'NONE',  ( 3.401647109403525181E-29, -4.856650542330816199E-15, -1.391000000000000014 ) ) ;
#310 =( CONVERSION_BASED_UNIT ( 'INCH', #5 ) LENGTH_UNIT ( ) NAMED_UNIT ( #183 ) );
#311 = CARTESIAN_POINT ( 'NONE',  ( -0.02245000000000000467, -4.691835243804450730E-15, -1.391000000000000014 ) ) ;
#312 = DATE_TIME_ROLE ( 'creation_date' ) ;
#313 = FACE_OUTER_BOUND ( 'NONE', #142, .T. ) ;
#314 = ORIENTED_EDGE ( 'NONE', *, *, #67, .T. ) ;
#315 = CARTESIAN_POINT ( 'NONE',  ( 0.02344999999999999862, -1.637504747917429512E-16, 1.143463453924147019E-30 ) ) ;
#316 = APPLICATION_CONTEXT ( 'configuration controlled 3d designs of mechanical parts and assemblies' ) ;
#317 = CC_DESIGN_PERSON_AND_ORGANIZATION_ASSIGNMENT ( #354, #287, ( #56 ) ) ;
#318 = EDGE_LOOP ( 'NONE', ( #151, #61, #165, #21 ) ) ;
#319 = ORIENTED_EDGE ( 'NONE', *, *, #349, .F. ) ;
#320 = PRODUCT_DEFINITION_FORMATION_WITH_SPECIFIED_SOURCE ( 'ANY', '', #56, .NOT_KNOWN. ) ;
#321 = ADVANCED_FACE ( 'NONE', ( #98 ), #211, .T. ) ;
#322 = ORIENTED_EDGE ( 'NONE', *, *, #200, .T. ) ;
#323 = PRODUCT_DEFINITION_SHAPE ( 'NONE', 'NONE',  #108 ) ;
#324 = CIRCLE ( 'NONE', #7, 0.02344999999999999862 ) ;
#325 = ADVANCED_FACE ( 'NONE', ( #372 ), #241, .T. ) ;
#326 = CIRCLE ( 'NONE', #240, 0.02344999999999999862 ) ;
#327 = ORIENTED_EDGE ( 'NONE', *, *, #96, .F. ) ;
#328 = DIRECTION ( 'NONE',  ( -1.000000000000000000, 6.982962677686266711E-15, 0.000000000000000000 ) ) ;
#329 = EDGE_LOOP ( 'NONE', ( #381, #72, #385, #47 ) ) ;
#330 = DIRECTION ( 'NONE',  ( 2.445468806185136597E-29, -3.491481338843145583E-15, -1.000000000000000000 ) ) ;
#331 = CARTESIAN_POINT ( 'NONE',  ( -0.02245000000000000467, -4.697133698152673132E-15, -1.391000000000000014 ) ) ;
#332 = DIRECTION ( 'NONE',  ( -2.445468806185136597E-29, 3.491481338843145583E-15, 1.000000000000000000 ) ) ;
#333 = PERSON_AND_ORGANIZATION_ROLE ( 'classification_officer' ) ;
#334 = AXIS2_PLACEMENT_3D ( 'NONE', #361, #330, #328 ) ;
#335 = APPROVAL_PERSON_ORGANIZATION ( #51, #33, #89 ) ;
#336 = DIRECTION ( 'NONE',  ( -1.000000000000000000, 6.982962677686267499E-15, 0.000000000000000000 ) ) ;
#337 = DIRECTION ( 'NONE',  ( 1.000000000000000000, 0.000000000000000000, 0.000000000000000000 ) ) ;
#338 = DIRECTION ( 'NONE',  ( 1.000000000000000000, -6.982962677686256455E-15, 0.000000000000000000 ) ) ;
#339 = PLANE ( 'NONE',  #54 ) ;
#340 = FACE_OUTER_BOUND ( 'NONE', #299, .T. ) ;
#341 = DIRECTION ( 'NONE',  ( -2.445468806185136597E-29, 3.491481338843145583E-15, 1.000000000000000000 ) ) ;
#342 = AXIS2_PLACEMENT_3D ( 'NONE', #125, #28, #263 ) ;
#343 = DIRECTION ( 'NONE',  ( 1.000000000000000000, -6.982962677686265133E-15, 4.876176775795935793E-29 ) ) ;
#344 = ADVANCED_FACE ( 'NONE', ( #313 ), #339, .F. ) ;
#345 = CC_DESIGN_DATE_AND_TIME_ASSIGNMENT ( #75, #312, ( #108 ) ) ;
#346 = ORIENTED_EDGE ( 'NONE', *, *, #8, .T. ) ;
#347 = COORDINATED_UNIVERSAL_TIME_OFFSET ( 5, 0, .BEHIND. ) ;
#348 = VERTEX_POINT ( 'NONE', #219 ) ;
#349 = EDGE_CURVE ( 'NONE', #109, #12, #65, .T. ) ;
#350 = ORIENTED_EDGE ( 'NONE', *, *, #193, .T. ) ;
#351 = VECTOR ( 'NONE', #222, 39.37007874015748143 ) ;
#352 = ORIENTED_EDGE ( 'NONE', *, *, #67, .F. ) ;
#353 = APPROVAL_ROLE ( '' ) ;
#354 = PERSON_AND_ORGANIZATION ( #113, #262 ) ;
#355 = CLOSED_SHELL ( 'NONE', ( #321, #214, #267, #293, #344 ) ) ;
#356 = LOCAL_TIME ( 16, 21, 35.00000000000000000, #295 ) ;
#357 = ADVANCED_FACE ( 'NONE', ( #162 ), #376, .T. ) ;
#358 = PERSON_AND_ORGANIZATION ( #113, #262 ) ;
#359 = EDGE_CURVE ( 'NONE', #138, #15, #201, .T. ) ;
#360 = DATE_AND_TIME ( #144, #356 ) ;
#361 = CARTESIAN_POINT ( 'NONE',  ( 9.994349727611313464E-28, -1.426928263389396334E-13, -40.86884977773329553 ) ) ;
#362 = DIRECTION ( 'NONE',  ( 1.000000000000000000, -6.982962677686265922E-15, 4.876176775795935793E-29 ) ) ;
#363 = CARTESIAN_POINT ( 'NONE',  ( 0.02344999999999991536, -1.637504747917423349E-16, 1.143463453924142815E-30 ) ) ;
#364 = PERSON_AND_ORGANIZATION ( #113, #262 ) ;
#365 = DIRECTION ( 'NONE',  ( 1.000000000000000000, -6.982962677686266711E-15, 4.876176775795936353E-29 ) ) ;
#366 = DIRECTION ( 'NONE',  ( -1.000000000000000000, 6.982962677686265922E-15, -4.876176775795935793E-29 ) ) ;
#367 = AXIS2_PLACEMENT_3D ( 'NONE', #275, #131, #10 ) ;
#368 = APPLICATION_PROTOCOL_DEFINITION ( 'international standard', 'config_control_design', 1994, #291 ) ;
#369 = CARTESIAN_POINT ( 'NONE',  ( 0.02245000000000000467, -5.013418054444871953E-15, -1.391000000000000014 ) ) ;
#370 = DIRECTION ( 'NONE',  ( 1.000000000000000000, -6.982962677686256455E-15, 0.000000000000000000 ) ) ;
#371 = CARTESIAN_POINT ( 'NONE',  ( 3.665197820005382347E-29, -5.232931108894529979E-15, -1.498771037575812981 ) ) ;
#372 = FACE_OUTER_BOUND ( 'NONE', #377, .T. ) ;
#373 = CARTESIAN_POINT ( 'NONE',  ( -0.02344999999999991536, 1.666222715357428922E-16, -1.153490278664771272E-30 ) ) ;
#374 = CC_DESIGN_PERSON_AND_ORGANIZATION_ASSIGNMENT ( #194, #288, ( #320 ) ) ;
#375 = CARTESIAN_POINT ( 'NONE',  ( 4.890937612370274034E-31, -6.982962677686292842E-17, -0.02000000000000000389 ) ) ;
#376 = CONICAL_SURFACE ( 'NONE', #297, 0.02245000000000000467, 0.7853981633974098653 ) ;
#377 = EDGE_LOOP ( 'NONE', ( #29, #278, #85, #50 ) ) ;
#378 = ORIENTED_EDGE ( 'NONE', *, *, #170, .F. ) ;
#379 = ORIENTED_EDGE ( 'NONE', *, *, #213, .T. ) ;
#380 = PERSON_AND_ORGANIZATION_ROLE ( 'creator' ) ;
#381 = ORIENTED_EDGE ( 'NONE', *, *, #286, .T. ) ;
#382 = CONICAL_SURFACE ( 'NONE', #199, 751.2258538477058210, 1.518436449235076369 ) ;
#383 = EDGE_CURVE ( 'NONE', #217, #348, #303, .T. ) ;
#384 = SHAPE_DEFINITION_REPRESENTATION ( #323, #18 ) ;
#385 = ORIENTED_EDGE ( 'NONE', *, *, #3, .F. ) ;
#386 = FACE_OUTER_BOUND ( 'NONE', #264, .T. ) ;
#387 = CALENDAR_DATE ( 2023, 21, 3 ) ;
#388 = AXIS2_PLACEMENT_3D ( 'NONE', #164, #242, #129 ) ;
#389 = VECTOR ( 'NONE', #246, 39.37007874015748143 ) ;
#390 = CARTESIAN_POINT ( 'NONE',  ( 0.02344999999999983209, -2.307083048246042377E-16, -0.02000000000000000389 ) ) ;
ENDSEC;
END-ISO-10303-21;
