ISO-10303-21;
HEADER;
FILE_DESCRIPTION (( 'STEP AP203' ),
    '1' );
FILE_NAME ('30133.STEP',
    '2023-03-21T20:22:33',
    ( '' ),
    ( '' ),
    'SwSTEP 2.0',
    'SolidWorks 2022',
    '' );
FILE_SCHEMA (( 'CONFIG_CONTROL_DESIGN' ));
ENDSEC;

DATA;
#1 = DIRECTION ( 'NONE',  ( 0.000000000000000000, 0.000000000000000000, 1.000000000000000000 ) ) ;
#2 = DIRECTION ( 'NONE',  ( -2.445468806185136597E-29, 3.491481338843145583E-15, 1.000000000000000000 ) ) ;
#3 = EDGE_CURVE ( 'NONE', #116, #266, #108, .T. ) ;
#4 = DIRECTION ( 'NONE',  ( 2.445468806185136597E-29, -3.491481338843145583E-15, -1.000000000000000000 ) ) ;
#5 = ORIENTED_EDGE ( 'NONE', *, *, #264, .T. ) ;
#6 = CARTESIAN_POINT ( 'NONE',  ( 4.279570410823989044E-29, -6.110092342975505460E-15, -1.750000000000000222 ) ) ;
#7 = EDGE_CURVE ( 'NONE', #173, #25, #219, .T. ) ;
#8 = CC_DESIGN_APPROVAL ( #57, ( #214 ) ) ;
#9 = DIRECTION ( 'NONE',  ( 1.000000000000000000, -6.982962677686263555E-15, 0.000000000000000000 ) ) ;
#10 = LINE ( 'NONE', #175, #32 ) ;
#11 = PERSON_AND_ORGANIZATION_ROLE ( 'classification_officer' ) ;
#12 = FACE_OUTER_BOUND ( 'NONE', #177, .T. ) ;
#13 = ORIENTED_EDGE ( 'NONE', *, *, #353, .T. ) ;
#14 = ADVANCED_FACE ( 'NONE', ( #117 ), #231, .T. ) ;
#15 = DIRECTION ( 'NONE',  ( -2.445468806185136597E-29, 3.491481338843145583E-15, 1.000000000000000000 ) ) ;
#16 =( CONVERSION_BASED_UNIT ( 'INCH', #362 ) LENGTH_UNIT ( ) NAMED_UNIT ( #187 ) );
#17 = CARTESIAN_POINT ( 'NONE',  ( 4.279570410823989044E-29, -6.110092342975505460E-15, -1.750000000000000222 ) ) ;
#18 = DIRECTION ( 'NONE',  ( 1.000000000000000000, -6.982962677686266711E-15, 0.000000000000000000 ) ) ;
#19 = DIRECTION ( 'NONE',  ( -1.000000000000000000, 6.982962677686266711E-15, 0.000000000000000000 ) ) ;
#20 = CARTESIAN_POINT ( 'NONE',  ( 0.1318000000000000005, -7.030446823894554485E-15, -1.750000000000000222 ) ) ;
#21 = CIRCLE ( 'NONE', #143, 0.1328000000000000014 ) ;
#22 = ORIENTED_EDGE ( 'NONE', *, *, #3, .F. ) ;
#23 = ORIENTED_EDGE ( 'NONE', *, *, #59, .F. ) ;
#24 = CC_DESIGN_DATE_AND_TIME_ASSIGNMENT ( #218, #367, ( #62 ) ) ;
#25 = VERTEX_POINT ( 'NONE', #383 ) ;
#26 = AXIS2_PLACEMENT_3D ( 'NONE', #63, #123, #181 ) ;
#27 = CARTESIAN_POINT ( 'NONE',  ( 4.279570410823989044E-29, -6.110092342975505460E-15, -1.750000000000000222 ) ) ;
#28 = ADVANCED_FACE ( 'NONE', ( #356 ), #161, .F. ) ;
#29 = DIRECTION ( 'NONE',  ( -2.445468806185136597E-29, 3.491481338843145583E-15, 1.000000000000000000 ) ) ;
#30 = CLOSED_SHELL ( 'NONE', ( #190, #352, #165, #126, #179, #276, #90, #130 ) ) ;
#31 = ADVANCED_FACE ( 'NONE', ( #141 ), #248, .F. ) ;
#32 = VECTOR ( 'NONE', #77, 39.37007874015748854 ) ;
#33 = PERSON_AND_ORGANIZATION ( #299, #389 ) ;
#34 =( LENGTH_UNIT ( ) NAMED_UNIT ( * ) SI_UNIT ( $, .METRE. ) );
#35 = CIRCLE ( 'NONE', #91, 0.1318000000000000005 ) ;
#36 = APPROVAL_DATE_TIME ( #242, #169 ) ;
#37 = DIRECTION ( 'NONE',  ( 0.9986295347545742773, -7.033825938271998700E-15, -0.05233595624293686799 ) ) ;
#38 = ORIENTED_EDGE ( 'NONE', *, *, #44, .T. ) ;
#39 = CARTESIAN_POINT ( 'NONE',  ( 9.273374435967790180E-16, 0.1327999999999938952, -1.750000000000000666 ) ) ;
#40 = CARTESIAN_POINT ( 'NONE',  ( 4.890937612370280165E-31, -6.982962677686301470E-17, -0.02000000000000003164 ) ) ;
#41 = CONICAL_SURFACE ( 'NONE', #213, 0.1327999999999997793, 0.7853981633974473908 ) ;
#42 = SHAPE_DEFINITION_REPRESENTATION ( #267, #158 ) ;
#43 = VERTEX_POINT ( 'NONE', #195 ) ;
#44 = EDGE_CURVE ( 'NONE', #129, #116, #137, .T. ) ;
#45 = APPROVAL_ROLE ( '' ) ;
#46 = CALENDAR_DATE ( 2023, 21, 3 ) ;
#47 = CARTESIAN_POINT ( 'NONE',  ( 0.000000000000000000, 0.000000000000000000, 0.000000000000000000 ) ) ;
#48 = ORIENTED_EDGE ( 'NONE', *, *, #361, .T. ) ;
#49 = FACE_OUTER_BOUND ( 'NONE', #305, .T. ) ;
#50 = CYLINDRICAL_SURFACE ( 'NONE', #270, 0.1327999999999998904 ) ;
#51 = AXIS2_PLACEMENT_3D ( 'NONE', #263, #229, #384 ) ;
#52 = ORIENTED_EDGE ( 'NONE', *, *, #264, .F. ) ;
#53 = DIRECTION ( 'NONE',  ( -1.000000000000000000, 6.982962677686265922E-15, -4.876176775795935793E-29 ) ) ;
#54 = EDGE_CURVE ( 'NONE', #358, #323, #133, .T. ) ;
#55 = DIRECTION ( 'NONE',  ( -2.445468806185136597E-29, 3.491481338843145583E-15, 1.000000000000000000 ) ) ;
#56 = VERTEX_POINT ( 'NONE', #253 ) ;
#57 = APPROVAL ( #345, 'UNSPECIFIED' ) ;
#58 = ORIENTED_EDGE ( 'NONE', *, *, #268, .F. ) ;
#59 = EDGE_CURVE ( 'NONE', #378, #25, #348, .T. ) ;
#60 = CLOSED_SHELL ( 'NONE', ( #386, #28, #31, #14, #154 ) ) ;
#61 = ORIENTED_EDGE ( 'NONE', *, *, #119, .F. ) ;
#62 = PRODUCT_DEFINITION ( 'UNKNOWN', '', #214, #318 ) ;
#63 = CARTESIAN_POINT ( 'NONE',  ( 4.890937612370280165E-31, -6.982962677686301470E-17, -0.02000000000000003164 ) ) ;
#64 = EDGE_CURVE ( 'NONE', #323, #358, #232, .T. ) ;
#65 = EDGE_CURVE ( 'NONE', #173, #116, #377, .T. ) ;
#66 = CARTESIAN_POINT ( 'NONE',  ( 4.279570410823989044E-29, -6.110092342975505460E-15, -1.750000000000000222 ) ) ;
#67 = AXIS2_PLACEMENT_3D ( 'NONE', #17, #325, #147 ) ;
#68 = EDGE_CURVE ( 'NONE', #360, #378, #330, .T. ) ;
#69 = EDGE_LOOP ( 'NONE', ( #381, #124, #203, #291 ) ) ;
#70 = CIRCLE ( 'NONE', #326, 0.1127999999999997893 ) ;
#71 = CARTESIAN_POINT ( 'NONE',  ( 0.1127999999999997893, -8.773839675147740294E-16, 5.821858562954823416E-30 ) ) ;
#72 = DIRECTION ( 'NONE',  ( 1.000000000000000000, -6.982962677686265922E-15, 4.876176775795935232E-29 ) ) ;
#73 = DIRECTION ( 'NONE',  ( -0.7071067811865469066, 2.468850131082249961E-15, -0.7071067811865482389 ) ) ;
#74 = PERSON_AND_ORGANIZATION_ROLE ( 'design_supplier' ) ;
#75 = CARTESIAN_POINT ( 'NONE',  ( 0.1328000000000000014, -7.037429786572241288E-15, -1.750000000000000222 ) ) ;
#76 = VERTEX_POINT ( 'NONE', #359 ) ;
#77 = DIRECTION ( 'NONE',  ( 0.7071067811865232589, -2.468850131082003836E-15, 0.7071067811865715536 ) ) ;
#78 = COORDINATED_UNIVERSAL_TIME_OFFSET ( 5, 0, .BEHIND. ) ;
#79 = CC_DESIGN_SECURITY_CLASSIFICATION ( #311, ( #214 ) ) ;
#80 = CARTESIAN_POINT ( 'NONE',  ( -2.842002953923601324E-20, -8.704403499075408633E-15, -2.493040246911213398 ) ) ;
#81 = DIRECTION ( 'NONE',  ( -2.445468806185136877E-29, 3.491481338843145188E-15, 1.000000000000000000 ) ) ;
#82 = CARTESIAN_POINT ( 'NONE',  ( 4.890937612370280165E-31, -6.982962677686301470E-17, -0.02000000000000003164 ) ) ;
#83 = CARTESIAN_POINT ( 'NONE',  ( 1.023749516124932087E-27, -1.461642987291205081E-13, -41.86311898706869528 ) ) ;
#84 = ORIENTED_EDGE ( 'NONE', *, *, #331, .F. ) ;
#85 = UNCERTAINTY_MEASURE_WITH_UNIT (LENGTH_MEASURE( 1.000000000000000082E-05 ), #16, 'distance_accuracy_value', 'NONE');
#86 = VECTOR ( 'NONE', #304, 39.37007874015748143 ) ;
#87 = CC_DESIGN_PERSON_AND_ORGANIZATION_ASSIGNMENT ( #260, #74, ( #214 ) ) ;
#88 = CARTESIAN_POINT ( 'NONE',  ( 0.000000000000000000, 0.000000000000000000, 0.000000000000000000 ) ) ;
#89 = ORIENTED_EDGE ( 'NONE', *, *, #336, .F. ) ;
#90 = ADVANCED_FACE ( 'NONE', ( #327 ), #322, .F. ) ;
#91 = AXIS2_PLACEMENT_3D ( 'NONE', #27, #151, #387 ) ;
#92 = FACE_OUTER_BOUND ( 'NONE', #316, .T. ) ;
#93 = LOCAL_TIME ( 16, 22, 33.00000000000000000, #365 ) ;
#94 = APPROVAL ( #193, 'UNSPECIFIED' ) ;
#95 = CARTESIAN_POINT ( 'NONE',  ( 4.279570410823989044E-29, -6.110092342975505460E-15, -1.750000000000000222 ) ) ;
#96 = DIRECTION ( 'NONE',  ( 1.000000000000000000, -6.982962677686266711E-15, 4.876176775795935232E-29 ) ) ;
#97 = AXIS2_PLACEMENT_3D ( 'NONE', #201, #281, #53 ) ;
#98 = PRODUCT_RELATED_PRODUCT_CATEGORY ( 'detail', '', ( #324 ) ) ;
#99 = PERSON_AND_ORGANIZATION_ROLE ( 'design_owner' ) ;
#100 = PERSON_AND_ORGANIZATION ( #299, #389 ) ;
#101 = CARTESIAN_POINT ( 'NONE',  ( 0.1328000000000000014, -9.273374435967362223E-16, 6.475562758257002307E-30 ) ) ;
#102 = LOCAL_TIME ( 16, 22, 33.00000000000000000, #372 ) ;
#103 = APPLICATION_CONTEXT ( 'configuration controlled 3d designs of mechanical parts and assemblies' ) ;
#104 = EDGE_CURVE ( 'NONE', #266, #116, #212, .T. ) ;
#105 = PLANE ( 'NONE',  #182 ) ;
#106 = DATE_AND_TIME ( #341, #102 ) ;
#107 = ORIENTED_EDGE ( 'NONE', *, *, #155, .F. ) ;
#108 = CIRCLE ( 'NONE', #185, 0.1327999999999997793 ) ;
#109 = DATE_TIME_ROLE ( 'classification_date' ) ;
#110 = CARTESIAN_POINT ( 'NONE',  ( -0.1328000000000000014, 9.436007530894130566E-16, -6.532345799858513932E-30 ) ) ;
#111 = CARTESIAN_POINT ( 'NONE',  ( 0.1327999999999998904, -9.273374435967354335E-16, 6.475562758256996702E-30 ) ) ;
#112 = EDGE_LOOP ( 'NONE', ( #220, #120, #22, #149 ) ) ;
#113 = DIRECTION ( 'NONE',  ( 1.000000000000000000, -6.982962677686266711E-15, 4.876176775795935232E-29 ) ) ;
#114 = APPROVAL_PERSON_ORGANIZATION ( #313, #94, #223 ) ;
#115 = CARTESIAN_POINT ( 'NONE',  ( 0.1327999999999997516, -9.639777481211921767E-15, -2.500000000000000000 ) ) ;
#116 = VERTEX_POINT ( 'NONE', #297 ) ;
#117 = FACE_OUTER_BOUND ( 'NONE', #321, .T. ) ;
#118 = VECTOR ( 'NONE', #81, 39.37007874015748143 ) ;
#119 = EDGE_CURVE ( 'NONE', #25, #173, #262, .T. ) ;
#120 = ORIENTED_EDGE ( 'NONE', *, *, #221, .T. ) ;
#121 = AXIS2_PLACEMENT_3D ( 'NONE', #337, #224, #72 ) ;
#122 = CARTESIAN_POINT ( 'NONE',  ( 4.277124942017804562E-29, -6.106600861636661664E-15, -1.749000000000000110 ) ) ;
#123 = DIRECTION ( 'NONE',  ( -2.445468806185136597E-29, 3.491481338843145583E-15, 1.000000000000000000 ) ) ;
#124 = ORIENTED_EDGE ( 'NONE', *, *, #320, .F. ) ;
#125 = LOCAL_TIME ( 16, 22, 33.00000000000000000, #78 ) ;
#126 = ADVANCED_FACE ( 'NONE', ( #153 ), #41, .T. ) ;
#127 = APPROVAL_STATUS ( 'not_yet_approved' ) ;
#128 = PERSON_AND_ORGANIZATION_ROLE ( 'creator' ) ;
#129 = VERTEX_POINT ( 'NONE', #71 ) ;
#130 = ADVANCED_FACE ( 'NONE', ( #164 ), #135, .F. ) ;
#131 = CALENDAR_DATE ( 2023, 21, 3 ) ;
#132 = DIRECTION ( 'NONE',  ( 1.000000000000000000, -6.982962677686263555E-15, 0.000000000000000000 ) ) ;
#133 = CIRCLE ( 'NONE', #357, 0.1328000000000000014 ) ;
#134 = AXIS2_PLACEMENT_3D ( 'NONE', #40, #4, #19 ) ;
#135 = PLANE ( 'NONE',  #97 ) ;
#136 = DIRECTION ( 'NONE',  ( -2.445468806185136877E-29, 3.491481338843145188E-15, 1.000000000000000000 ) ) ;
#137 = LINE ( 'NONE', #283, #86 ) ;
#138 = ORIENTED_EDGE ( 'NONE', *, *, #104, .F. ) ;
#139 = DIRECTION ( 'NONE',  ( 1.000000000000000000, -6.982962677686265922E-15, 4.876176775795935232E-29 ) ) ;
#140 = PERSON_AND_ORGANIZATION ( #299, #389 ) ;
#141 = FACE_OUTER_BOUND ( 'NONE', #225, .T. ) ;
#142 = ORIENTED_EDGE ( 'NONE', *, *, #233, .F. ) ;
#143 = AXIS2_PLACEMENT_3D ( 'NONE', #334, #2, #132 ) ;
#144 = CARTESIAN_POINT ( 'NONE',  ( 4.279570410823989044E-29, -6.110092342975505460E-15, -1.750000000000000222 ) ) ;
#145 =( NAMED_UNIT ( * ) PLANE_ANGLE_UNIT ( ) SI_UNIT ( $, .RADIAN. ) );
#146 = ORIENTED_EDGE ( 'NONE', *, *, #361, .F. ) ;
#147 = DIRECTION ( 'NONE',  ( 1.000000000000000000, -6.982962677686264344E-15, 0.000000000000000000 ) ) ;
#148 = VECTOR ( 'NONE', #287, 39.37007874015748854 ) ;
#149 = ORIENTED_EDGE ( 'NONE', *, *, #65, .F. ) ;
#150 = AXIS2_PLACEMENT_3D ( 'NONE', #197, #279, #113 ) ;
#151 = DIRECTION ( 'NONE',  ( -2.445468806185136597E-29, 3.491481338843145583E-15, 1.000000000000000000 ) ) ;
#152 = ORIENTED_EDGE ( 'NONE', *, *, #3, .T. ) ;
#153 = FACE_OUTER_BOUND ( 'NONE', #69, .T. ) ;
#154 = ADVANCED_FACE ( 'NONE', ( #382 ), #105, .F. ) ;
#155 = EDGE_CURVE ( 'NONE', #360, #173, #10, .T. ) ;
#156 = VECTOR ( 'NONE', #199, 39.37007874015748143 ) ;
#157 = AXIS2_PLACEMENT_3D ( 'NONE', #144, #379, #230 ) ;
#158 = ADVANCED_BREP_SHAPE_REPRESENTATION ( '30133', ( #236, #238, #273 ), #349 ) ;
#159 = DIRECTION ( 'NONE',  ( 1.000000000000000000, 0.000000000000000000, 0.000000000000000000 ) ) ;
#160 = LOCAL_TIME ( 16, 22, 33.00000000000000000, #278 ) ;
#161 = CONICAL_SURFACE ( 'NONE', #210, 751.2258538476676222, 1.518436449235073704 ) ;
#162 = CALENDAR_DATE ( 2023, 21, 3 ) ;
#163 = CARTESIAN_POINT ( 'NONE',  ( 6.113672015462842613E-29, -8.728703347107864943E-15, -2.500000000000000000 ) ) ;
#164 = FACE_OUTER_BOUND ( 'NONE', #385, .T. ) ;
#165 = ADVANCED_FACE ( 'NONE', ( #49 ), #388, .T. ) ;
#166 = CARTESIAN_POINT ( 'NONE',  ( 6.113672015462842613E-29, -8.728703347107864943E-15, -2.500000000000000000 ) ) ;
#167 = EDGE_LOOP ( 'NONE', ( #284, #200, #280 ) ) ;
#168 = DATE_AND_TIME ( #162, #160 ) ;
#169 = APPROVAL ( #127, 'UNSPECIFIED' ) ;
#170 = CARTESIAN_POINT ( 'NONE',  ( 1.023749516124932087E-27, -1.461642987291205081E-13, -41.86311898706869528 ) ) ;
#171 = ORIENTED_EDGE ( 'NONE', *, *, #336, .T. ) ;
#172 = LINE ( 'NONE', #308, #188 ) ;
#173 = VERTEX_POINT ( 'NONE', #255 ) ;
#174 = APPROVAL_PERSON_ORGANIZATION ( #271, #169, #239 ) ;
#175 = CARTESIAN_POINT ( 'NONE',  ( 0.1318000000000000005, -7.030446823894554485E-15, -1.750000000000000222 ) ) ;
#176 = APPLICATION_CONTEXT ( 'configuration controlled 3d designs of mechanical parts and assemblies' ) ;
#177 = EDGE_LOOP ( 'NONE', ( #265, #171, #58, #146 ) ) ;
#178 = DIRECTION ( 'NONE',  ( -2.438088387897960049E-29, 3.491481338843145188E-15, 1.000000000000000000 ) ) ;
#179 = ADVANCED_FACE ( 'NONE', ( #249 ), #375, .T. ) ;
#180 = EDGE_LOOP ( 'NONE', ( #310, #205, #344, #107 ) ) ;
#181 = DIRECTION ( 'NONE',  ( 1.000000000000000000, -6.982962677686266711E-15, 0.000000000000000000 ) ) ;
#182 = AXIS2_PLACEMENT_3D ( 'NONE', #39, #289, #259 ) ;
#183 = DIRECTION ( 'NONE',  ( 2.445468806185136597E-29, -3.491481338843145583E-15, -1.000000000000000000 ) ) ;
#184 = CC_DESIGN_PERSON_AND_ORGANIZATION_ASSIGNMENT ( #140, #282, ( #214 ) ) ;
#185 = AXIS2_PLACEMENT_3D ( 'NONE', #82, #288, #18 ) ;
#186 = COORDINATED_UNIVERSAL_TIME_OFFSET ( 5, 0, .BEHIND. ) ;
#187 = DIMENSIONAL_EXPONENTS ( 1.000000000000000000, 0.000000000000000000, 0.000000000000000000, 0.000000000000000000, 0.000000000000000000, 0.000000000000000000, 0.000000000000000000 ) ;
#188 = VECTOR ( 'NONE', #37, 39.37007874015748143 ) ;
#189 = CIRCLE ( 'NONE', #295, 0.1328000000000000014 ) ;
#190 = ADVANCED_FACE ( 'NONE', ( #369 ), #243, .T. ) ;
#191 = ORIENTED_EDGE ( 'NONE', *, *, #68, .F. ) ;
#192 = CARTESIAN_POINT ( 'NONE',  ( 0.000000000000000000, 0.000000000000000000, 0.000000000000000000 ) ) ;
#193 = APPROVAL_STATUS ( 'not_yet_approved' ) ;
#194 = DIRECTION ( 'NONE',  ( 1.000000000000000000, -6.982962677686266711E-15, 4.876176775795935232E-29 ) ) ;
#195 = CARTESIAN_POINT ( 'NONE',  ( -0.1127999999999997893, 8.225930034314404862E-16, -5.630556934320638366E-30 ) ) ;
#196 = EDGE_LOOP ( 'NONE', ( #374, #234, #354, #138 ) ) ;
#197 = CARTESIAN_POINT ( 'NONE',  ( 0.000000000000000000, 0.000000000000000000, 0.000000000000000000 ) ) ;
#198 = DATE_AND_TIME ( #46, #125 ) ;
#199 = DIRECTION ( 'NONE',  ( -0.9986295347545742773, 6.790662755453667677E-15, -0.05233595624293686799 ) ) ;
#200 = ORIENTED_EDGE ( 'NONE', *, *, #331, .T. ) ;
#201 = CARTESIAN_POINT ( 'NONE',  ( 7.876781900430093301E-16, 0.1127999999999997893, -3.938390950215060456E-16 ) ) ;
#202 = DIRECTION ( 'NONE',  ( 1.000000000000000000, -6.982962677686263555E-15, 0.000000000000000000 ) ) ;
#203 = ORIENTED_EDGE ( 'NONE', *, *, #233, .T. ) ;
#204 = DIRECTION ( 'NONE',  ( 2.445468806185136597E-29, -3.491481338843145583E-15, -1.000000000000000000 ) ) ;
#205 = ORIENTED_EDGE ( 'NONE', *, *, #59, .T. ) ;
#206 = VECTOR ( 'NONE', #370, 39.37007874015748143 ) ;
#207 = CC_DESIGN_APPROVAL ( #94, ( #311 ) ) ;
#208 = ORIENTED_EDGE ( 'NONE', *, *, #240, .T. ) ;
#209 = DIRECTION ( 'NONE',  ( 1.000000000000000000, -6.982962677686265922E-15, 4.876176775795935793E-29 ) ) ;
#210 = AXIS2_PLACEMENT_3D ( 'NONE', #83, #204, #373 ) ;
#211 = CARTESIAN_POINT ( 'NONE',  ( -0.1327999999999997793, 8.575078168198717408E-16, -0.02000000000000003164 ) ) ;
#212 = CIRCLE ( 'NONE', #26, 0.1327999999999997793 ) ;
#213 = AXIS2_PLACEMENT_3D ( 'NONE', #269, #183, #298 ) ;
#214 = PRODUCT_DEFINITION_FORMATION_WITH_SPECIFIED_SOURCE ( 'ANY', '', #324, .NOT_KNOWN. ) ;
#215 = DIRECTION ( 'NONE',  ( -2.445468806185136597E-29, 3.491481338843145583E-15, 1.000000000000000000 ) ) ;
#216 = EDGE_CURVE ( 'NONE', #76, #351, #189, .T. ) ;
#217 = CARTESIAN_POINT ( 'NONE',  ( 0.000000000000000000, 0.000000000000000000, 0.000000000000000000 ) ) ;
#218 = DATE_AND_TIME ( #131, #296 ) ;
#219 = CIRCLE ( 'NONE', #51, 0.1328000000000000014 ) ;
#220 = ORIENTED_EDGE ( 'NONE', *, *, #7, .T. ) ;
#221 = EDGE_CURVE ( 'NONE', #25, #266, #371, .T. ) ;
#222 = CARTESIAN_POINT ( 'NONE',  ( -0.1327999999999998904, 9.436007530894122678E-16, -6.532345799858508327E-30 ) ) ;
#223 = APPROVAL_ROLE ( '' ) ;
#224 = DIRECTION ( 'NONE',  ( -2.445468806185136597E-29, 3.491481338843145583E-15, 1.000000000000000000 ) ) ;
#225 = EDGE_LOOP ( 'NONE', ( #84, #13, #294 ) ) ;
#226 = DIRECTION ( 'NONE',  ( 1.000000000000000000, -6.982962677686263555E-15, 0.000000000000000000 ) ) ;
#227 = EDGE_LOOP ( 'NONE', ( #191, #52 ) ) ;
#228 = VECTOR ( 'NONE', #73, 39.37007874015748143 ) ;
#229 = DIRECTION ( 'NONE',  ( -2.445468806185136597E-29, 3.491481338843145583E-15, 1.000000000000000000 ) ) ;
#230 = DIRECTION ( 'NONE',  ( 1.000000000000000000, -6.982962677686264344E-15, 0.000000000000000000 ) ) ;
#231 = CYLINDRICAL_SURFACE ( 'NONE', #319, 0.1328000000000000014 ) ;
#232 = CIRCLE ( 'NONE', #277, 0.1328000000000000014 ) ;
#233 = EDGE_CURVE ( 'NONE', #43, #266, #312, .T. ) ;
#234 = ORIENTED_EDGE ( 'NONE', *, *, #119, .T. ) ;
#235 = AXIS2_PLACEMENT_3D ( 'NONE', #66, #178, #209 ) ;
#236 = MANIFOLD_SOLID_BREP ( 'Body-Move/Copy2[1]', #60 ) ;
#237 = VECTOR ( 'NONE', #136, 39.37007874015748143 ) ;
#238 = MANIFOLD_SOLID_BREP ( 'Body-Move/Copy2[2]', #30 ) ;
#239 = APPROVAL_ROLE ( '' ) ;
#240 = EDGE_CURVE ( 'NONE', #129, #43, #70, .T. ) ;
#241 = DIRECTION ( 'NONE',  ( -2.445468806185136597E-29, 3.491481338843145583E-15, 1.000000000000000000 ) ) ;
#242 = DATE_AND_TIME ( #332, #93 ) ;
#243 = CONICAL_SURFACE ( 'NONE', #157, 0.1318000000000000005, 0.7853981633974141952 ) ;
#244 = ORIENTED_EDGE ( 'NONE', *, *, #320, .T. ) ;
#245 = ORIENTED_EDGE ( 'NONE', *, *, #240, .F. ) ;
#246 = CC_DESIGN_PERSON_AND_ORGANIZATION_ASSIGNMENT ( #333, #99, ( #324 ) ) ;
#247 = FACE_OUTER_BOUND ( 'NONE', #112, .T. ) ;
#248 = CONICAL_SURFACE ( 'NONE', #343, 751.2258538476676222, 1.518436449235073704 ) ;
#249 = FACE_OUTER_BOUND ( 'NONE', #196, .T. ) ;
#250 = CARTESIAN_POINT ( 'NONE',  ( -0.1327999999999997516, -7.801365903511130692E-15, -2.500000000000000000 ) ) ;
#251 = AXIS2_PLACEMENT_3D ( 'NONE', #217, #241, #96 ) ;
#252 = DIRECTION ( 'NONE',  ( -2.445468806185136597E-29, 3.491481338843145583E-15, 1.000000000000000000 ) ) ;
#253 = CARTESIAN_POINT ( 'NONE',  ( 6.096632310784863388E-29, -8.704431919105009466E-15, -2.493040246911213398 ) ) ;
#254 = ORIENTED_EDGE ( 'NONE', *, *, #216, .T. ) ;
#255 = CARTESIAN_POINT ( 'NONE',  ( 0.1328000000000000014, -7.033938305233397492E-15, -1.749000000000000110 ) ) ;
#256 = CARTESIAN_POINT ( 'NONE',  ( -0.1318000000000000005, -5.168298562895471601E-15, -1.750000000000000222 ) ) ;
#257 = DIRECTION ( 'NONE',  ( -2.445468806185136597E-29, 3.491481338843145583E-15, 1.000000000000000000 ) ) ;
#258 = ORIENTED_EDGE ( 'NONE', *, *, #155, .T. ) ;
#259 = DIRECTION ( 'NONE',  ( -1.000000000000000000, 6.982962677686265922E-15, -4.876176775795935793E-29 ) ) ;
#260 = PERSON_AND_ORGANIZATION ( #299, #389 ) ;
#261 = DIRECTION ( 'NONE',  ( 1.000000000000000000, -6.982962677686266711E-15, 4.876176775795935232E-29 ) ) ;
#262 = CIRCLE ( 'NONE', #300, 0.1328000000000000014 ) ;
#263 = CARTESIAN_POINT ( 'NONE',  ( 4.277124942017804562E-29, -6.106600861636661664E-15, -1.749000000000000110 ) ) ;
#264 = EDGE_CURVE ( 'NONE', #378, #360, #35, .T. ) ;
#265 = ORIENTED_EDGE ( 'NONE', *, *, #64, .T. ) ;
#266 = VERTEX_POINT ( 'NONE', #211 ) ;
#267 = PRODUCT_DEFINITION_SHAPE ( 'NONE', 'NONE',  #62 ) ;
#268 = EDGE_CURVE ( 'NONE', #351, #76, #21, .T. ) ;
#269 = CARTESIAN_POINT ( 'NONE',  ( 4.890937612370280165E-31, -6.982962677686301470E-17, -0.02000000000000003164 ) ) ;
#270 = AXIS2_PLACEMENT_3D ( 'NONE', #317, #290, #194 ) ;
#271 = PERSON_AND_ORGANIZATION ( #299, #389 ) ;
#272 = APPLICATION_PROTOCOL_DEFINITION ( 'international standard', 'config_control_design', 1994, #103 ) ;
#273 = AXIS2_PLACEMENT_3D ( 'NONE', #47, #1, #159 ) ;
#274 = APPROVAL_PERSON_ORGANIZATION ( #100, #57, #45 ) ;
#275 = ORIENTED_EDGE ( 'NONE', *, *, #268, .T. ) ;
#276 = ADVANCED_FACE ( 'NONE', ( #92 ), #363, .T. ) ;
#277 = AXIS2_PLACEMENT_3D ( 'NONE', #166, #257, #202 ) ;
#278 = COORDINATED_UNIVERSAL_TIME_OFFSET ( 5, 0, .BEHIND. ) ;
#279 = DIRECTION ( 'NONE',  ( -2.445468806185136597E-29, 3.491481338843145583E-15, 1.000000000000000000 ) ) ;
#280 = ORIENTED_EDGE ( 'NONE', *, *, #54, .F. ) ;
#281 = DIRECTION ( 'NONE',  ( 2.438088387897960049E-29, -3.491481338843145188E-15, -1.000000000000000000 ) ) ;
#282 = PERSON_AND_ORGANIZATION_ROLE ( 'creator' ) ;
#283 = CARTESIAN_POINT ( 'NONE',  ( 0.1327999999999997793, -9.809037608809209113E-16, -0.02000000000000003164 ) ) ;
#284 = ORIENTED_EDGE ( 'NONE', *, *, #353, .F. ) ;
#285 = CARTESIAN_POINT ( 'NONE',  ( -0.1327999999999997793, 8.575078168198717408E-16, -0.02000000000000003164 ) ) ;
#286 = APPROVAL_DATE_TIME ( #168, #57 ) ;
#287 = DIRECTION ( 'NONE',  ( -0.7071067811865232589, 7.493145998870265808E-15, 0.7071067811865715536 ) ) ;
#288 = DIRECTION ( 'NONE',  ( -2.445468806185136597E-29, 3.491481338843145583E-15, 1.000000000000000000 ) ) ;
#289 = DIRECTION ( 'NONE',  ( 2.438088387897960049E-29, -3.491481338843145188E-15, -1.000000000000000000 ) ) ;
#290 = DIRECTION ( 'NONE',  ( -2.445468806185136597E-29, 3.491481338843145583E-15, 1.000000000000000000 ) ) ;
#291 = ORIENTED_EDGE ( 'NONE', *, *, #104, .T. ) ;
#292 = DIRECTION ( 'NONE',  ( -1.000000000000000000, 6.982962677686267499E-15, 0.000000000000000000 ) ) ;
#293 = DIRECTION ( 'NONE',  ( -2.445468806185136597E-29, 3.491481338843145583E-15, 1.000000000000000000 ) ) ;
#294 = ORIENTED_EDGE ( 'NONE', *, *, #64, .F. ) ;
#295 = AXIS2_PLACEMENT_3D ( 'NONE', #6, #252, #226 ) ;
#296 = LOCAL_TIME ( 16, 22, 33.00000000000000000, #186 ) ;
#297 = CARTESIAN_POINT ( 'NONE',  ( 0.1327999999999997793, -9.809037608809209113E-16, -0.02000000000000003164 ) ) ;
#298 = DIRECTION ( 'NONE',  ( -1.000000000000000000, 6.982962677686266711E-15, 0.000000000000000000 ) ) ;
#299 = PERSON ( 'UNSPECIFIED', 'UNSPECIFIED', 'UNSPECIFIED', ('UNSPECIFIED'), ('UNSPECIFIED'), ('UNSPECIFIED') ) ;
#300 = AXIS2_PLACEMENT_3D ( 'NONE', #122, #29, #364 ) ;
#301 = CC_DESIGN_APPROVAL ( #169, ( #62 ) ) ;
#302 = APPLICATION_PROTOCOL_DEFINITION ( 'international standard', 'config_control_design', 1994, #176 ) ;
#303 = MECHANICAL_CONTEXT ( 'NONE', #103, 'mechanical' ) ;
#304 = DIRECTION ( 'NONE',  ( 0.7071067811865469066, -7.319954787623254468E-15, -0.7071067811865482389 ) ) ;
#305 = EDGE_LOOP ( 'NONE', ( #245, #38, #152, #142 ) ) ;
#306 = CC_DESIGN_PERSON_AND_ORGANIZATION_ASSIGNMENT ( #380, #11, ( #311 ) ) ;
#307 = APPROVAL_DATE_TIME ( #106, #94 ) ;
#308 = CARTESIAN_POINT ( 'NONE',  ( 2.842002966116905145E-20, -8.704403499075408633E-15, -2.493040246911213398 ) ) ;
#309 = CARTESIAN_POINT ( 'NONE',  ( -0.1318000000000000005, -5.173597017243694003E-15, -1.750000000000000222 ) ) ;
#310 = ORIENTED_EDGE ( 'NONE', *, *, #68, .T. ) ;
#311 = SECURITY_CLASSIFICATION ( '', '', #346 ) ;
#312 = LINE ( 'NONE', #285, #228 ) ;
#313 = PERSON_AND_ORGANIZATION ( #299, #389 ) ;
#314 = LINE ( 'NONE', #101, #206 ) ;
#315 = DIRECTION ( 'NONE',  ( 2.445468806185136597E-29, -3.491481338843145583E-15, -1.000000000000000000 ) ) ;
#316 = EDGE_LOOP ( 'NONE', ( #23, #5, #258, #61 ) ) ;
#317 = CARTESIAN_POINT ( 'NONE',  ( 0.000000000000000000, 0.000000000000000000, 0.000000000000000000 ) ) ;
#318 = DESIGN_CONTEXT ( 'detailed design', #176, 'design' ) ;
#319 = AXIS2_PLACEMENT_3D ( 'NONE', #88, #293, #261 ) ;
#320 = EDGE_CURVE ( 'NONE', #43, #129, #368, .T. ) ;
#321 = EDGE_LOOP ( 'NONE', ( #89, #350, #48, #366 ) ) ;
#322 = PLANE ( 'NONE',  #235 ) ;
#323 = VERTEX_POINT ( 'NONE', #115 ) ;
#324 = PRODUCT ( '30133', '30133', '', ( #303 ) ) ;
#325 = DIRECTION ( 'NONE',  ( -2.445468806185136597E-29, 3.491481338843145583E-15, 1.000000000000000000 ) ) ;
#326 = AXIS2_PLACEMENT_3D ( 'NONE', #192, #15, #139 ) ;
#327 = FACE_OUTER_BOUND ( 'NONE', #227, .T. ) ;
#328 = DIRECTION ( 'NONE',  ( 1.000000000000000000, -6.982962677686264344E-15, 0.000000000000000000 ) ) ;
#329 = CC_DESIGN_PERSON_AND_ORGANIZATION_ASSIGNMENT ( #33, #128, ( #62 ) ) ;
#330 = CIRCLE ( 'NONE', #67, 0.1318000000000000005 ) ;
#331 = EDGE_CURVE ( 'NONE', #56, #323, #172, .T. ) ;
#332 = CALENDAR_DATE ( 2023, 21, 3 ) ;
#333 = PERSON_AND_ORGANIZATION ( #299, #389 ) ;
#334 = CARTESIAN_POINT ( 'NONE',  ( 4.279570410823989044E-29, -6.110092342975505460E-15, -1.750000000000000222 ) ) ;
#335 = AXIS2_PLACEMENT_3D ( 'NONE', #95, #215, #328 ) ;
#336 = EDGE_CURVE ( 'NONE', #358, #76, #342, .T. ) ;
#337 = CARTESIAN_POINT ( 'NONE',  ( 0.000000000000000000, 0.000000000000000000, 0.000000000000000000 ) ) ;
#338 = CC_DESIGN_DATE_AND_TIME_ASSIGNMENT ( #198, #109, ( #311 ) ) ;
#339 = EDGE_LOOP ( 'NONE', ( #275, #254 ) ) ;
#340 = DIRECTION ( 'NONE',  ( -2.445468806185136877E-29, 3.491481338843145188E-15, 1.000000000000000000 ) ) ;
#341 = CALENDAR_DATE ( 2023, 21, 3 ) ;
#342 = LINE ( 'NONE', #110, #237 ) ;
#343 = AXIS2_PLACEMENT_3D ( 'NONE', #170, #315, #292 ) ;
#344 = ORIENTED_EDGE ( 'NONE', *, *, #7, .F. ) ;
#345 = APPROVAL_STATUS ( 'not_yet_approved' ) ;
#346 = SECURITY_CLASSIFICATION_LEVEL ( 'unclassified' ) ;
#347 = LINE ( 'NONE', #80, #156 ) ;
#348 = LINE ( 'NONE', #309, #148 ) ;
#349 =( GEOMETRIC_REPRESENTATION_CONTEXT ( 3 ) GLOBAL_UNCERTAINTY_ASSIGNED_CONTEXT ( ( #85 ) ) GLOBAL_UNIT_ASSIGNED_CONTEXT ( ( #16, #145, #355 ) ) REPRESENTATION_CONTEXT ( 'NONE', 'WORKASPACE' ) );
#350 = ORIENTED_EDGE ( 'NONE', *, *, #54, .T. ) ;
#351 = VERTEX_POINT ( 'NONE', #75 ) ;
#352 = ADVANCED_FACE ( 'NONE', ( #247 ), #50, .T. ) ;
#353 = EDGE_CURVE ( 'NONE', #56, #358, #347, .T. ) ;
#354 = ORIENTED_EDGE ( 'NONE', *, *, #65, .T. ) ;
#355 =( NAMED_UNIT ( * ) SI_UNIT ( $, .STERADIAN. ) SOLID_ANGLE_UNIT ( ) );
#356 = FACE_OUTER_BOUND ( 'NONE', #167, .T. ) ;
#357 = AXIS2_PLACEMENT_3D ( 'NONE', #163, #55, #9 ) ;
#358 = VERTEX_POINT ( 'NONE', #250 ) ;
#359 = CARTESIAN_POINT ( 'NONE',  ( -0.1328000000000000014, -6.475797091952271947E-15, -1.750000000000000222 ) ) ;
#360 = VERTEX_POINT ( 'NONE', #20 ) ;
#361 = EDGE_CURVE ( 'NONE', #323, #351, #314, .T. ) ;
#362 = LENGTH_MEASURE_WITH_UNIT ( LENGTH_MEASURE( 0.02539999999999999897 ), #34 );
#363 = CONICAL_SURFACE ( 'NONE', #335, 0.1318000000000000005, 0.7853981633974141952 ) ;
#364 = DIRECTION ( 'NONE',  ( 1.000000000000000000, -6.982962677686263555E-15, 0.000000000000000000 ) ) ;
#365 = COORDINATED_UNIVERSAL_TIME_OFFSET ( 5, 0, .BEHIND. ) ;
#366 = ORIENTED_EDGE ( 'NONE', *, *, #216, .F. ) ;
#367 = DATE_TIME_ROLE ( 'creation_date' ) ;
#368 = CIRCLE ( 'NONE', #121, 0.1127999999999997893 ) ;
#369 = FACE_OUTER_BOUND ( 'NONE', #180, .T. ) ;
#370 = DIRECTION ( 'NONE',  ( -2.445468806185136877E-29, 3.491481338843145188E-15, 1.000000000000000000 ) ) ;
#371 = LINE ( 'NONE', #222, #390 ) ;
#372 = COORDINATED_UNIVERSAL_TIME_OFFSET ( 5, 0, .BEHIND. ) ;
#373 = DIRECTION ( 'NONE',  ( -1.000000000000000000, 6.982962677686267499E-15, 0.000000000000000000 ) ) ;
#374 = ORIENTED_EDGE ( 'NONE', *, *, #221, .F. ) ;
#375 = CYLINDRICAL_SURFACE ( 'NONE', #150, 0.1327999999999998904 ) ;
#376 = CYLINDRICAL_SURFACE ( 'NONE', #251, 0.1328000000000000014 ) ;
#377 = LINE ( 'NONE', #111, #118 ) ;
#378 = VERTEX_POINT ( 'NONE', #256 ) ;
#379 = DIRECTION ( 'NONE',  ( -2.445468806185136597E-29, 3.491481338843145583E-15, 1.000000000000000000 ) ) ;
#380 = PERSON_AND_ORGANIZATION ( #299, #389 ) ;
#381 = ORIENTED_EDGE ( 'NONE', *, *, #44, .F. ) ;
#382 = FACE_OUTER_BOUND ( 'NONE', #339, .T. ) ;
#383 = CARTESIAN_POINT ( 'NONE',  ( -0.1328000000000000014, -2.144614491117346466E-15, -1.749000000000000110 ) ) ;
#384 = DIRECTION ( 'NONE',  ( 1.000000000000000000, -6.982962677686263555E-15, 0.000000000000000000 ) ) ;
#385 = EDGE_LOOP ( 'NONE', ( #244, #208 ) ) ;
#386 = ADVANCED_FACE ( 'NONE', ( #12 ), #376, .T. ) ;
#387 = DIRECTION ( 'NONE',  ( 1.000000000000000000, -6.982962677686264344E-15, 0.000000000000000000 ) ) ;
#388 = CONICAL_SURFACE ( 'NONE', #134, 0.1327999999999997793, 0.7853981633974473908 ) ;
#389 = ORGANIZATION ( 'UNSPECIFIED', 'UNSPECIFIED', '' ) ;
#390 = VECTOR ( 'NONE', #340, 39.37007874015748143 ) ;
ENDSEC;
END-ISO-10303-21;
