ISO-10303-21;
HEADER;
FILE_DESCRIPTION (( 'STEP AP203' ),
    '1' );
FILE_NAME ('30141.STEP',
    '2023-03-21T20:22:52',
    ( '' ),
    ( '' ),
    'SwSTEP 2.0',
    'SolidWorks 2022',
    '' );
FILE_SCHEMA (( 'CONFIG_CONTROL_DESIGN' ));
ENDSEC;

DATA;
#1 = SECURITY_CLASSIFICATION_LEVEL ( 'unclassified' ) ;
#2 = APPROVAL_DATE_TIME ( #72, #276 ) ;
#3 = VERTEX_POINT ( 'NONE', #176 ) ;
#4 = CYLINDRICAL_SURFACE ( 'NONE', #211, 0.1640499999999999181 ) ;
#5 = DIRECTION ( 'NONE',  ( 1.000000000000000000, -6.982962677686264344E-15, 0.000000000000000000 ) ) ;
#6 = EDGE_CURVE ( 'NONE', #325, #146, #201, .T. ) ;
#7 = APPROVAL ( #242, 'UNSPECIFIED' ) ;
#8 = ORIENTED_EDGE ( 'NONE', *, *, #113, .F. ) ;
#9 = DIRECTION ( 'NONE',  ( -2.445468806185136877E-29, 3.491481338843145188E-15, 1.000000000000000000 ) ) ;
#10 = CC_DESIGN_APPROVAL ( #7, ( #78 ) ) ;
#11 = DIRECTION ( 'NONE',  ( -2.445468806185136877E-29, 3.491481338843145188E-15, 1.000000000000000000 ) ) ;
#12 = DATE_AND_TIME ( #225, #316 ) ;
#13 = CARTESIAN_POINT ( 'NONE',  ( 3.668203209277704895E-29, -5.237222008264718177E-15, -1.500000000000000222 ) ) ;
#14 = EDGE_CURVE ( 'NONE', #25, #322, #262, .T. ) ;
#15 = ORIENTED_EDGE ( 'NONE', *, *, #224, .F. ) ;
#16 = DIRECTION ( 'NONE',  ( -1.000000000000000000, 6.982962677686265922E-15, -4.876176775795935793E-29 ) ) ;
#17 = CC_DESIGN_PERSON_AND_ORGANIZATION_ASSIGNMENT ( #140, #349, ( #78 ) ) ;
#18 = EDGE_LOOP ( 'NONE', ( #175, #309 ) ) ;
#19 = DIRECTION ( 'NONE',  ( 2.445468806185136597E-29, -3.491481338843145583E-15, -1.000000000000000000 ) ) ;
#20 = CIRCLE ( 'NONE', #267, 0.1630499999999999727 ) ;
#21 = ORIENTED_EDGE ( 'NONE', *, *, #32, .T. ) ;
#22 = EDGE_CURVE ( 'NONE', #372, #85, #273, .T. ) ;
#23 = DIRECTION ( 'NONE',  ( 1.000000000000000000, -6.982962677686264344E-15, 0.000000000000000000 ) ) ;
#24 = DIRECTION ( 'NONE',  ( 1.000000000000000000, -6.982962677686270655E-15, 0.000000000000000000 ) ) ;
#25 = VERTEX_POINT ( 'NONE', #237 ) ;
#26 = EDGE_LOOP ( 'NONE', ( #326, #261 ) ) ;
#27 = CC_DESIGN_DATE_AND_TIME_ASSIGNMENT ( #308, #120, ( #357 ) ) ;
#28 = ORIENTED_EDGE ( 'NONE', *, *, #22, .F. ) ;
#29 = EDGE_LOOP ( 'NONE', ( #249, #198 ) ) ;
#30 = AXIS2_PLACEMENT_3D ( 'NONE', #105, #342, #16 ) ;
#31 = CARTESIAN_POINT ( 'NONE',  ( 0.000000000000000000, 0.000000000000000000, 0.000000000000000000 ) ) ;
#32 = EDGE_CURVE ( 'NONE', #97, #65, #299, .T. ) ;
#33 = AXIS2_PLACEMENT_3D ( 'NONE', #314, #43, #136 ) ;
#34 = CARTESIAN_POINT ( 'NONE',  ( 0.000000000000000000, 0.000000000000000000, 0.000000000000000000 ) ) ;
#35 = DIRECTION ( 'NONE',  ( 1.000000000000000000, -6.982962677686267499E-15, 4.876176775795935793E-29 ) ) ;
#36 = VECTOR ( 'NONE', #108, 39.37007874015748143 ) ;
#37 = ORIENTED_EDGE ( 'NONE', *, *, #116, .T. ) ;
#38 = CARTESIAN_POINT ( 'NONE',  ( 1.145555027274468542E-15, 0.1640499999999947556, -1.500000000000000666 ) ) ;
#39 = CARTESIAN_POINT ( 'NONE',  ( 3.665757740471519853E-29, -5.233730526925875958E-15, -1.499000000000000110 ) ) ;
#40 = CARTESIAN_POINT ( 'NONE',  ( 0.1640500000000000014, -1.145555027274432057E-15, 7.999368000693231542E-30 ) ) ;
#41 = EDGE_LOOP ( 'NONE', ( #172, #350, #144, #52 ) ) ;
#42 = DIRECTION ( 'NONE',  ( -2.445468806185136597E-29, 3.491481338843145583E-15, 1.000000000000000000 ) ) ;
#43 = DIRECTION ( 'NONE',  ( -2.445468806185136597E-29, 3.491481338843145583E-15, 1.000000000000000000 ) ) ;
#44 = PERSON_AND_ORGANIZATION ( #351, #158 ) ;
#45 = CARTESIAN_POINT ( 'NONE',  ( 0.1640500000000000014, -6.379285554200308410E-15, -1.499000000000000110 ) ) ;
#46 = AXIS2_PLACEMENT_3D ( 'NONE', #292, #19, #143 ) ;
#47 = AXIS2_PLACEMENT_3D ( 'NONE', #90, #329, #195 ) ;
#48 = DIRECTION ( 'NONE',  ( -2.445468806185136597E-29, 3.491481338843145583E-15, 1.000000000000000000 ) ) ;
#49 = EDGE_LOOP ( 'NONE', ( #107, #81, #217 ) ) ;
#50 = FACE_OUTER_BOUND ( 'NONE', #127, .T. ) ;
#51 = EDGE_CURVE ( 'NONE', #97, #362, #284, .T. ) ;
#52 = ORIENTED_EDGE ( 'NONE', *, *, #6, .F. ) ;
#53 = CARTESIAN_POINT ( 'NONE',  ( 4.890937612370284544E-31, -6.982962677686307633E-17, -0.02000000000000004552 ) ) ;
#54 = CARTESIAN_POINT ( 'NONE',  ( -0.1440499999999998171, 1.040810587109136518E-15, -7.156668557471613075E-30 ) ) ;
#55 = ORIENTED_EDGE ( 'NONE', *, *, #301, .F. ) ;
#56 = DIRECTION ( 'NONE',  ( -2.445468806185136597E-29, 3.491481338843145583E-15, 1.000000000000000000 ) ) ;
#57 = ADVANCED_FACE ( 'NONE', ( #285 ), #126, .F. ) ;
#58 = ORIENTED_EDGE ( 'NONE', *, *, #253, .F. ) ;
#59 = EDGE_CURVE ( 'NONE', #362, #97, #269, .T. ) ;
#60 = ORIENTED_EDGE ( 'NONE', *, *, #209, .T. ) ;
#61 = EDGE_CURVE ( 'NONE', #348, #3, #344, .T. ) ;
#62 = AXIS2_PLACEMENT_3D ( 'NONE', #38, #289, #251 ) ;
#63 = CARTESIAN_POINT ( 'NONE',  ( 0.1440499999999998171, -1.091774529945134687E-15, 7.334608212837369828E-30 ) ) ;
#64 = PERSON_AND_ORGANIZATION_ROLE ( 'creator' ) ;
#65 = VERTEX_POINT ( 'NONE', #222 ) ;
#66 = CARTESIAN_POINT ( 'NONE',  ( 0.1640499999999998071, -9.854168043642283706E-15, -2.500000000000000000 ) ) ;
#67 = PERSON_AND_ORGANIZATION ( #351, #158 ) ;
#68 =( GEOMETRIC_REPRESENTATION_CONTEXT ( 3 ) GLOBAL_UNCERTAINTY_ASSIGNED_CONTEXT ( ( #302 ) ) GLOBAL_UNIT_ASSIGNED_CONTEXT ( ( #247, #361, #94 ) ) REPRESENTATION_CONTEXT ( 'NONE', 'WORKASPACE' ) );
#69 = DIRECTION ( 'NONE',  ( 1.000000000000000000, -6.982962677686266711E-15, 4.876176775795935793E-29 ) ) ;
#70 = CC_DESIGN_PERSON_AND_ORGANIZATION_ASSIGNMENT ( #340, #248, ( #118 ) ) ;
#71 = ADVANCED_FACE ( 'NONE', ( #341 ), #192, .T. ) ;
#72 = DATE_AND_TIME ( #339, #371 ) ;
#73 = CARTESIAN_POINT ( 'NONE',  ( 0.1640499999999999181, -1.145555027274431663E-15, 7.999368000693228739E-30 ) ) ;
#74 = PLANE ( 'NONE',  #30 ) ;
#75 = FACE_OUTER_BOUND ( 'NONE', #169, .T. ) ;
#76 = FACE_OUTER_BOUND ( 'NONE', #189, .T. ) ;
#77 = CIRCLE ( 'NONE', #178, 0.1440499999999998171 ) ;
#78 = PRODUCT_DEFINITION_FORMATION_WITH_SPECIFIED_SOURCE ( 'ANY', '', #152, .NOT_KNOWN. ) ;
#79 = DATE_AND_TIME ( #270, #83 ) ;
#80 = LINE ( 'NONE', #196, #354 ) ;
#81 = ORIENTED_EDGE ( 'NONE', *, *, #113, .T. ) ;
#82 = ORIENTED_EDGE ( 'NONE', *, *, #282, .F. ) ;
#83 = LOCAL_TIME ( 16, 22, 52.00000000000000000, #129 ) ;
#84 = DIRECTION ( 'NONE',  ( -2.445468806185136597E-29, 3.491481338843145583E-15, 1.000000000000000000 ) ) ;
#85 = VERTEX_POINT ( 'NONE', #63 ) ;
#86 = ADVANCED_FACE ( 'NONE', ( #161 ), #215, .T. ) ;
#87 = VECTOR ( 'NONE', #310, 39.37007874015748143 ) ;
#88 = CC_DESIGN_APPROVAL ( #276, ( #118 ) ) ;
#89 = DIRECTION ( 'NONE',  ( 1.000000000000000000, 0.000000000000000000, 0.000000000000000000 ) ) ;
#90 = CARTESIAN_POINT ( 'NONE',  ( 3.668203209277704895E-29, -5.237222008264718177E-15, -1.500000000000000222 ) ) ;
#91 = CC_DESIGN_DATE_AND_TIME_ASSIGNMENT ( #12, #137, ( #118 ) ) ;
#92 = AXIS2_PLACEMENT_3D ( 'NONE', #226, #194, #145 ) ;
#93 = CARTESIAN_POINT ( 'NONE',  ( 0.1630499999999999727, -6.375794072861463825E-15, -1.500000000000000222 ) ) ;
#94 =( NAMED_UNIT ( * ) SI_UNIT ( $, .STERADIAN. ) SOLID_ANGLE_UNIT ( ) );
#95 = DIRECTION ( 'NONE',  ( 1.000000000000000000, -6.982962677686266711E-15, 4.876176775795935232E-29 ) ) ;
#96 = PERSON_AND_ORGANIZATION_ROLE ( 'design_owner' ) ;
#97 = VERTEX_POINT ( 'NONE', #66 ) ;
#98 = CARTESIAN_POINT ( 'NONE',  ( 2.039178106419926686E-19, -8.698685349594879101E-15, -2.491402503808618274 ) ) ;
#99 = PERSON_AND_ORGANIZATION ( #351, #158 ) ;
#100 = CIRCLE ( 'NONE', #384, 0.1640499999999998071 ) ;
#101 = DIRECTION ( 'NONE',  ( -2.445468806185136597E-29, 3.491481338843145583E-15, 1.000000000000000000 ) ) ;
#102 = DIRECTION ( 'NONE',  ( 2.445468806185136597E-29, -3.491481338843145583E-15, -1.000000000000000000 ) ) ;
#103 = CARTESIAN_POINT ( 'NONE',  ( 6.113672015462842613E-29, -8.728703347107864943E-15, -2.500000000000000000 ) ) ;
#104 = DIRECTION ( 'NONE',  ( -2.445468806185136597E-29, 3.491481338843145583E-15, 1.000000000000000000 ) ) ;
#105 = CARTESIAN_POINT ( 'NONE',  ( 1.005895773720705461E-15, 0.1440499999999998171, -5.029478868603545053E-16 ) ) ;
#106 = APPROVAL_DATE_TIME ( #231, #7 ) ;
#107 = ORIENTED_EDGE ( 'NONE', *, *, #209, .F. ) ;
#108 = DIRECTION ( 'NONE',  ( 0.7071067811865465735, -7.319954787623252890E-15, -0.7071067811865484609 ) ) ;
#109 = DIRECTION ( 'NONE',  ( -1.000000000000000000, 6.982962677686265922E-15, 0.000000000000000000 ) ) ;
#110 = EDGE_LOOP ( 'NONE', ( #206, #376, #312, #297 ) ) ;
#111 = CARTESIAN_POINT ( 'NONE',  ( -0.1630499999999999727, -4.078682077607875412E-15, -1.500000000000000222 ) ) ;
#112 = AXIS2_PLACEMENT_3D ( 'NONE', #39, #101, #272 ) ;
#113 = EDGE_CURVE ( 'NONE', #184, #362, #128, .T. ) ;
#114 = DIRECTION ( 'NONE',  ( -0.7071067811865232589, 7.493145998870265808E-15, 0.7071067811865715536 ) ) ;
#115 = APPLICATION_CONTEXT ( 'configuration controlled 3d designs of mechanical parts and assemblies' ) ;
#116 = EDGE_CURVE ( 'NONE', #322, #348, #80, .T. ) ;
#117 = CONICAL_SURFACE ( 'NONE', #148, 0.1640499999999998071, 0.7853981633974469467 ) ;
#118 = SECURITY_CLASSIFICATION ( '', '', #1 ) ;
#119 = ADVANCED_FACE ( 'NONE', ( #255 ), #117, .T. ) ;
#120 = DATE_TIME_ROLE ( 'creation_date' ) ;
#121 = DIRECTION ( 'NONE',  ( 0.000000000000000000, 0.000000000000000000, 1.000000000000000000 ) ) ;
#122 = LINE ( 'NONE', #243, #219 ) ;
#123 = CONICAL_SURFACE ( 'NONE', #180, 0.1640499999999998071, 0.7853981633974469467 ) ;
#124 = CONICAL_SURFACE ( 'NONE', #385, 0.1630499999999999727, 0.7853981633974141952 ) ;
#125 = CARTESIAN_POINT ( 'NONE',  ( 3.668203209277704895E-29, -5.237222008264718177E-15, -1.500000000000000222 ) ) ;
#126 = PLANE ( 'NONE',  #62 ) ;
#127 = EDGE_LOOP ( 'NONE', ( #238, #258, #55, #275 ) ) ;
#128 = LINE ( 'NONE', #246, #303 ) ;
#129 = COORDINATED_UNIVERSAL_TIME_OFFSET ( 5, 0, .BEHIND. ) ;
#130 = ORIENTED_EDGE ( 'NONE', *, *, #61, .T. ) ;
#131 = DIRECTION ( 'NONE',  ( 1.000000000000000000, -6.982962677686267499E-15, 4.876176775795935793E-29 ) ) ;
#132 = CARTESIAN_POINT ( 'NONE',  ( -0.1640500000000000014, -1.486134718836924278E-15, -1.499000000000000110 ) ) ;
#133 = COORDINATED_UNIVERSAL_TIME_OFFSET ( 5, 0, .BEHIND. ) ;
#134 = AXIS2_PLACEMENT_3D ( 'NONE', #245, #315, #95 ) ;
#135 = AXIS2_PLACEMENT_3D ( 'NONE', #171, #296, #24 ) ;
#136 = DIRECTION ( 'NONE',  ( 1.000000000000000000, -6.982962677686267499E-15, 0.000000000000000000 ) ) ;
#137 = DATE_TIME_ROLE ( 'classification_date' ) ;
#138 = FACE_OUTER_BOUND ( 'NONE', #49, .T. ) ;
#139 = DIRECTION ( 'NONE',  ( 1.000000000000000000, -6.982962677686264344E-15, 0.000000000000000000 ) ) ;
#140 = PERSON_AND_ORGANIZATION ( #351, #158 ) ;
#141 = DIRECTION ( 'NONE',  ( 1.000000000000000000, -6.982962677686264344E-15, 0.000000000000000000 ) ) ;
#142 = EDGE_LOOP ( 'NONE', ( #280, #28, #345, #130 ) ) ;
#143 = DIRECTION ( 'NONE',  ( -1.000000000000000000, 6.982962677686265922E-15, 0.000000000000000000 ) ) ;
#144 = ORIENTED_EDGE ( 'NONE', *, *, #383, .F. ) ;
#145 = DIRECTION ( 'NONE',  ( 1.000000000000000000, -6.982962677686265922E-15, 4.876176775795935793E-29 ) ) ;
#146 = VERTEX_POINT ( 'NONE', #45 ) ;
#147 = ADVANCED_FACE ( 'NONE', ( #320 ), #170, .T. ) ;
#148 = AXIS2_PLACEMENT_3D ( 'NONE', #53, #295, #373 ) ;
#149 = ORIENTED_EDGE ( 'NONE', *, *, #383, .T. ) ;
#150 = DIRECTION ( 'NONE',  ( -2.445468806185136597E-29, 3.491481338843145583E-15, 1.000000000000000000 ) ) ;
#151 = ADVANCED_BREP_SHAPE_REPRESENTATION ( '30141', ( #223, #212, #207 ), #68 ) ;
#152 = PRODUCT ( '30141', '30141', '', ( #328 ) ) ;
#153 = EDGE_CURVE ( 'NONE', #234, #65, #343, .T. ) ;
#154 = DIRECTION ( 'NONE',  ( -2.445468806185136597E-29, 3.491481338843145583E-15, 1.000000000000000000 ) ) ;
#155 = PRODUCT_DEFINITION_SHAPE ( 'NONE', 'NONE',  #357 ) ;
#156 = AXIS2_PLACEMENT_3D ( 'NONE', #288, #48, #23 ) ;
#157 = PERSON_AND_ORGANIZATION ( #351, #158 ) ;
#158 = ORGANIZATION ( 'UNSPECIFIED', 'UNSPECIFIED', '' ) ;
#159 = EDGE_LOOP ( 'NONE', ( #149, #37, #389, #15 ) ) ;
#160 = DIRECTION ( 'NONE',  ( -2.445468806185136597E-29, 3.491481338843145583E-15, 1.000000000000000000 ) ) ;
#161 = FACE_OUTER_BOUND ( 'NONE', #110, .T. ) ;
#162 = PERSON_AND_ORGANIZATION ( #351, #158 ) ;
#163 = COORDINATED_UNIVERSAL_TIME_OFFSET ( 5, 0, .BEHIND. ) ;
#164 = ADVANCED_FACE ( 'NONE', ( #138 ), #382, .F. ) ;
#165 = DIRECTION ( 'NONE',  ( 1.000000000000000000, -6.982962677686270655E-15, 0.000000000000000000 ) ) ;
#166 = CARTESIAN_POINT ( 'NONE',  ( 6.092504711669461854E-29, -8.698889267405459918E-15, -2.491402503808618274 ) ) ;
#167 = EDGE_CURVE ( 'NONE', #85, #3, #199, .T. ) ;
#168 = ORIENTED_EDGE ( 'NONE', *, *, #59, .F. ) ;
#169 = EDGE_LOOP ( 'NONE', ( #8, #60, #168 ) ) ;
#170 = CONICAL_SURFACE ( 'NONE', #156, 0.1630499999999999727, 0.7853981633974141952 ) ;
#171 = CARTESIAN_POINT ( 'NONE',  ( 3.665757740471519853E-29, -5.233730526925875958E-15, -1.499000000000000110 ) ) ;
#172 = ORIENTED_EDGE ( 'NONE', *, *, #352, .T. ) ;
#173 = ADVANCED_FACE ( 'NONE', ( #229 ), #367, .F. ) ;
#174 = LINE ( 'NONE', #233, #259 ) ;
#175 = ORIENTED_EDGE ( 'NONE', *, *, #22, .T. ) ;
#176 = CARTESIAN_POINT ( 'NONE',  ( 0.1640499999999998071, -1.195294323311281470E-15, -0.02000000000000004552 ) ) ;
#177 = VECTOR ( 'NONE', #218, 39.37007874015748143 ) ;
#178 = AXIS2_PLACEMENT_3D ( 'NONE', #359, #160, #69 ) ;
#179 = CIRCLE ( 'NONE', #135, 0.1640500000000000014 ) ;
#180 = AXIS2_PLACEMENT_3D ( 'NONE', #290, #257, #369 ) ;
#181 = APPROVAL_PERSON_ORGANIZATION ( #366, #276, #279 ) ;
#182 = EDGE_CURVE ( 'NONE', #362, #234, #174, .T. ) ;
#183 = CALENDAR_DATE ( 2023, 21, 3 ) ;
#184 = VERTEX_POINT ( 'NONE', #166 ) ;
#185 = VECTOR ( 'NONE', #11, 39.37007874015748143 ) ;
#186 = COORDINATED_UNIVERSAL_TIME_OFFSET ( 5, 0, .BEHIND. ) ;
#187 = CIRCLE ( 'NONE', #47, 0.1630499999999999727 ) ;
#188 = DIRECTION ( 'NONE',  ( 1.000000000000000000, -6.982962677686267499E-15, 0.000000000000000000 ) ) ;
#189 = EDGE_LOOP ( 'NONE', ( #58, #230, #205, #291 ) ) ;
#190 = ADVANCED_FACE ( 'NONE', ( #254 ), #74, .F. ) ;
#191 = CC_DESIGN_PERSON_AND_ORGANIZATION_ASSIGNMENT ( #44, #221, ( #78 ) ) ;
#192 = CYLINDRICAL_SURFACE ( 'NONE', #134, 0.1640500000000000014 ) ;
#193 = DIMENSIONAL_EXPONENTS ( 1.000000000000000000, 0.000000000000000000, 0.000000000000000000, 0.000000000000000000, 0.000000000000000000, 0.000000000000000000, 0.000000000000000000 ) ;
#194 = DIRECTION ( 'NONE',  ( -2.438088387897960049E-29, 3.491481338843145188E-15, 1.000000000000000000 ) ) ;
#195 = DIRECTION ( 'NONE',  ( 1.000000000000000000, -6.982962677686264344E-15, 0.000000000000000000 ) ) ;
#196 = CARTESIAN_POINT ( 'NONE',  ( -0.1640499999999999181, 1.165645358014443773E-15, -8.069513015563169361E-30 ) ) ;
#197 = CARTESIAN_POINT ( 'NONE',  ( 3.668203209277704895E-29, -5.237222008264718177E-15, -1.500000000000000222 ) ) ;
#198 = ORIENTED_EDGE ( 'NONE', *, *, #330, .F. ) ;
#199 = LINE ( 'NONE', #260, #36 ) ;
#200 = ADVANCED_FACE ( 'NONE', ( #76 ), #123, .T. ) ;
#201 = LINE ( 'NONE', #293, #250 ) ;
#202 = CLOSED_SHELL ( 'NONE', ( #305, #337, #164, #71, #57 ) ) ;
#203 = DIRECTION ( 'NONE',  ( 1.000000000000000000, -6.982962677686266711E-15, 4.876176775795935793E-29 ) ) ;
#204 = APPLICATION_CONTEXT ( 'configuration controlled 3d designs of mechanical parts and assemblies' ) ;
#205 = ORIENTED_EDGE ( 'NONE', *, *, #268, .T. ) ;
#206 = ORIENTED_EDGE ( 'NONE', *, *, #116, .F. ) ;
#207 = AXIS2_PLACEMENT_3D ( 'NONE', #380, #121, #89 ) ;
#208 = FACE_OUTER_BOUND ( 'NONE', #41, .T. ) ;
#209 = EDGE_CURVE ( 'NONE', #184, #97, #244, .T. ) ;
#210 = DIRECTION ( 'NONE',  ( -2.445468806185136597E-29, 3.491481338843145583E-15, 1.000000000000000000 ) ) ;
#211 = AXIS2_PLACEMENT_3D ( 'NONE', #34, #363, #131 ) ;
#212 = MANIFOLD_SOLID_BREP ( 'Body-Move/Copy2[2]', #324 ) ;
#213 = EDGE_CURVE ( 'NONE', #372, #348, #122, .T. ) ;
#214 = LENGTH_MEASURE_WITH_UNIT ( LENGTH_MEASURE( 0.02539999999999999897 ), #252 );
#215 = CYLINDRICAL_SURFACE ( 'NONE', #266, 0.1640499999999999181 ) ;
#216 = APPROVAL_STATUS ( 'not_yet_approved' ) ;
#217 = ORIENTED_EDGE ( 'NONE', *, *, #51, .F. ) ;
#218 = DIRECTION ( 'NONE',  ( 0.9986295347545742773, -7.033825938271998700E-15, -0.05233595624293709697 ) ) ;
#219 = VECTOR ( 'NONE', #336, 39.37007874015748143 ) ;
#220 = CARTESIAN_POINT ( 'NONE',  ( 6.113672015462842613E-29, -8.728703347107864943E-15, -2.500000000000000000 ) ) ;
#221 = PERSON_AND_ORGANIZATION_ROLE ( 'creator' ) ;
#222 = CARTESIAN_POINT ( 'NONE',  ( 0.1640500000000000014, -6.382777035539151417E-15, -1.500000000000000222 ) ) ;
#223 = MANIFOLD_SOLID_BREP ( 'Body-Move/Copy2[1]', #202 ) ;
#224 = EDGE_CURVE ( 'NONE', #146, #3, #306, .T. ) ;
#225 = CALENDAR_DATE ( 2023, 21, 3 ) ;
#226 = CARTESIAN_POINT ( 'NONE',  ( 3.668203209277704895E-29, -5.237222008264718177E-15, -1.500000000000000222 ) ) ;
#227 = CIRCLE ( 'NONE', #112, 0.1640500000000000014 ) ;
#228 = AXIS2_PLACEMENT_3D ( 'NONE', #318, #102, #109 ) ;
#229 = FACE_OUTER_BOUND ( 'NONE', #29, .T. ) ;
#230 = ORIENTED_EDGE ( 'NONE', *, *, #167, .T. ) ;
#231 = DATE_AND_TIME ( #358, #307 ) ;
#232 = ORIENTED_EDGE ( 'NONE', *, *, #330, .T. ) ;
#233 = CARTESIAN_POINT ( 'NONE',  ( -0.1640500000000000014, 1.165645358014444365E-15, -8.069513015563172164E-30 ) ) ;
#234 = VERTEX_POINT ( 'NONE', #313 ) ;
#235 = AXIS2_PLACEMENT_3D ( 'NONE', #103, #104, #277 ) ;
#236 = CC_DESIGN_PERSON_AND_ORGANIZATION_ASSIGNMENT ( #157, #96, ( #152 ) ) ;
#237 = CARTESIAN_POINT ( 'NONE',  ( -0.1630499999999999727, -4.073383623259653010E-15, -1.500000000000000222 ) ) ;
#238 = ORIENTED_EDGE ( 'NONE', *, *, #51, .T. ) ;
#239 = APPROVAL_STATUS ( 'not_yet_approved' ) ;
#240 = AXIS2_PLACEMENT_3D ( 'NONE', #220, #332, #139 ) ;
#241 = AXIS2_PLACEMENT_3D ( 'NONE', #31, #150, #379 ) ;
#242 = APPROVAL_STATUS ( 'not_yet_approved' ) ;
#243 = CARTESIAN_POINT ( 'NONE',  ( -0.1640499999999998071, 1.075725400497567773E-15, -0.02000000000000004552 ) ) ;
#244 = LINE ( 'NONE', #98, #177 ) ;
#245 = CARTESIAN_POINT ( 'NONE',  ( 0.000000000000000000, 0.000000000000000000, 0.000000000000000000 ) ) ;
#246 = CARTESIAN_POINT ( 'NONE',  ( -2.039178105201397551E-19, -8.698685349594879101E-15, -2.491402503808618274 ) ) ;
#247 =( CONVERSION_BASED_UNIT ( 'INCH', #214 ) LENGTH_UNIT ( ) NAMED_UNIT ( #193 ) );
#248 = PERSON_AND_ORGANIZATION_ROLE ( 'classification_officer' ) ;
#249 = ORIENTED_EDGE ( 'NONE', *, *, #352, .F. ) ;
#250 = VECTOR ( 'NONE', #265, 39.37007874015748854 ) ;
#251 = DIRECTION ( 'NONE',  ( -1.000000000000000000, 6.982962677686265922E-15, -4.876176775795935793E-29 ) ) ;
#252 =( LENGTH_UNIT ( ) NAMED_UNIT ( * ) SI_UNIT ( $, .METRE. ) );
#253 = EDGE_CURVE ( 'NONE', #85, #372, #77, .T. ) ;
#254 = FACE_OUTER_BOUND ( 'NONE', #18, .T. ) ;
#255 = FACE_OUTER_BOUND ( 'NONE', #142, .T. ) ;
#256 = CARTESIAN_POINT ( 'NONE',  ( 0.000000000000000000, 0.000000000000000000, 0.000000000000000000 ) ) ;
#257 = DIRECTION ( 'NONE',  ( 2.445468806185136597E-29, -3.491481338843145583E-15, -1.000000000000000000 ) ) ;
#258 = ORIENTED_EDGE ( 'NONE', *, *, #182, .T. ) ;
#259 = VECTOR ( 'NONE', #9, 39.37007874015748143 ) ;
#260 = CARTESIAN_POINT ( 'NONE',  ( 0.1640499999999998071, -1.195294323311281470E-15, -0.02000000000000004552 ) ) ;
#261 = ORIENTED_EDGE ( 'NONE', *, *, #153, .T. ) ;
#262 = LINE ( 'NONE', #111, #370 ) ;
#263 = APPROVAL ( #216, 'UNSPECIFIED' ) ;
#264 = ORIENTED_EDGE ( 'NONE', *, *, #6, .T. ) ;
#265 = DIRECTION ( 'NONE',  ( 0.7071067811865232589, -2.468850131082003836E-15, 0.7071067811865715536 ) ) ;
#266 = AXIS2_PLACEMENT_3D ( 'NONE', #256, #334, #35 ) ;
#267 = AXIS2_PLACEMENT_3D ( 'NONE', #197, #42, #141 ) ;
#268 = EDGE_CURVE ( 'NONE', #3, #348, #100, .T. ) ;
#269 = CIRCLE ( 'NONE', #240, 0.1640500000000000014 ) ;
#270 = CALENDAR_DATE ( 2023, 21, 3 ) ;
#271 = CARTESIAN_POINT ( 'NONE',  ( 4.890937612370284544E-31, -6.982962677686307633E-17, -0.02000000000000004552 ) ) ;
#272 = DIRECTION ( 'NONE',  ( 1.000000000000000000, -6.982962677686270655E-15, 0.000000000000000000 ) ) ;
#273 = CIRCLE ( 'NONE', #364, 0.1440499999999998171 ) ;
#274 = CIRCLE ( 'NONE', #355, 0.1640500000000000014 ) ;
#275 = ORIENTED_EDGE ( 'NONE', *, *, #32, .F. ) ;
#276 = APPROVAL ( #239, 'UNSPECIFIED' ) ;
#277 = DIRECTION ( 'NONE',  ( 1.000000000000000000, -6.982962677686264344E-15, 0.000000000000000000 ) ) ;
#278 = APPROVAL_ROLE ( '' ) ;
#279 = APPROVAL_ROLE ( '' ) ;
#280 = ORIENTED_EDGE ( 'NONE', *, *, #167, .F. ) ;
#281 = ADVANCED_FACE ( 'NONE', ( #331 ), #4, .T. ) ;
#282 = EDGE_CURVE ( 'NONE', #322, #146, #227, .T. ) ;
#283 = EDGE_LOOP ( 'NONE', ( #374, #232, #264, #82 ) ) ;
#284 = CIRCLE ( 'NONE', #235, 0.1640500000000000014 ) ;
#285 = FACE_OUTER_BOUND ( 'NONE', #26, .T. ) ;
#286 = APPROVAL_PERSON_ORGANIZATION ( #162, #7, #278 ) ;
#287 = CYLINDRICAL_SURFACE ( 'NONE', #241, 0.1640500000000000014 ) ;
#288 = CARTESIAN_POINT ( 'NONE',  ( 3.668203209277704895E-29, -5.237222008264718177E-15, -1.500000000000000222 ) ) ;
#289 = DIRECTION ( 'NONE',  ( 2.438088387897960049E-29, -3.491481338843145188E-15, -1.000000000000000000 ) ) ;
#290 = CARTESIAN_POINT ( 'NONE',  ( 4.890937612370284544E-31, -6.982962677686307633E-17, -0.02000000000000004552 ) ) ;
#291 = ORIENTED_EDGE ( 'NONE', *, *, #213, .F. ) ;
#292 = CARTESIAN_POINT ( 'NONE',  ( 1.023709465628232683E-27, -1.461585805796399817E-13, -41.86148124396609660 ) ) ;
#293 = CARTESIAN_POINT ( 'NONE',  ( 0.1630499999999999727, -6.375794072861463825E-15, -1.500000000000000222 ) ) ;
#294 = APPROVAL_PERSON_ORGANIZATION ( #99, #263, #390 ) ;
#295 = DIRECTION ( 'NONE',  ( 2.445468806185136597E-29, -3.491481338843145583E-15, -1.000000000000000000 ) ) ;
#296 = DIRECTION ( 'NONE',  ( -2.445468806185136597E-29, 3.491481338843145583E-15, 1.000000000000000000 ) ) ;
#297 = ORIENTED_EDGE ( 'NONE', *, *, #61, .F. ) ;
#298 = PRODUCT_RELATED_PRODUCT_CATEGORY ( 'detail', '', ( #152 ) ) ;
#299 = LINE ( 'NONE', #40, #185 ) ;
#300 = CC_DESIGN_SECURITY_CLASSIFICATION ( #118, ( #78 ) ) ;
#301 = EDGE_CURVE ( 'NONE', #65, #234, #274, .T. ) ;
#302 = UNCERTAINTY_MEASURE_WITH_UNIT (LENGTH_MEASURE( 1.000000000000000082E-05 ), #247, 'distance_accuracy_value', 'NONE');
#303 = VECTOR ( 'NONE', #360, 39.37007874015748143 ) ;
#304 = LOCAL_TIME ( 16, 22, 52.00000000000000000, #186 ) ;
#305 = ADVANCED_FACE ( 'NONE', ( #50 ), #287, .T. ) ;
#306 = LINE ( 'NONE', #73, #87 ) ;
#307 = LOCAL_TIME ( 16, 22, 52.00000000000000000, #319 ) ;
#308 = DATE_AND_TIME ( #183, #304 ) ;
#309 = ORIENTED_EDGE ( 'NONE', *, *, #253, .T. ) ;
#310 = DIRECTION ( 'NONE',  ( -2.445468806185136877E-29, 3.491481338843145188E-15, 1.000000000000000000 ) ) ;
#311 = SHAPE_DEFINITION_REPRESENTATION ( #155, #151 ) ;
#312 = ORIENTED_EDGE ( 'NONE', *, *, #224, .T. ) ;
#313 = CARTESIAN_POINT ( 'NONE',  ( -0.1640500000000000014, -5.817317319671846603E-15, -1.500000000000000222 ) ) ;
#314 = CARTESIAN_POINT ( 'NONE',  ( 4.890937612370284544E-31, -6.982962677686307633E-17, -0.02000000000000004552 ) ) ;
#315 = DIRECTION ( 'NONE',  ( -2.445468806185136597E-29, 3.491481338843145583E-15, 1.000000000000000000 ) ) ;
#316 = LOCAL_TIME ( 16, 22, 52.00000000000000000, #133 ) ;
#317 = ADVANCED_FACE ( 'NONE', ( #208 ), #124, .T. ) ;
#318 = CARTESIAN_POINT ( 'NONE',  ( 1.023709465628232683E-27, -1.461585805796399817E-13, -41.86148124396609660 ) ) ;
#319 = COORDINATED_UNIVERSAL_TIME_OFFSET ( 5, 0, .BEHIND. ) ;
#320 = FACE_OUTER_BOUND ( 'NONE', #283, .T. ) ;
#321 = CARTESIAN_POINT ( 'NONE',  ( -0.1640499999999998071, -7.583148319833432491E-15, -2.500000000000000000 ) ) ;
#322 = VERTEX_POINT ( 'NONE', #132 ) ;
#323 = CARTESIAN_POINT ( 'NONE',  ( -0.1640499999999998071, 1.075725400497567773E-15, -0.02000000000000004552 ) ) ;
#324 = CLOSED_SHELL ( 'NONE', ( #317, #281, #200, #119, #86, #147, #173, #190 ) ) ;
#325 = VERTEX_POINT ( 'NONE', #93 ) ;
#326 = ORIENTED_EDGE ( 'NONE', *, *, #301, .T. ) ;
#327 = AXIS2_PLACEMENT_3D ( 'NONE', #13, #56, #365 ) ;
#328 = MECHANICAL_CONTEXT ( 'NONE', #204, 'mechanical' ) ;
#329 = DIRECTION ( 'NONE',  ( -2.445468806185136597E-29, 3.491481338843145583E-15, 1.000000000000000000 ) ) ;
#330 = EDGE_CURVE ( 'NONE', #25, #325, #187, .T. ) ;
#331 = FACE_OUTER_BOUND ( 'NONE', #159, .T. ) ;
#332 = DIRECTION ( 'NONE',  ( -2.445468806185136597E-29, 3.491481338843145583E-15, 1.000000000000000000 ) ) ;
#333 = APPROVAL_DATE_TIME ( #79, #263 ) ;
#334 = DIRECTION ( 'NONE',  ( -2.445468806185136597E-29, 3.491481338843145583E-15, 1.000000000000000000 ) ) ;
#335 = ORIENTED_EDGE ( 'NONE', *, *, #182, .F. ) ;
#336 = DIRECTION ( 'NONE',  ( -0.7071067811865465735, 2.468850131082246805E-15, -0.7071067811865484609 ) ) ;
#337 = ADVANCED_FACE ( 'NONE', ( #75 ), #346, .F. ) ;
#338 = CARTESIAN_POINT ( 'NONE',  ( 3.668203209277704895E-29, -5.237222008264718177E-15, -1.500000000000000222 ) ) ;
#339 = CALENDAR_DATE ( 2023, 21, 3 ) ;
#340 = PERSON_AND_ORGANIZATION ( #351, #158 ) ;
#341 = FACE_OUTER_BOUND ( 'NONE', #368, .T. ) ;
#342 = DIRECTION ( 'NONE',  ( 2.438088387897960049E-29, -3.491481338843145188E-15, -1.000000000000000000 ) ) ;
#343 = CIRCLE ( 'NONE', #327, 0.1640500000000000014 ) ;
#344 = CIRCLE ( 'NONE', #33, 0.1640499999999998071 ) ;
#345 = ORIENTED_EDGE ( 'NONE', *, *, #213, .T. ) ;
#346 = CONICAL_SURFACE ( 'NONE', #228, 751.2258538476644389, 1.518436449235073482 ) ;
#347 = DIRECTION ( 'NONE',  ( -2.445468806185136597E-29, 3.491481338843145583E-15, 1.000000000000000000 ) ) ;
#348 = VERTEX_POINT ( 'NONE', #323 ) ;
#349 = PERSON_AND_ORGANIZATION_ROLE ( 'design_supplier' ) ;
#350 = ORIENTED_EDGE ( 'NONE', *, *, #14, .T. ) ;
#351 = PERSON ( 'UNSPECIFIED', 'UNSPECIFIED', 'UNSPECIFIED', ('UNSPECIFIED'), ('UNSPECIFIED'), ('UNSPECIFIED') ) ;
#352 = EDGE_CURVE ( 'NONE', #325, #25, #20, .T. ) ;
#353 = CARTESIAN_POINT ( 'NONE',  ( 0.000000000000000000, 0.000000000000000000, 0.000000000000000000 ) ) ;
#354 = VECTOR ( 'NONE', #375, 39.37007874015748143 ) ;
#355 = AXIS2_PLACEMENT_3D ( 'NONE', #125, #347, #165 ) ;
#356 = ORIENTED_EDGE ( 'NONE', *, *, #59, .T. ) ;
#357 = PRODUCT_DEFINITION ( 'UNKNOWN', '', #78, #378 ) ;
#358 = CALENDAR_DATE ( 2023, 21, 3 ) ;
#359 = CARTESIAN_POINT ( 'NONE',  ( 0.000000000000000000, 0.000000000000000000, 0.000000000000000000 ) ) ;
#360 = DIRECTION ( 'NONE',  ( -0.9986295347545742773, 6.790662755453666100E-15, -0.05233595624293709697 ) ) ;
#361 =( NAMED_UNIT ( * ) PLANE_ANGLE_UNIT ( ) SI_UNIT ( $, .RADIAN. ) );
#362 = VERTEX_POINT ( 'NONE', #321 ) ;
#363 = DIRECTION ( 'NONE',  ( -2.445468806185136597E-29, 3.491481338843145583E-15, 1.000000000000000000 ) ) ;
#364 = AXIS2_PLACEMENT_3D ( 'NONE', #353, #84, #203 ) ;
#365 = DIRECTION ( 'NONE',  ( 1.000000000000000000, -6.982962677686270655E-15, 0.000000000000000000 ) ) ;
#366 = PERSON_AND_ORGANIZATION ( #351, #158 ) ;
#367 = PLANE ( 'NONE',  #92 ) ;
#368 = EDGE_LOOP ( 'NONE', ( #335, #356, #21, #377 ) ) ;
#369 = DIRECTION ( 'NONE',  ( -1.000000000000000000, 6.982962677686267499E-15, 0.000000000000000000 ) ) ;
#370 = VECTOR ( 'NONE', #114, 39.37007874015748854 ) ;
#371 = LOCAL_TIME ( 16, 22, 52.00000000000000000, #163 ) ;
#372 = VERTEX_POINT ( 'NONE', #54 ) ;
#373 = DIRECTION ( 'NONE',  ( -1.000000000000000000, 6.982962677686267499E-15, 0.000000000000000000 ) ) ;
#374 = ORIENTED_EDGE ( 'NONE', *, *, #14, .F. ) ;
#375 = DIRECTION ( 'NONE',  ( -2.445468806185136877E-29, 3.491481338843145188E-15, 1.000000000000000000 ) ) ;
#376 = ORIENTED_EDGE ( 'NONE', *, *, #282, .T. ) ;
#377 = ORIENTED_EDGE ( 'NONE', *, *, #153, .F. ) ;
#378 = DESIGN_CONTEXT ( 'detailed design', #115, 'design' ) ;
#379 = DIRECTION ( 'NONE',  ( 1.000000000000000000, -6.982962677686266711E-15, 4.876176775795935232E-29 ) ) ;
#380 = CARTESIAN_POINT ( 'NONE',  ( 0.000000000000000000, 0.000000000000000000, 0.000000000000000000 ) ) ;
#381 = CC_DESIGN_PERSON_AND_ORGANIZATION_ASSIGNMENT ( #67, #64, ( #357 ) ) ;
#382 = CONICAL_SURFACE ( 'NONE', #46, 751.2258538476644389, 1.518436449235073482 ) ;
#383 = EDGE_CURVE ( 'NONE', #146, #322, #179, .T. ) ;
#384 = AXIS2_PLACEMENT_3D ( 'NONE', #271, #154, #188 ) ;
#385 = AXIS2_PLACEMENT_3D ( 'NONE', #338, #210, #5 ) ;
#386 = CC_DESIGN_APPROVAL ( #263, ( #357 ) ) ;
#387 = APPLICATION_PROTOCOL_DEFINITION ( 'international standard', 'config_control_design', 1994, #115 ) ;
#388 = APPLICATION_PROTOCOL_DEFINITION ( 'international standard', 'config_control_design', 1994, #204 ) ;
#389 = ORIENTED_EDGE ( 'NONE', *, *, #268, .F. ) ;
#390 = APPROVAL_ROLE ( '' ) ;
ENDSEC;
END-ISO-10303-21;
