ISO-10303-21;
HEADER;
FILE_DESCRIPTION (( 'STEP AP203' ),
    '1' );
FILE_NAME ('30372.STEP',
    '2024-02-21T16:37:30',
    ( '' ),
    ( '' ),
    'SwSTEP 2.0',
    'SolidWorks 2023',
    '' );
FILE_SCHEMA (( 'CONFIG_CONTROL_DESIGN' ));
ENDSEC;

DATA;
#1 = ORIENTED_EDGE ( 'NONE', *, *, #187, .T. ) ;
#2 = APPLICATION_CONTEXT ( 'configuration controlled 3d designs of mechanical parts and assemblies' ) ;
#3 = DIRECTION ( 'NONE',  ( -2.446520268099652630E-29, 3.489975585536062903E-15, 1.000000000000000000 ) ) ;
#4 = EDGE_LOOP ( 'NONE', ( #62, #337 ) ) ;
#5 = ORIENTED_EDGE ( 'NONE', *, *, #99, .T. ) ;
#6 = PERSON_AND_ORGANIZATION ( #39, #341 ) ;
#7 = CC_DESIGN_PERSON_AND_ORGANIZATION_ASSIGNMENT ( #390, #105, ( #218 ) ) ;
#8 = CONICAL_SURFACE ( 'NONE', #52, 0.3739999999999999991, 0.7853981633976873100 ) ;
#9 = COORDINATED_UNIVERSAL_TIME_OFFSET ( 5, 0, .BEHIND. ) ;
#10 = CC_DESIGN_APPROVAL ( #31, ( #218 ) ) ;
#11 = DIRECTION ( 'NONE',  ( -2.445468806185136597E-29, 3.491481338843145583E-15, 1.000000000000000000 ) ) ;
#12 = PERSON_AND_ORGANIZATION_ROLE ( 'creator' ) ;
#13 = DIRECTION ( 'NONE',  ( -2.446520268099652630E-29, 3.489975585536062903E-15, 1.000000000000000000 ) ) ;
#14 = DIRECTION ( 'NONE',  ( 1.000000000000000000, -6.982962677686265922E-15, 4.876176775795935793E-29 ) ) ;
#15 = CIRCLE ( 'NONE', #346, 0.3750000000000000555 ) ;
#16 = ADVANCED_FACE ( 'NONE', ( #308 ), #283, .T. ) ;
#17 = ORIENTED_EDGE ( 'NONE', *, *, #157, .T. ) ;
#18 = CALENDAR_DATE ( 2024, 21, 2 ) ;
#19 = CARTESIAN_POINT ( 'NONE',  ( 8.864824422421120163E-29, -1.265661985330640259E-14, -3.624999999999999556 ) ) ;
#20 = FACE_OUTER_BOUND ( 'NONE', #255, .T. ) ;
#21 = PRODUCT ( '30372', '30372', '', ( #299 ) ) ;
#22 = VERTEX_POINT ( 'NONE', #64 ) ;
#23 = DIRECTION ( 'NONE',  ( -2.446520268099652630E-29, 3.489975585536062903E-15, 1.000000000000000000 ) ) ;
#24 = AXIS2_PLACEMENT_3D ( 'NONE', #277, #97, #344 ) ;
#25 = LINE ( 'NONE', #89, #312 ) ;
#26 = AXIS2_PLACEMENT_3D ( 'NONE', #200, #13, #47 ) ;
#27 = EDGE_LOOP ( 'NONE', ( #193, #382, #342, #220 ) ) ;
#28 = DATE_AND_TIME ( #18, #305 ) ;
#29 = DIRECTION ( 'NONE',  ( -2.445468806185136597E-29, 3.491481338843145583E-15, 1.000000000000000000 ) ) ;
#30 = CARTESIAN_POINT ( 'NONE',  ( 2.618611004132438763E-15, 0.3749999999999873990, -3.625000000000000888 ) ) ;
#31 = APPROVAL ( #288, 'UNSPECIFIED' ) ;
#32 = CARTESIAN_POINT ( 'NONE',  ( 8.533704644507233916E-29, -1.313080222144645289E-14, -3.624999999999999556 ) ) ;
#33 = CARTESIAN_POINT ( 'NONE',  ( 8.864824422421120163E-29, -1.265661985330640259E-14, -3.624999999999999556 ) ) ;
#34 = EDGE_CURVE ( 'NONE', #249, #331, #232, .T. ) ;
#35 = VECTOR ( 'NONE', #152, 39.37007874015748143 ) ;
#36 = AXIS2_PLACEMENT_3D ( 'NONE', #183, #130, #310 ) ;
#37 = APPLICATION_CONTEXT ( 'configuration controlled 3d designs of mechanical parts and assemblies' ) ;
#38 = PLANE ( 'NONE',  #254 ) ;
#39 = PERSON ( 'UNSPECIFIED', 'UNSPECIFIED', 'UNSPECIFIED', ('UNSPECIFIED'), ('UNSPECIFIED'), ('UNSPECIFIED') ) ;
#40 = ORIENTED_EDGE ( 'NONE', *, *, #340, .F. ) ;
#41 = LINE ( 'NONE', #161, #313 ) ;
#42 = PRODUCT_DEFINITION ( 'UNKNOWN', '', #158, #335 ) ;
#43 = EDGE_LOOP ( 'NONE', ( #113, #54, #67, #235, #184 ) ) ;
#44 = DATE_TIME_ROLE ( 'classification_date' ) ;
#45 = DIRECTION ( 'NONE',  ( -1.000000000000000000, 6.982962677686266711E-15, -4.883557194083113462E-29 ) ) ;
#46 = CYLINDRICAL_SURFACE ( 'NONE', #347, 0.3750000000000001665 ) ;
#47 = DIRECTION ( 'NONE',  ( -6.982962677686266711E-15, -1.000000000000000000, 2.913971193241878794E-15 ) ) ;
#48 = CALENDAR_DATE ( 2024, 21, 2 ) ;
#49 = DIRECTION ( 'NONE',  ( -4.851104656540959542E-15, -0.7071067811865493491, -0.7071067811865456854 ) ) ;
#50 = DATE_AND_TIME ( #371, #233 ) ;
#51 = CARTESIAN_POINT ( 'NONE',  ( 2.657429831742835431E-15, 0.3739999999999912839, -2.500000000000001332 ) ) ;
#52 = AXIS2_PLACEMENT_3D ( 'NONE', #154, #150, #333 ) ;
#53 = AXIS2_PLACEMENT_3D ( 'NONE', #360, #358, #321 ) ;
#54 = ORIENTED_EDGE ( 'NONE', *, *, #213, .T. ) ;
#55 = CARTESIAN_POINT ( 'NONE',  ( 2.548781377355487113E-15, 0.3549999999999998157, -1.094346450625902330E-15 ) ) ;
#56 = DIRECTION ( 'NONE',  ( -1.000000000000000000, 6.982962677686266711E-15, -4.883557194083113462E-29 ) ) ;
#57 = LENGTH_MEASURE_WITH_UNIT ( LENGTH_MEASURE( 0.02539999999999999897 ), #334 );
#58 = DIRECTION ( 'NONE',  ( -4.937700262165728178E-15, -0.7071067811867141062, 0.7071067811863809283 ) ) ;
#59 = DIRECTION ( 'NONE',  ( -6.982962677686265922E-15, -1.000000000000000000, 3.494488891895536035E-15 ) ) ;
#60 = COORDINATED_UNIVERSAL_TIME_OFFSET ( 5, 0, .BEHIND. ) ;
#61 = DIRECTION ( 'NONE',  ( -7.105427357600999492E-15, -1.000000000000000000, 0.000000000000000000 ) ) ;
#62 = ORIENTED_EDGE ( 'NONE', *, *, #63, .T. ) ;
#63 = EDGE_CURVE ( 'NONE', #301, #263, #181, .T. ) ;
#64 = CARTESIAN_POINT ( 'NONE',  ( 0.3750000000000000555, -1.134731435124021338E-14, -2.500000000000000000 ) ) ;
#65 = DIRECTION ( 'NONE',  ( -2.445468806185136877E-29, 3.491481338843145188E-15, 1.000000000000000000 ) ) ;
#66 = DIRECTION ( 'NONE',  ( 1.000000000000000000, -6.982962677686265922E-15, 4.876176775795935793E-29 ) ) ;
#67 = ORIENTED_EDGE ( 'NONE', *, *, #34, .T. ) ;
#68 = AXIS2_PLACEMENT_3D ( 'NONE', #241, #370, #61 ) ;
#69 = ORIENTED_EDGE ( 'NONE', *, *, #356, .T. ) ;
#70 = CARTESIAN_POINT ( 'NONE',  ( 4.893040536199327191E-31, -6.979951171072154994E-17, -0.02000000000000008715 ) ) ;
#71 = ORIENTED_EDGE ( 'NONE', *, *, #187, .F. ) ;
#72 = ORIENTED_EDGE ( 'NONE', *, *, #160, .T. ) ;
#73 = VERTEX_POINT ( 'NONE', #222 ) ;
#74 = DIRECTION ( 'NONE',  ( 1.000000000000000000, -6.982962677686265922E-15, 0.000000000000000000 ) ) ;
#75 = EDGE_CURVE ( 'NONE', #301, #230, #25, .T. ) ;
#76 = CARTESIAN_POINT ( 'NONE',  ( -2.611628041454602471E-15, -0.3740000000000087699, -2.499999999999999112 ) ) ;
#77 = VERTEX_POINT ( 'NONE', #30 ) ;
#78 = PERSON_AND_ORGANIZATION ( #39, #341 ) ;
#79 = DIRECTION ( 'NONE',  ( 5.024295867789263036E-15, 0.7071067811867189912, 0.7071067811863760433 ) ) ;
#80 = ORIENTED_EDGE ( 'NONE', *, *, #157, .F. ) ;
#81 = APPROVAL_STATUS ( 'not_yet_approved' ) ;
#82 = LINE ( 'NONE', #362, #110 ) ;
#83 = EDGE_CURVE ( 'NONE', #225, #106, #98, .T. ) ;
#84 = AXIS2_PLACEMENT_3D ( 'NONE', #366, #215, #219 ) ;
#85 = CIRCLE ( 'NONE', #251, 0.3739999999999999991 ) ;
#86 = CARTESIAN_POINT ( 'NONE',  ( 6.113672015462842613E-29, -8.728703347107864943E-15, -2.500000000000000000 ) ) ;
#87 = PLANE ( 'NONE',  #381 ) ;
#88 = UNCERTAINTY_MEASURE_WITH_UNIT (LENGTH_MEASURE( 1.000000000000000082E-05 ), #361, 'distance_accuracy_value', 'NONE');
#89 = CARTESIAN_POINT ( 'NONE',  ( 2.618611004132350411E-15, 0.3749999999999999445, -0.02000000000000139513 ) ) ;
#90 = DATE_TIME_ROLE ( 'creation_date' ) ;
#91 = CARTESIAN_POINT ( 'NONE',  ( 0.000000000000000000, 0.000000000000000000, 0.000000000000000000 ) ) ;
#92 = DIRECTION ( 'NONE',  ( 6.982962677686266711E-15, 1.000000000000000000, -2.913971193241878005E-15 ) ) ;
#93 = EDGE_LOOP ( 'NONE', ( #246, #1, #403, #126 ) ) ;
#94 = SPHERICAL_SURFACE ( 'NONE', #228, 0.3750000000000003886 ) ;
#95 = CIRCLE ( 'NONE', #387, 0.3750000000000003886 ) ;
#96 = ORIENTED_EDGE ( 'NONE', *, *, #309, .F. ) ;
#97 = DIRECTION ( 'NONE',  ( 2.446520268099652630E-29, -3.489975585536062903E-15, -1.000000000000000000 ) ) ;
#98 = LINE ( 'NONE', #375, #35 ) ;
#99 = EDGE_CURVE ( 'NONE', #73, #225, #148, .T. ) ;
#100 = EDGE_CURVE ( 'NONE', #106, #230, #15, .T. ) ;
#101 = AXIS2_PLACEMENT_3D ( 'NONE', #19, #118, #240 ) ;
#102 = CC_DESIGN_DATE_AND_TIME_ASSIGNMENT ( #259, #44, ( #218 ) ) ;
#103 = DIRECTION ( 'NONE',  ( -6.982962677686266711E-15, -1.000000000000000000, 3.489975585536063298E-15 ) ) ;
#104 = EDGE_CURVE ( 'NONE', #22, #221, #290, .T. ) ;
#105 = PERSON_AND_ORGANIZATION_ROLE ( 'classification_officer' ) ;
#106 = VERTEX_POINT ( 'NONE', #336 ) ;
#107 = EDGE_CURVE ( 'NONE', #230, #106, #271, .T. ) ;
#108 = AXIS2_PLACEMENT_3D ( 'NONE', #120, #373, #116 ) ;
#109 = APPROVAL_DATE_TIME ( #388, #31 ) ;
#110 = VECTOR ( 'NONE', #49, 39.37007874015748143 ) ;
#111 = SPHERICAL_SURFACE ( 'NONE', #324, 0.3750000000000003886 ) ;
#112 = APPROVAL_DATE_TIME ( #28, #393 ) ;
#113 = ORIENTED_EDGE ( 'NONE', *, *, #132, .F. ) ;
#114 = CARTESIAN_POINT ( 'NONE',  ( 0.000000000000000000, 0.000000000000000000, 0.000000000000000000 ) ) ;
#115 = DIRECTION ( 'NONE',  ( -2.445468806185136597E-29, 3.491481338843145583E-15, 1.000000000000000000 ) ) ;
#116 = DIRECTION ( 'NONE',  ( -6.982962677686266711E-15, -1.000000000000000000, 2.913971193241878794E-15 ) ) ;
#117 =( NAMED_UNIT ( * ) PLANE_ANGLE_UNIT ( ) SI_UNIT ( $, .RADIAN. ) );
#118 = DIRECTION ( 'NONE',  ( -2.445468806185136597E-29, 3.491481338843145583E-15, 1.000000000000000000 ) ) ;
#119 = CIRCLE ( 'NONE', #68, 0.3750000000000003886 ) ;
#120 = CARTESIAN_POINT ( 'NONE',  ( 6.113854149981033181E-29, -8.721448988254622305E-15, -2.499000000000000110 ) ) ;
#121 = APPROVAL_ROLE ( '' ) ;
#122 = DIRECTION ( 'NONE',  ( -2.446520268099652630E-29, 3.489975585536062903E-15, 1.000000000000000000 ) ) ;
#123 = ADVANCED_FACE ( 'NONE', ( #237 ), #8, .T. ) ;
#124 = DIRECTION ( 'NONE',  ( -2.446520268099652630E-29, 3.489975585536062903E-15, 1.000000000000000000 ) ) ;
#125 = VERTEX_POINT ( 'NONE', #182 ) ;
#126 = ORIENTED_EDGE ( 'NONE', *, *, #160, .F. ) ;
#127 = CARTESIAN_POINT ( 'NONE',  ( 4.893040536199327191E-31, -6.979951171072154994E-17, -0.02000000000000008715 ) ) ;
#128 = EDGE_LOOP ( 'NONE', ( #71, #174, #96, #199 ) ) ;
#129 = CLOSED_SHELL ( 'NONE', ( #123, #180, #16, #279, #205, #140, #189, #349 ) ) ;
#130 = DIRECTION ( 'NONE',  ( -2.445468806185136597E-29, 3.491481338843145583E-15, 1.000000000000000000 ) ) ;
#131 = APPROVAL_PERSON_ORGANIZATION ( #162, #31, #260 ) ;
#132 = EDGE_CURVE ( 'NONE', #296, #221, #270, .T. ) ;
#133 = MANIFOLD_SOLID_BREP ( 'Body-Move/Copy2[1]', #329 ) ;
#134 = CIRCLE ( 'NONE', #139, 0.3750000000000000555 ) ;
#135 = DIRECTION ( 'NONE',  ( 2.438088387897960049E-29, -3.491481338843145188E-15, -1.000000000000000000 ) ) ;
#136 = DIRECTION ( 'NONE',  ( -6.982962677686266711E-15, -1.000000000000000000, 3.489975585536062903E-15 ) ) ;
#137 = ADVANCED_FACE ( 'NONE', ( #276 ), #94, .T. ) ;
#138 = VERTEX_POINT ( 'NONE', #405 ) ;
#139 = AXIS2_PLACEMENT_3D ( 'NONE', #395, #115, #151 ) ;
#140 = ADVANCED_FACE ( 'NONE', ( #304 ), #398, .T. ) ;
#141 = FACE_OUTER_BOUND ( 'NONE', #128, .T. ) ;
#142 = AXIS2_PLACEMENT_3D ( 'NONE', #385, #293, #103 ) ;
#143 = CYLINDRICAL_SURFACE ( 'NONE', #330, 0.3750000000000001110 ) ;
#144 = PLANE ( 'NONE',  #53 ) ;
#145 = CARTESIAN_POINT ( 'NONE',  ( 0.000000000000000000, 0.000000000000000000, 0.000000000000000000 ) ) ;
#146 = ORIENTED_EDGE ( 'NONE', *, *, #75, .T. ) ;
#147 = COORDINATED_UNIVERSAL_TIME_OFFSET ( 5, 0, .BEHIND. ) ;
#148 = CIRCLE ( 'NONE', #108, 0.3750000000000002776 ) ;
#149 = CIRCLE ( 'NONE', #101, 0.3750000000000001110 ) ;
#150 = DIRECTION ( 'NONE',  ( -2.446520268099652630E-29, 3.489975585536062903E-15, 1.000000000000000000 ) ) ;
#151 = DIRECTION ( 'NONE',  ( 1.000000000000000000, -6.982962677686264344E-15, 0.000000000000000000 ) ) ;
#152 = DIRECTION ( 'NONE',  ( -2.446520268099652630E-29, 3.489975585536062903E-15, 1.000000000000000000 ) ) ;
#153 = ORIENTED_EDGE ( 'NONE', *, *, #292, .F. ) ;
#154 = CARTESIAN_POINT ( 'NONE',  ( 6.116300670249132557E-29, -8.724938963840157850E-15, -2.500000000000000000 ) ) ;
#155 = AXIS2_PLACEMENT_3D ( 'NONE', #245, #23, #408 ) ;
#156 = CC_DESIGN_APPROVAL ( #267, ( #42 ) ) ;
#157 = EDGE_CURVE ( 'NONE', #138, #258, #223, .T. ) ;
#158 = PRODUCT_DEFINITION_FORMATION_WITH_SPECIFIED_SOURCE ( 'ANY', '', #21, .NOT_KNOWN. ) ;
#159 = FACE_OUTER_BOUND ( 'NONE', #242, .T. ) ;
#160 = EDGE_CURVE ( 'NONE', #77, #296, #386, .T. ) ;
#161 = CARTESIAN_POINT ( 'NONE',  ( 0.3750000000000001110, -2.618611004132350411E-15, 1.828566290923476483E-29 ) ) ;
#162 = PERSON_AND_ORGANIZATION ( #39, #341 ) ;
#163 = DIRECTION ( 'NONE',  ( -2.445468806185136877E-29, 3.491481338843145188E-15, 1.000000000000000000 ) ) ;
#164 = VECTOR ( 'NONE', #122, 39.37007874015748143 ) ;
#165 = CARTESIAN_POINT ( 'NONE',  ( 0.000000000000000000, 0.000000000000000000, 0.000000000000000000 ) ) ;
#166 = CARTESIAN_POINT ( 'NONE',  ( 8.864824422421120163E-29, -1.265661985330640259E-14, -3.624999999999999556 ) ) ;
#167 = LINE ( 'NONE', #51, #319 ) ;
#168 = PRODUCT_DEFINITION_SHAPE ( 'NONE', 'NONE',  #42 ) ;
#169 = AXIS2_PLACEMENT_3D ( 'NONE', #127, #209, #185 ) ;
#170 = EDGE_LOOP ( 'NONE', ( #316, #320, #400, #407 ) ) ;
#171 = APPROVAL_STATUS ( 'not_yet_approved' ) ;
#172 = CIRCLE ( 'NONE', #280, 0.3750000000000001110 ) ;
#173 = CYLINDRICAL_SURFACE ( 'NONE', #284, 0.3750000000000001110 ) ;
#174 = ORIENTED_EDGE ( 'NONE', *, *, #177, .T. ) ;
#175 = DIRECTION ( 'NONE',  ( 0.000000000000000000, 0.000000000000000000, 1.000000000000000000 ) ) ;
#176 = DIRECTION ( 'NONE',  ( -2.445468806185136597E-29, 3.491481338843145583E-15, 1.000000000000000000 ) ) ;
#177 = EDGE_CURVE ( 'NONE', #125, #77, #95, .T. ) ;
#178 = DIRECTION ( 'NONE',  ( 1.000000000000000000, -6.982962677686264344E-15, 0.000000000000000000 ) ) ;
#179 = ORIENTED_EDGE ( 'NONE', *, *, #356, .F. ) ;
#180 = ADVANCED_FACE ( 'NONE', ( #212 ), #339, .T. ) ;
#181 = CIRCLE ( 'NONE', #84, 0.3549999999999998157 ) ;
#182 = CARTESIAN_POINT ( 'NONE',  ( 9.466789814748773816E-29, -1.441714559602862136E-14, -4.000000000000000000 ) ) ;
#183 = CARTESIAN_POINT ( 'NONE',  ( 8.864824422421120163E-29, -1.265661985330640259E-14, -3.624999999999999556 ) ) ;
#184 = ORIENTED_EDGE ( 'NONE', *, *, #325, .F. ) ;
#185 = DIRECTION ( 'NONE',  ( -6.982962677686265922E-15, -1.000000000000000000, 3.494488891895536035E-15 ) ) ;
#186 = VECTOR ( 'NONE', #65, 39.37007874015748143 ) ;
#187 = EDGE_CURVE ( 'NONE', #125, #249, #119, .T. ) ;
#188 = CIRCLE ( 'NONE', #26, 0.3750000000000002776 ) ;
#189 = ADVANCED_FACE ( 'NONE', ( #20 ), #144, .F. ) ;
#190 = FACE_OUTER_BOUND ( 'NONE', #216, .T. ) ;
#191 = ORIENTED_EDGE ( 'NONE', *, *, #282, .F. ) ;
#192 = CARTESIAN_POINT ( 'NONE',  ( 8.533704644507233916E-29, -1.313080222144645289E-14, -3.624999999999999556 ) ) ;
#193 = ORIENTED_EDGE ( 'NONE', *, *, #253, .T. ) ;
#194 = VECTOR ( 'NONE', #58, 39.37007874015748143 ) ;
#195 = SECURITY_CLASSIFICATION_LEVEL ( 'unclassified' ) ;
#196 = DIRECTION ( 'NONE',  ( 2.446520268099652630E-29, -3.489975585536062903E-15, -1.000000000000000000 ) ) ;
#197 = PERSON_AND_ORGANIZATION_ROLE ( 'design_supplier' ) ;
#198 = CARTESIAN_POINT ( 'NONE',  ( 2.618611004132350411E-15, 0.3749999999999999445, -0.02000000000000139513 ) ) ;
#199 = ORIENTED_EDGE ( 'NONE', *, *, #34, .F. ) ;
#200 = CARTESIAN_POINT ( 'NONE',  ( 6.113854149981033181E-29, -8.721448988254622305E-15, -2.499000000000000110 ) ) ;
#201 = FACE_OUTER_BOUND ( 'NONE', #4, .T. ) ;
#202 = ADVANCED_BREP_SHAPE_REPRESENTATION ( '30372', ( #133, #406, #257 ), #359 ) ;
#203 = ORIENTED_EDGE ( 'NONE', *, *, #132, .T. ) ;
#204 = APPLICATION_PROTOCOL_DEFINITION ( 'international standard', 'config_control_design', 1994, #2 ) ;
#205 = ADVANCED_FACE ( 'NONE', ( #159 ), #46, .T. ) ;
#206 = FACE_OUTER_BOUND ( 'NONE', #350, .T. ) ;
#207 = PERSON_AND_ORGANIZATION_ROLE ( 'design_owner' ) ;
#208 = LOCAL_TIME ( 11, 37, 30.00000000000000000, #326 ) ;
#209 = DIRECTION ( 'NONE',  ( -2.446520268099652630E-29, 3.489975585536062903E-15, 1.000000000000000000 ) ) ;
#210 = ORIENTED_EDGE ( 'NONE', *, *, #224, .F. ) ;
#211 =( NAMED_UNIT ( * ) SI_UNIT ( $, .STERADIAN. ) SOLID_ANGLE_UNIT ( ) );
#212 = FACE_OUTER_BOUND ( 'NONE', #27, .T. ) ;
#213 = EDGE_CURVE ( 'NONE', #296, #249, #172, .T. ) ;
#214 = PERSON_AND_ORGANIZATION ( #39, #341 ) ;
#215 = DIRECTION ( 'NONE',  ( -2.446520268099652630E-29, 3.489975585536062903E-15, 1.000000000000000000 ) ) ;
#216 = EDGE_LOOP ( 'NONE', ( #315, #379 ) ) ;
#217 = ORIENTED_EDGE ( 'NONE', *, *, #107, .T. ) ;
#218 = SECURITY_CLASSIFICATION ( '', '', #195 ) ;
#219 = DIRECTION ( 'NONE',  ( -6.982962677686266711E-15, -1.000000000000000000, 3.489975585536063298E-15 ) ) ;
#220 = ORIENTED_EDGE ( 'NONE', *, *, #83, .F. ) ;
#221 = VERTEX_POINT ( 'NONE', #256 ) ;
#222 = CARTESIAN_POINT ( 'NONE',  ( 2.664535259100408040E-15, 0.3749999999999915623, -2.499000000000001442 ) ) ;
#223 = CIRCLE ( 'NONE', #155, 0.3739999999999999991 ) ;
#224 = EDGE_CURVE ( 'NONE', #263, #301, #229, .T. ) ;
#225 = VERTEX_POINT ( 'NONE', #391 ) ;
#226 = SHAPE_DEFINITION_REPRESENTATION ( #168, #202 ) ;
#227 = CARTESIAN_POINT ( 'NONE',  ( -2.504081769186608216E-15, -0.3549999999999998157, 1.383536215104701451E-15 ) ) ;
#228 = AXIS2_PLACEMENT_3D ( 'NONE', #402, #56, #92 ) ;
#229 = CIRCLE ( 'NONE', #142, 0.3549999999999998157 ) ;
#230 = VERTEX_POINT ( 'NONE', #198 ) ;
#231 = DIRECTION ( 'NONE',  ( 6.982962677686265922E-15, 1.000000000000000000, -3.494488891895536035E-15 ) ) ;
#232 = CIRCLE ( 'NONE', #376, 0.3750000000000001110 ) ;
#233 = LOCAL_TIME ( 11, 37, 30.00000000000000000, #394 ) ;
#234 = DIMENSIONAL_EXPONENTS ( 1.000000000000000000, 0.000000000000000000, 0.000000000000000000, 0.000000000000000000, 0.000000000000000000, 0.000000000000000000, 0.000000000000000000 ) ;
#235 = ORIENTED_EDGE ( 'NONE', *, *, #282, .T. ) ;
#236 = CARTESIAN_POINT ( 'NONE',  ( 2.478951750578623420E-15, 0.3549999999999998157, -1.166643891745601913E-15 ) ) ;
#237 = FACE_OUTER_BOUND ( 'NONE', #311, .T. ) ;
#238 = CC_DESIGN_SECURITY_CLASSIFICATION ( #218, ( #158 ) ) ;
#239 = LOCAL_TIME ( 11, 37, 30.00000000000000000, #9 ) ;
#240 = DIRECTION ( 'NONE',  ( 1.000000000000000000, -6.982962677686265922E-15, 0.000000000000000000 ) ) ;
#241 = CARTESIAN_POINT ( 'NONE',  ( 8.533704644507233916E-29, -1.313080222144645289E-14, -3.624999999999999556 ) ) ;
#242 = EDGE_LOOP ( 'NONE', ( #153, #5, #384, #389 ) ) ;
#243 = PERSON_AND_ORGANIZATION_ROLE ( 'creator' ) ;
#244 = DIRECTION ( 'NONE',  ( -2.446520268099652630E-29, 3.489975585536062903E-15, 1.000000000000000000 ) ) ;
#245 = CARTESIAN_POINT ( 'NONE',  ( 6.116300670249132557E-29, -8.724938963840157850E-15, -2.500000000000000000 ) ) ;
#246 = ORIENTED_EDGE ( 'NONE', *, *, #177, .F. ) ;
#247 = LINE ( 'NONE', #76, #194 ) ;
#248 = CARTESIAN_POINT ( 'NONE',  ( -0.3750000000000001110, 2.664535259100376486E-15, -1.844600658845590159E-29 ) ) ;
#249 = VERTEX_POINT ( 'NONE', #355 ) ;
#250 = AXIS2_PLACEMENT_3D ( 'NONE', #86, #176, #178 ) ;
#251 = AXIS2_PLACEMENT_3D ( 'NONE', #289, #244, #269 ) ;
#252 = DIRECTION ( 'NONE',  ( 1.000000000000000000, -6.982962677686265922E-15, 4.883557194083112340E-29 ) ) ;
#253 = EDGE_CURVE ( 'NONE', #225, #73, #188, .T. ) ;
#254 = AXIS2_PLACEMENT_3D ( 'NONE', #411, #135, #383 ) ;
#255 = EDGE_LOOP ( 'NONE', ( #80, #353 ) ) ;
#256 = CARTESIAN_POINT ( 'NONE',  ( -0.3750000000000000555, -8.028126341106755702E-15, -2.500000000000000000 ) ) ;
#257 = AXIS2_PLACEMENT_3D ( 'NONE', #114, #175, #332 ) ;
#258 = VERTEX_POINT ( 'NONE', #295 ) ;
#259 = DATE_AND_TIME ( #297, #208 ) ;
#260 = APPROVAL_ROLE ( '' ) ;
#261 = ADVANCED_FACE ( 'NONE', ( #141 ), #111, .T. ) ;
#262 = EDGE_LOOP ( 'NONE', ( #210, #69, #354, #322 ) ) ;
#263 = VERTEX_POINT ( 'NONE', #227 ) ;
#264 = PERSON_AND_ORGANIZATION ( #39, #341 ) ;
#265 = CARTESIAN_POINT ( 'NONE',  ( -0.3750000000000001110, -8.028126341106758858E-15, -3.624999999999999556 ) ) ;
#266 = DIRECTION ( 'NONE',  ( 1.000000000000000000, -6.982962677686265922E-15, 0.000000000000000000 ) ) ;
#267 = APPROVAL ( #81, 'UNSPECIFIED' ) ;
#268 = APPLICATION_PROTOCOL_DEFINITION ( 'international standard', 'config_control_design', 1994, #37 ) ;
#269 = DIRECTION ( 'NONE',  ( -6.982962677686266711E-15, -1.000000000000000000, 2.921762560068730595E-15 ) ) ;
#270 = LINE ( 'NONE', #248, #186 ) ;
#271 = CIRCLE ( 'NONE', #169, 0.3750000000000000555 ) ;
#272 = PERSON_AND_ORGANIZATION ( #39, #341 ) ;
#273 = CARTESIAN_POINT ( 'NONE',  ( 6.116300670249132557E-29, -8.724938963840157850E-15, -2.500000000000000000 ) ) ;
#274 = ORIENTED_EDGE ( 'NONE', *, *, #253, .F. ) ;
#275 = CC_DESIGN_PERSON_AND_ORGANIZATION_ASSIGNMENT ( #323, #12, ( #158 ) ) ;
#276 = FACE_OUTER_BOUND ( 'NONE', #93, .T. ) ;
#277 = CARTESIAN_POINT ( 'NONE',  ( 4.893040536199327191E-31, -6.979951171072154994E-17, -0.02000000000000008715 ) ) ;
#278 = DIRECTION ( 'NONE',  ( -6.982962677686266711E-15, -1.000000000000000000, 2.921762560068730595E-15 ) ) ;
#279 = ADVANCED_FACE ( 'NONE', ( #351 ), #410, .T. ) ;
#280 = AXIS2_PLACEMENT_3D ( 'NONE', #166, #11, #74 ) ;
#281 = PRODUCT_RELATED_PRODUCT_CATEGORY ( 'detail', '', ( #21 ) ) ;
#282 = EDGE_CURVE ( 'NONE', #331, #22, #41, .T. ) ;
#283 = CONICAL_SURFACE ( 'NONE', #24, 0.3750000000000000555, 0.7853981633974473908 ) ;
#284 = AXIS2_PLACEMENT_3D ( 'NONE', #364, #348, #66 ) ;
#285 = CC_DESIGN_PERSON_AND_ORGANIZATION_ASSIGNMENT ( #272, #243, ( #42 ) ) ;
#286 = ORIENTED_EDGE ( 'NONE', *, *, #63, .F. ) ;
#287 = EDGE_CURVE ( 'NONE', #258, #138, #85, .T. ) ;
#288 = APPROVAL_STATUS ( 'not_yet_approved' ) ;
#289 = CARTESIAN_POINT ( 'NONE',  ( 6.116300670249132557E-29, -8.724938963840157850E-15, -2.500000000000000000 ) ) ;
#290 = CIRCLE ( 'NONE', #250, 0.3750000000000000555 ) ;
#291 = AXIS2_PLACEMENT_3D ( 'NONE', #70, #196, #231 ) ;
#292 = EDGE_CURVE ( 'NONE', #73, #230, #397, .T. ) ;
#293 = DIRECTION ( 'NONE',  ( -2.446520268099652630E-29, 3.489975585536062903E-15, 1.000000000000000000 ) ) ;
#294 = ADVANCED_FACE ( 'NONE', ( #372 ), #143, .T. ) ;
#295 = CARTESIAN_POINT ( 'NONE',  ( 2.660982545421636724E-15, 0.3739999999999912839, -2.500000000000001332 ) ) ;
#296 = VERTEX_POINT ( 'NONE', #265 ) ;
#297 = CALENDAR_DATE ( 2024, 21, 2 ) ;
#298 = APPROVAL_PERSON_ORGANIZATION ( #214, #393, #338 ) ;
#299 = MECHANICAL_CONTEXT ( 'NONE', #2, 'mechanical' ) ;
#300 = DIRECTION ( 'NONE',  ( 2.446520268099652350E-29, -3.489975585536062903E-15, -1.000000000000000000 ) ) ;
#301 = VERTEX_POINT ( 'NONE', #55 ) ;
#302 = DIRECTION ( 'NONE',  ( -2.446520268099652630E-29, 3.489975585536062903E-15, 1.000000000000000000 ) ) ;
#303 = APPROVAL_DATE_TIME ( #368, #267 ) ;
#304 = FACE_OUTER_BOUND ( 'NONE', #170, .T. ) ;
#305 = LOCAL_TIME ( 11, 37, 30.00000000000000000, #60 ) ;
#306 = ORIENTED_EDGE ( 'NONE', *, *, #104, .F. ) ;
#307 = DIRECTION ( 'NONE',  ( -2.446520268099652630E-29, 3.489975585536062903E-15, 1.000000000000000000 ) ) ;
#308 = FACE_OUTER_BOUND ( 'NONE', #262, .T. ) ;
#309 = EDGE_CURVE ( 'NONE', #331, #77, #149, .T. ) ;
#310 = DIRECTION ( 'NONE',  ( 1.000000000000000000, -6.982962677686265922E-15, 0.000000000000000000 ) ) ;
#311 = EDGE_LOOP ( 'NONE', ( #17, #377, #274, #40 ) ) ;
#312 = VECTOR ( 'NONE', #396, 39.37007874015748143 ) ;
#313 = VECTOR ( 'NONE', #163, 39.37007874015748143 ) ;
#314 = CC_DESIGN_PERSON_AND_ORGANIZATION_ASSIGNMENT ( #78, #207, ( #21 ) ) ;
#315 = ORIENTED_EDGE ( 'NONE', *, *, #104, .T. ) ;
#316 = ORIENTED_EDGE ( 'NONE', *, *, #363, .F. ) ;
#317 = CC_DESIGN_PERSON_AND_ORGANIZATION_ASSIGNMENT ( #6, #197, ( #158 ) ) ;
#318 = DIRECTION ( 'NONE',  ( 6.982962677686266711E-15, 1.000000000000000000, -2.913971193241878005E-15 ) ) ;
#319 = VECTOR ( 'NONE', #79, 39.37007874015748143 ) ;
#320 = ORIENTED_EDGE ( 'NONE', *, *, #287, .T. ) ;
#321 = DIRECTION ( 'NONE',  ( -6.982962677686265922E-15, -1.000000000000000000, 3.489975585536062903E-15 ) ) ;
#322 = ORIENTED_EDGE ( 'NONE', *, *, #75, .F. ) ;
#323 = PERSON_AND_ORGANIZATION ( #39, #341 ) ;
#324 = AXIS2_PLACEMENT_3D ( 'NONE', #192, #45, #318 ) ;
#325 = EDGE_CURVE ( 'NONE', #221, #22, #134, .T. ) ;
#326 = COORDINATED_UNIVERSAL_TIME_OFFSET ( 5, 0, .BEHIND. ) ;
#327 = DIRECTION ( 'NONE',  ( 6.982962677686265922E-15, 1.000000000000000000, -3.489975585536062903E-15 ) ) ;
#328 = CALENDAR_DATE ( 2024, 21, 2 ) ;
#329 = CLOSED_SHELL ( 'NONE', ( #374, #137, #261, #412, #294 ) ) ;
#330 = AXIS2_PLACEMENT_3D ( 'NONE', #91, #29, #14 ) ;
#331 = VERTEX_POINT ( 'NONE', #369 ) ;
#332 = DIRECTION ( 'NONE',  ( 1.000000000000000000, 0.000000000000000000, 0.000000000000000000 ) ) ;
#333 = DIRECTION ( 'NONE',  ( -6.982962677686266711E-15, -1.000000000000000000, 2.921762560068730595E-15 ) ) ;
#334 =( LENGTH_UNIT ( ) NAMED_UNIT ( * ) SI_UNIT ( $, .METRE. ) );
#335 = DESIGN_CONTEXT ( 'detailed design', #37, 'design' ) ;
#336 = CARTESIAN_POINT ( 'NONE',  ( -2.572686749164323547E-15, -0.3750000000000001110, -0.01999999999999877570 ) ) ;
#337 = ORIENTED_EDGE ( 'NONE', *, *, #224, .T. ) ;
#338 = APPROVAL_ROLE ( '' ) ;
#339 = CYLINDRICAL_SURFACE ( 'NONE', #367, 0.3750000000000001665 ) ;
#340 = EDGE_CURVE ( 'NONE', #138, #225, #247, .T. ) ;
#341 = ORGANIZATION ( 'UNSPECIFIED', 'UNSPECIFIED', '' ) ;
#342 = ORIENTED_EDGE ( 'NONE', *, *, #100, .F. ) ;
#343 = CARTESIAN_POINT ( 'NONE',  ( 4.893040536199327191E-31, -6.979951171072154994E-17, -0.02000000000000008715 ) ) ;
#344 = DIRECTION ( 'NONE',  ( 6.982962677686265922E-15, 1.000000000000000000, -3.494488891895536035E-15 ) ) ;
#345 = DIRECTION ( 'NONE',  ( -6.982962677686266711E-15, -1.000000000000000000, 3.489975585536062903E-15 ) ) ;
#346 = AXIS2_PLACEMENT_3D ( 'NONE', #343, #124, #59 ) ;
#347 = AXIS2_PLACEMENT_3D ( 'NONE', #165, #3, #136 ) ;
#348 = DIRECTION ( 'NONE',  ( -2.445468806185136597E-29, 3.491481338843145583E-15, 1.000000000000000000 ) ) ;
#349 = ADVANCED_FACE ( 'NONE', ( #201 ), #87, .F. ) ;
#350 = EDGE_LOOP ( 'NONE', ( #72, #203, #306, #191, #357 ) ) ;
#351 = FACE_OUTER_BOUND ( 'NONE', #404, .T. ) ;
#352 = APPROVAL_PERSON_ORGANIZATION ( #264, #267, #121 ) ;
#353 = ORIENTED_EDGE ( 'NONE', *, *, #287, .F. ) ;
#354 = ORIENTED_EDGE ( 'NONE', *, *, #100, .T. ) ;
#355 = CARTESIAN_POINT ( 'NONE',  ( -2.664535259100290106E-15, -0.3750000000000131006, -3.624999999999998668 ) ) ;
#356 = EDGE_CURVE ( 'NONE', #263, #106, #82, .T. ) ;
#357 = ORIENTED_EDGE ( 'NONE', *, *, #309, .T. ) ;
#358 = DIRECTION ( 'NONE',  ( -2.446520268099652350E-29, 3.489975585536062903E-15, 1.000000000000000000 ) ) ;
#359 =( GEOMETRIC_REPRESENTATION_CONTEXT ( 3 ) GLOBAL_UNCERTAINTY_ASSIGNED_CONTEXT ( ( #88 ) ) GLOBAL_UNIT_ASSIGNED_CONTEXT ( ( #361, #117, #211 ) ) REPRESENTATION_CONTEXT ( 'NONE', 'WORKASPACE' ) );
#360 = CARTESIAN_POINT ( 'NONE',  ( 6.116300670249132557E-29, -8.724938963840157850E-15, -2.500000000000000000 ) ) ;
#361 =( CONVERSION_BASED_UNIT ( 'INCH', #57 ) LENGTH_UNIT ( ) NAMED_UNIT ( #234 ) );
#362 = CARTESIAN_POINT ( 'NONE',  ( -2.572686749164323547E-15, -0.3750000000000001110, -0.01999999999999877570 ) ) ;
#363 = EDGE_CURVE ( 'NONE', #258, #73, #167, .T. ) ;
#364 = CARTESIAN_POINT ( 'NONE',  ( 0.000000000000000000, 0.000000000000000000, 0.000000000000000000 ) ) ;
#365 = AXIS2_PLACEMENT_3D ( 'NONE', #273, #302, #278 ) ;
#366 = CARTESIAN_POINT ( 'NONE',  ( -3.537543100621736688E-45, 5.046326088089666349E-31, 1.445948822393996099E-16 ) ) ;
#367 = AXIS2_PLACEMENT_3D ( 'NONE', #145, #307, #345 ) ;
#368 = DATE_AND_TIME ( #328, #378 ) ;
#369 = CARTESIAN_POINT ( 'NONE',  ( 0.3750000000000001110, -1.331127260433948773E-14, -3.624999999999999556 ) ) ;
#370 = DIRECTION ( 'NONE',  ( -1.000000000000000000, 7.105427357601001070E-15, -4.926315508542082329E-29 ) ) ;
#371 = CALENDAR_DATE ( 2024, 21, 2 ) ;
#372 = FACE_OUTER_BOUND ( 'NONE', #43, .T. ) ;
#373 = DIRECTION ( 'NONE',  ( -2.446520268099652630E-29, 3.489975585536062903E-15, 1.000000000000000000 ) ) ;
#374 = ADVANCED_FACE ( 'NONE', ( #206 ), #173, .T. ) ;
#375 = CARTESIAN_POINT ( 'NONE',  ( -2.618611004132351200E-15, -0.3750000000000001665, 1.308740844576024230E-15 ) ) ;
#376 = AXIS2_PLACEMENT_3D ( 'NONE', #33, #399, #266 ) ;
#377 = ORIENTED_EDGE ( 'NONE', *, *, #363, .T. ) ;
#378 = LOCAL_TIME ( 11, 37, 30.00000000000000000, #147 ) ;
#379 = ORIENTED_EDGE ( 'NONE', *, *, #325, .T. ) ;
#380 = DIRECTION ( 'NONE',  ( 6.982962677686265922E-15, 1.000000000000000000, 0.000000000000000000 ) ) ;
#381 = AXIS2_PLACEMENT_3D ( 'NONE', #236, #300, #327 ) ;
#382 = ORIENTED_EDGE ( 'NONE', *, *, #292, .T. ) ;
#383 = DIRECTION ( 'NONE',  ( -1.000000000000000000, 6.982962677686265922E-15, -4.876176775795935793E-29 ) ) ;
#384 = ORIENTED_EDGE ( 'NONE', *, *, #83, .T. ) ;
#385 = CARTESIAN_POINT ( 'NONE',  ( -3.537543100621736688E-45, 5.046326088089666349E-31, 1.445948822393996099E-16 ) ) ;
#386 = CIRCLE ( 'NONE', #36, 0.3750000000000001110 ) ;
#387 = AXIS2_PLACEMENT_3D ( 'NONE', #32, #252, #380 ) ;
#388 = DATE_AND_TIME ( #48, #239 ) ;
#389 = ORIENTED_EDGE ( 'NONE', *, *, #107, .F. ) ;
#390 = PERSON_AND_ORGANIZATION ( #39, #341 ) ;
#391 = CARTESIAN_POINT ( 'NONE',  ( -2.618611004132290852E-15, -0.3750000000000090483, -2.498999999999999222 ) ) ;
#392 = CC_DESIGN_APPROVAL ( #393, ( #158 ) ) ;
#393 = APPROVAL ( #171, 'UNSPECIFIED' ) ;
#394 = COORDINATED_UNIVERSAL_TIME_OFFSET ( 5, 0, .BEHIND. ) ;
#395 = CARTESIAN_POINT ( 'NONE',  ( 6.113672015462842613E-29, -8.728703347107864943E-15, -2.500000000000000000 ) ) ;
#396 = DIRECTION ( 'NONE',  ( 4.937700262164543309E-15, 0.7071067811865444641, -0.7071067811865505703 ) ) ;
#397 = LINE ( 'NONE', #401, #164 ) ;
#398 = CONICAL_SURFACE ( 'NONE', #365, 0.3739999999999999991, 0.7853981633976873100 ) ;
#399 = DIRECTION ( 'NONE',  ( -2.445468806185136597E-29, 3.491481338843145583E-15, 1.000000000000000000 ) ) ;
#400 = ORIENTED_EDGE ( 'NONE', *, *, #340, .T. ) ;
#401 = CARTESIAN_POINT ( 'NONE',  ( 2.664535259100376486E-15, 0.3750000000000001665, -1.308740844576024230E-15 ) ) ;
#402 = CARTESIAN_POINT ( 'NONE',  ( 8.533704644507233916E-29, -1.313080222144645289E-14, -3.624999999999999556 ) ) ;
#403 = ORIENTED_EDGE ( 'NONE', *, *, #213, .F. ) ;
#404 = EDGE_LOOP ( 'NONE', ( #179, #286, #146, #217 ) ) ;
#405 = CARTESIAN_POINT ( 'NONE',  ( -2.611628041454602471E-15, -0.3740000000000087699, -2.499999999999999112 ) ) ;
#406 = MANIFOLD_SOLID_BREP ( 'Body-Move/Copy2[2]', #129 ) ;
#407 = ORIENTED_EDGE ( 'NONE', *, *, #99, .F. ) ;
#408 = DIRECTION ( 'NONE',  ( -6.982962677686266711E-15, -1.000000000000000000, 2.921762560068730595E-15 ) ) ;
#409 = CC_DESIGN_DATE_AND_TIME_ASSIGNMENT ( #50, #90, ( #42 ) ) ;
#410 = CONICAL_SURFACE ( 'NONE', #291, 0.3750000000000000555, 0.7853981633974473908 ) ;
#411 = CARTESIAN_POINT ( 'NONE',  ( 2.618611004132411153E-15, 0.3749999999999912847, -2.500000000000001332 ) ) ;
#412 = ADVANCED_FACE ( 'NONE', ( #190 ), #38, .F. ) ;
ENDSEC;
END-ISO-10303-21;
