ISO-10303-21;
HEADER;
FILE_DESCRIPTION (( 'STEP AP203' ),
    '1' );
FILE_NAME ('31309.STEP',
    '2024-02-27T13:01:27',
    ( '' ),
    ( '' ),
    'SwSTEP 2.0',
    'SolidWorks 2023',
    '' );
FILE_SCHEMA (( 'CONFIG_CONTROL_DESIGN' ));
ENDSEC;

DATA;
#1 = CARTESIAN_POINT ( 'NONE',  ( 0.000000000000000000, 0.000000000000000000, 0.000000000000000000 ) ) ;
#2 = CARTESIAN_POINT ( 'NONE',  ( 0.1249999999999998335, -9.273918764983031658E-16, -0.02000000000000002470 ) ) ;
#3 = ADVANCED_FACE ( 'NONE', ( #74 ), #191, .T. ) ;
#4 = ORIENTED_EDGE ( 'NONE', *, *, #214, .T. ) ;
#5 = DATE_AND_TIME ( #347, #186 ) ;
#6 = DIRECTION ( 'NONE',  ( 1.000000000000000000, -6.982962677686270655E-15, 0.000000000000000000 ) ) ;
#7 = DATE_AND_TIME ( #92, #18 ) ;
#8 = CARTESIAN_POINT ( 'NONE',  ( 4.890937612370273194E-29, -6.982962677686291165E-15, -2.000000000000000000 ) ) ;
#9 = CIRCLE ( 'NONE', #98, 0.1250000000000000000 ) ;
#10 = APPLICATION_CONTEXT ( 'configuration controlled 3d designs of mechanical parts and assemblies' ) ;
#11 = ORIENTED_EDGE ( 'NONE', *, *, #113, .T. ) ;
#12 = CC_DESIGN_DATE_AND_TIME_ASSIGNMENT ( #52, #51, ( #170 ) ) ;
#13 = DIRECTION ( 'NONE',  ( -2.445468806185136597E-29, 3.491481338843145583E-15, 1.000000000000000000 ) ) ;
#14 = AXIS2_PLACEMENT_3D ( 'NONE', #268, #127, #237 ) ;
#15 = CARTESIAN_POINT ( 'NONE',  ( 3.668203209277704895E-29, -5.237222008264718177E-15, -1.500000000000000222 ) ) ;
#16 = DIRECTION ( 'NONE',  ( -2.445468806185136597E-29, 3.491481338843145583E-15, 1.000000000000000000 ) ) ;
#17 =( NAMED_UNIT ( * ) SI_UNIT ( $, .STERADIAN. ) SOLID_ANGLE_UNIT ( ) );
#18 = LOCAL_TIME ( 8, 1, 27.00000000000000000, #344 ) ;
#19 = CARTESIAN_POINT ( 'NONE',  ( 4.890937612370279289E-31, -6.982962677686299005E-17, -0.02000000000000002470 ) ) ;
#20 = APPROVAL ( #194, 'UNSPECIFIED' ) ;
#21 = MANIFOLD_SOLID_BREP ( 'Body-Move/Copy2[1]', #326 ) ;
#22 = PERSON_AND_ORGANIZATION_ROLE ( 'design_supplier' ) ;
#23 = DIRECTION ( 'NONE',  ( 2.438088387897960049E-29, -3.491481338843145188E-15, -1.000000000000000000 ) ) ;
#24 = ADVANCED_FACE ( 'NONE', ( #108 ), #77, .T. ) ;
#25 = DIRECTION ( 'NONE',  ( 1.000000000000000000, -6.982962677686266711E-15, 4.876176775795935793E-29 ) ) ;
#26 = ORIENTED_EDGE ( 'NONE', *, *, #35, .F. ) ;
#27 = CARTESIAN_POINT ( 'NONE',  ( 0.000000000000000000, 0.000000000000000000, 0.000000000000000000 ) ) ;
#28 = DIRECTION ( 'NONE',  ( 0.000000000000000000, 0.000000000000000000, 1.000000000000000000 ) ) ;
#29 = VECTOR ( 'NONE', #254, 39.37007874015748143 ) ;
#30 =( GEOMETRIC_REPRESENTATION_CONTEXT ( 3 ) GLOBAL_UNCERTAINTY_ASSIGNED_CONTEXT ( ( #330 ) ) GLOBAL_UNIT_ASSIGNED_CONTEXT ( ( #242, #76, #17 ) ) REPRESENTATION_CONTEXT ( 'NONE', 'WORKASPACE' ) );
#31 = EDGE_LOOP ( 'NONE', ( #366, #238, #314, #289 ) ) ;
#32 = DESIGN_CONTEXT ( 'detailed design', #10, 'design' ) ;
#33 = ORIENTED_EDGE ( 'NONE', *, *, #68, .F. ) ;
#34 = MANIFOLD_SOLID_BREP ( 'Body-Move/Copy2[2]', #154 ) ;
#35 = EDGE_CURVE ( 'NONE', #72, #323, #218, .T. ) ;
#36 = VECTOR ( 'NONE', #230, 39.37007874015748143 ) ;
#37 = LOCAL_TIME ( 8, 1, 27.00000000000000000, #249 ) ;
#38 = ORIENTED_EDGE ( 'NONE', *, *, #349, .F. ) ;
#39 = CARTESIAN_POINT ( 'NONE',  ( 0.1239999999999999991, -6.103109380297816290E-15, -1.500000000000000222 ) ) ;
#40 = CARTESIAN_POINT ( 'NONE',  ( 3.668203209277704895E-29, -5.237222008264718177E-15, -1.500000000000000222 ) ) ;
#41 = CARTESIAN_POINT ( 'NONE',  ( 3.665757740471518732E-29, -5.233730526925875170E-15, -1.498999999999999666 ) ) ;
#42 = CIRCLE ( 'NONE', #350, 0.1249999999999998335 ) ;
#43 = EDGE_CURVE ( 'NONE', #101, #72, #201, .T. ) ;
#44 = CIRCLE ( 'NONE', #354, 0.1049999999999998573 ) ;
#45 = FACE_OUTER_BOUND ( 'NONE', #31, .T. ) ;
#46 = FACE_OUTER_BOUND ( 'NONE', #266, .T. ) ;
#47 = PLANE ( 'NONE',  #50 ) ;
#48 = EDGE_CURVE ( 'NONE', #258, #175, #365, .T. ) ;
#49 = DIRECTION ( 'NONE',  ( 1.000000000000000000, -6.982962677686266711E-15, 4.876176775795935793E-29 ) ) ;
#50 = AXIS2_PLACEMENT_3D ( 'NONE', #355, #168, #301 ) ;
#51 = DATE_TIME_ROLE ( 'creation_date' ) ;
#52 = DATE_AND_TIME ( #180, #278 ) ;
#53 = LINE ( 'NONE', #342, #29 ) ;
#54 = EDGE_LOOP ( 'NONE', ( #275, #179 ) ) ;
#55 = COORDINATED_UNIVERSAL_TIME_OFFSET ( 5, 0, .BEHIND. ) ;
#56 = DIRECTION ( 'NONE',  ( -2.445468806185136597E-29, 3.491481338843145583E-15, 1.000000000000000000 ) ) ;
#57 = CIRCLE ( 'NONE', #272, 0.1250000000000000000 ) ;
#58 = CONICAL_SURFACE ( 'NONE', #143, 0.1249999999999998335, 0.7853981633974471688 ) ;
#59 = PERSON_AND_ORGANIZATION ( #309, #211 ) ;
#60 = CARTESIAN_POINT ( 'NONE',  ( 8.728703347108198236E-16, 0.1249999999999947542, -1.500000000000000444 ) ) ;
#61 = CALENDAR_DATE ( 2024, 27, 2 ) ;
#62 = CARTESIAN_POINT ( 'NONE',  ( 0.1250000000000000000, -7.855833012397075293E-15, -2.000000000000000000 ) ) ;
#63 = EDGE_LOOP ( 'NONE', ( #336, #4 ) ) ;
#64 = CARTESIAN_POINT ( 'NONE',  ( -0.1250000000000000000, 8.881784197001252323E-16, -6.148668862818632227E-30 ) ) ;
#65 = CC_DESIGN_PERSON_AND_ORGANIZATION_ASSIGNMENT ( #256, #281, ( #112 ) ) ;
#66 = VECTOR ( 'NONE', #100, 39.37007874015748143 ) ;
#67 = ORIENTED_EDGE ( 'NONE', *, *, #78, .T. ) ;
#68 = EDGE_CURVE ( 'NONE', #173, #150, #57, .T. ) ;
#69 = DIRECTION ( 'NONE',  ( 1.000000000000000000, -6.982962677686270655E-15, 0.000000000000000000 ) ) ;
#70 = VECTOR ( 'NONE', #277, 39.37007874015748143 ) ;
#71 = VERTEX_POINT ( 'NONE', #221 ) ;
#72 = VERTEX_POINT ( 'NONE', #119 ) ;
#73 = DIRECTION ( 'NONE',  ( -1.000000000000000000, 6.982962677686266711E-15, 0.000000000000000000 ) ) ;
#74 = FACE_OUTER_BOUND ( 'NONE', #114, .T. ) ;
#75 = PRODUCT_DEFINITION_FORMATION_WITH_SPECIFIED_SOURCE ( 'ANY', '', #112, .NOT_KNOWN. ) ;
#76 =( NAMED_UNIT ( * ) PLANE_ANGLE_UNIT ( ) SI_UNIT ( $, .RADIAN. ) );
#77 = CYLINDRICAL_SURFACE ( 'NONE', #353, 0.1249999999999999167 ) ;
#78 = EDGE_CURVE ( 'NONE', #150, #318, #174, .T. ) ;
#79 = DIRECTION ( 'NONE',  ( 1.000000000000000000, -6.982962677686270655E-15, 0.000000000000000000 ) ) ;
#80 = DIMENSIONAL_EXPONENTS ( 1.000000000000000000, 0.000000000000000000, 0.000000000000000000, 0.000000000000000000, 0.000000000000000000, 0.000000000000000000, 0.000000000000000000 ) ;
#81 = DIRECTION ( 'NONE',  ( -1.000000000000000000, 6.982962677686266711E-15, 0.000000000000000000 ) ) ;
#82 = CIRCLE ( 'NONE', #161, 0.1250000000000000000 ) ;
#83 = COORDINATED_UNIVERSAL_TIME_OFFSET ( 5, 0, .BEHIND. ) ;
#84 = ORIENTED_EDGE ( 'NONE', *, *, #48, .T. ) ;
#85 = APPROVAL_ROLE ( '' ) ;
#86 = ORIENTED_EDGE ( 'NONE', *, *, #139, .F. ) ;
#87 = FACE_OUTER_BOUND ( 'NONE', #202, .T. ) ;
#88 = CC_DESIGN_PERSON_AND_ORGANIZATION_ASSIGNMENT ( #199, #364, ( #170 ) ) ;
#89 = APPLICATION_PROTOCOL_DEFINITION ( 'international standard', 'config_control_design', 1994, #10 ) ;
#90 = DIRECTION ( 'NONE',  ( -2.445468806185136597E-29, 3.491481338843145583E-15, 1.000000000000000000 ) ) ;
#91 = APPROVAL_PERSON_ORGANIZATION ( #144, #235, #85 ) ;
#92 = CALENDAR_DATE ( 2024, 27, 2 ) ;
#93 = PLANE ( 'NONE',  #345 ) ;
#94 = ORIENTED_EDGE ( 'NONE', *, *, #303, .T. ) ;
#95 = ADVANCED_FACE ( 'NONE', ( #320 ), #124, .T. ) ;
#96 = ORIENTED_EDGE ( 'NONE', *, *, #185, .T. ) ;
#97 = ORIENTED_EDGE ( 'NONE', *, *, #185, .F. ) ;
#98 = AXIS2_PLACEMENT_3D ( 'NONE', #41, #192, #129 ) ;
#99 = ADVANCED_FACE ( 'NONE', ( #87 ), #93, .F. ) ;
#100 = DIRECTION ( 'NONE',  ( 0.7071067811864267805, -2.468850131080992517E-15, 0.7071067811866682540 ) ) ;
#101 = VERTEX_POINT ( 'NONE', #224 ) ;
#102 = CARTESIAN_POINT ( 'NONE',  ( 4.890937612370279289E-31, -6.982962677686299005E-17, -0.02000000000000002470 ) ) ;
#103 = DIRECTION ( 'NONE',  ( 1.000000000000000000, -6.982962677686270655E-15, 0.000000000000000000 ) ) ;
#104 = EDGE_CURVE ( 'NONE', #269, #110, #184, .T. ) ;
#105 = CONICAL_SURFACE ( 'NONE', #215, 0.1249999999999998335, 0.7853981633974471688 ) ;
#106 = DIRECTION ( 'NONE',  ( 1.000000000000000000, -6.982962677686270655E-15, 0.000000000000000000 ) ) ;
#107 = EDGE_LOOP ( 'NONE', ( #152, #131, #84, #263 ) ) ;
#108 = FACE_OUTER_BOUND ( 'NONE', #107, .T. ) ;
#109 = DIRECTION ( 'NONE',  ( -2.445468806185136597E-29, 3.491481338843145583E-15, 1.000000000000000000 ) ) ;
#110 = VERTEX_POINT ( 'NONE', #322 ) ;
#111 = CARTESIAN_POINT ( 'NONE',  ( 4.890937612370279289E-31, -6.982962677686299005E-17, -0.02000000000000002470 ) ) ;
#112 = PRODUCT ( '31309', '31309', '', ( #226 ) ) ;
#113 = EDGE_CURVE ( 'NONE', #110, #175, #53, .T. ) ;
#114 = EDGE_LOOP ( 'NONE', ( #94, #206, #97, #228 ) ) ;
#115 = ORIENTED_EDGE ( 'NONE', *, *, #219, .F. ) ;
#116 = LINE ( 'NONE', #64, #142 ) ;
#117 = EDGE_LOOP ( 'NONE', ( #343, #321, #151, #115 ) ) ;
#118 = PERSON_AND_ORGANIZATION_ROLE ( 'classification_officer' ) ;
#119 = CARTESIAN_POINT ( 'NONE',  ( -0.1239999999999999991, -4.350850561573971550E-15, -1.500000000000000222 ) ) ;
#120 = EDGE_CURVE ( 'NONE', #150, #173, #82, .T. ) ;
#121 = AXIS2_PLACEMENT_3D ( 'NONE', #27, #90, #205 ) ;
#122 = APPROVAL_PERSON_ORGANIZATION ( #140, #20, #177 ) ;
#123 = DATE_AND_TIME ( #61, #324 ) ;
#124 = PLANE ( 'NONE',  #243 ) ;
#125 = ORIENTED_EDGE ( 'NONE', *, *, #120, .F. ) ;
#126 = CC_DESIGN_APPROVAL ( #297, ( #339 ) ) ;
#127 = DIRECTION ( 'NONE',  ( -2.445468806185136597E-29, 3.491481338843145583E-15, 1.000000000000000000 ) ) ;
#128 = CC_DESIGN_DATE_AND_TIME_ASSIGNMENT ( #7, #204, ( #339 ) ) ;
#129 = DIRECTION ( 'NONE',  ( 1.000000000000000000, -6.982962677686270655E-15, 0.000000000000000000 ) ) ;
#130 = AXIS2_PLACEMENT_3D ( 'NONE', #335, #13, #106 ) ;
#131 = ORIENTED_EDGE ( 'NONE', *, *, #349, .T. ) ;
#132 = CARTESIAN_POINT ( 'NONE',  ( 4.890937612370279289E-31, -6.982962677686299005E-17, -0.02000000000000002470 ) ) ;
#133 = DIRECTION ( 'NONE',  ( -2.445468806185136597E-29, 3.491481338843145583E-15, 1.000000000000000000 ) ) ;
#134 = DIRECTION ( 'NONE',  ( 1.000000000000000000, -6.982962677686266711E-15, 4.876176775795935793E-29 ) ) ;
#135 = DIRECTION ( 'NONE',  ( 1.000000000000000000, -6.982962677686270655E-15, 0.000000000000000000 ) ) ;
#136 = FACE_OUTER_BOUND ( 'NONE', #117, .T. ) ;
#137 = PRODUCT_DEFINITION_SHAPE ( 'NONE', 'NONE',  #170 ) ;
#138 = CARTESIAN_POINT ( 'NONE',  ( 0.000000000000000000, 0.000000000000000000, 0.000000000000000000 ) ) ;
#139 = EDGE_CURVE ( 'NONE', #173, #233, #116, .T. ) ;
#140 = PERSON_AND_ORGANIZATION ( #309, #211 ) ;
#141 = CARTESIAN_POINT ( 'NONE',  ( 8.728703347108321496E-16, 0.1249999999999930195, -2.000000000000000444 ) ) ;
#142 = VECTOR ( 'NONE', #182, 39.37007874015748143 ) ;
#143 = AXIS2_PLACEMENT_3D ( 'NONE', #132, #241, #81 ) ;
#144 = PERSON_AND_ORGANIZATION ( #309, #211 ) ;
#145 = FACE_OUTER_BOUND ( 'NONE', #183, .T. ) ;
#146 = ORIENTED_EDGE ( 'NONE', *, *, #332, .T. ) ;
#147 = CARTESIAN_POINT ( 'NONE',  ( 3.668203209277704335E-29, -5.237222008264717388E-15, -1.499999999999999778 ) ) ;
#148 = CALENDAR_DATE ( 2024, 27, 2 ) ;
#149 = DIRECTION ( 'NONE',  ( -1.000000000000000000, 6.982962677686265922E-15, -4.876176775795935793E-29 ) ) ;
#150 = VERTEX_POINT ( 'NONE', #62 ) ;
#151 = ORIENTED_EDGE ( 'NONE', *, *, #303, .F. ) ;
#152 = ORIENTED_EDGE ( 'NONE', *, *, #327, .F. ) ;
#153 = ADVANCED_FACE ( 'NONE', ( #290 ), #181, .F. ) ;
#154 = CLOSED_SHELL ( 'NONE', ( #357, #3, #361, #325, #24, #264, #294, #99 ) ) ;
#155 = CONICAL_SURFACE ( 'NONE', #292, 0.1239999999999999991, 0.7853981633972775267 ) ;
#156 = CARTESIAN_POINT ( 'NONE',  ( -0.1250000000000000000, -5.221913923275378650E-15, -1.499999999999999778 ) ) ;
#157 = ADVANCED_FACE ( 'NONE', ( #145 ), #178, .T. ) ;
#158 = ORIENTED_EDGE ( 'NONE', *, *, #120, .T. ) ;
#159 = CARTESIAN_POINT ( 'NONE',  ( -0.1049999999999998573, 7.681258945454880957E-16, -5.249639473182158869E-30 ) ) ;
#160 = CARTESIAN_POINT ( 'NONE',  ( 0.000000000000000000, 0.000000000000000000, 0.000000000000000000 ) ) ;
#161 = AXIS2_PLACEMENT_3D ( 'NONE', #313, #56, #248 ) ;
#162 = CC_DESIGN_APPROVAL ( #20, ( #170 ) ) ;
#163 = CC_DESIGN_PERSON_AND_ORGANIZATION_ASSIGNMENT ( #229, #118, ( #339 ) ) ;
#164 = DIRECTION ( 'NONE',  ( 2.445468806185136597E-29, -3.491481338843145583E-15, -1.000000000000000000 ) ) ;
#165 = DIRECTION ( 'NONE',  ( -2.445468806185136597E-29, 3.491481338843145583E-15, 1.000000000000000000 ) ) ;
#166 = DIRECTION ( 'NONE',  ( 1.000000000000000000, -6.982962677686266711E-15, 0.000000000000000000 ) ) ;
#167 = CARTESIAN_POINT ( 'NONE',  ( 0.000000000000000000, 0.000000000000000000, 0.000000000000000000 ) ) ;
#168 = DIRECTION ( 'NONE',  ( -2.438088387897960049E-29, 3.491481338843145188E-15, 1.000000000000000000 ) ) ;
#169 = SHAPE_DEFINITION_REPRESENTATION ( #137, #328 ) ;
#170 = PRODUCT_DEFINITION ( 'UNKNOWN', '', #75, #32 ) ;
#171 = APPROVAL_STATUS ( 'not_yet_approved' ) ;
#172 = DIRECTION ( 'NONE',  ( 2.438088387897960049E-29, -3.491481338843145188E-15, -1.000000000000000000 ) ) ;
#173 = VERTEX_POINT ( 'NONE', #362 ) ;
#174 = LINE ( 'NONE', #287, #36 ) ;
#175 = VERTEX_POINT ( 'NONE', #2 ) ;
#176 = AXIS2_PLACEMENT_3D ( 'NONE', #358, #187, #135 ) ;
#177 = APPROVAL_ROLE ( '' ) ;
#178 = CYLINDRICAL_SURFACE ( 'NONE', #251, 0.1250000000000000000 ) ;
#179 = ORIENTED_EDGE ( 'NONE', *, *, #332, .F. ) ;
#180 = CALENDAR_DATE ( 2024, 27, 2 ) ;
#181 = PLANE ( 'NONE',  #363 ) ;
#182 = DIRECTION ( 'NONE',  ( -2.445468806185136877E-29, 3.491481338843145188E-15, 1.000000000000000000 ) ) ;
#183 = EDGE_LOOP ( 'NONE', ( #158, #352, #291, #261 ) ) ;
#184 = CIRCLE ( 'NONE', #121, 0.1049999999999998573 ) ;
#185 = EDGE_CURVE ( 'NONE', #175, #71, #42, .T. ) ;
#186 = LOCAL_TIME ( 8, 1, 27.00000000000000000, #315 ) ;
#187 = DIRECTION ( 'NONE',  ( -2.445468806185136597E-29, 3.491481338843145583E-15, 1.000000000000000000 ) ) ;
#188 = CARTESIAN_POINT ( 'NONE',  ( -0.1249999999999998335, 8.030407079339191532E-16, -0.02000000000000002470 ) ) ;
#189 = CIRCLE ( 'NONE', #284, 0.1250000000000000000 ) ;
#190 = CC_DESIGN_SECURITY_CLASSIFICATION ( #339, ( #75 ) ) ;
#191 = CYLINDRICAL_SURFACE ( 'NONE', #276, 0.1249999999999999167 ) ;
#192 = DIRECTION ( 'NONE',  ( -2.445468806185136597E-29, 3.491481338843145583E-15, 1.000000000000000000 ) ) ;
#193 = CARTESIAN_POINT ( 'NONE',  ( -0.1239999999999999991, -4.356149015922194741E-15, -1.500000000000000222 ) ) ;
#194 = APPROVAL_STATUS ( 'not_yet_approved' ) ;
#195 = CC_DESIGN_PERSON_AND_ORGANIZATION_ASSIGNMENT ( #307, #22, ( #75 ) ) ;
#196 = ORIENTED_EDGE ( 'NONE', *, *, #271, .F. ) ;
#197 = SECURITY_CLASSIFICATION_LEVEL ( 'unclassified' ) ;
#198 = CARTESIAN_POINT ( 'NONE',  ( 3.668203209277704895E-29, -5.237222008264718177E-15, -1.500000000000000222 ) ) ;
#199 = PERSON_AND_ORGANIZATION ( #309, #211 ) ;
#200 = CARTESIAN_POINT ( 'NONE',  ( 0.1249999999999999167, -8.728703347107827472E-16, 6.095220969744915537E-30 ) ) ;
#201 = CIRCLE ( 'NONE', #299, 0.1239999999999999991 ) ;
#202 = EDGE_LOOP ( 'NONE', ( #311, #305 ) ) ;
#203 = AXIS2_PLACEMENT_3D ( 'NONE', #15, #16, #103 ) ;
#204 = DATE_TIME_ROLE ( 'classification_date' ) ;
#205 = DIRECTION ( 'NONE',  ( 1.000000000000000000, -6.982962677686265922E-15, 4.876176775795935232E-29 ) ) ;
#206 = ORIENTED_EDGE ( 'NONE', *, *, #327, .T. ) ;
#207 = DIRECTION ( 'NONE',  ( -2.445468806185136597E-29, 3.491481338843145583E-15, 1.000000000000000000 ) ) ;
#208 = PRODUCT_RELATED_PRODUCT_CATEGORY ( 'detail', '', ( #112 ) ) ;
#209 = ORIENTED_EDGE ( 'NONE', *, *, #351, .F. ) ;
#210 = ORIENTED_EDGE ( 'NONE', *, *, #214, .F. ) ;
#211 = ORGANIZATION ( 'UNSPECIFIED', 'UNSPECIFIED', '' ) ;
#212 = CARTESIAN_POINT ( 'NONE',  ( 0.1250000000000000000, -6.106600861636658508E-15, -1.498999999999999666 ) ) ;
#213 = APPLICATION_CONTEXT ( 'configuration controlled 3d designs of mechanical parts and assemblies' ) ;
#214 = EDGE_CURVE ( 'NONE', #233, #318, #189, .T. ) ;
#215 = AXIS2_PLACEMENT_3D ( 'NONE', #19, #164, #73 ) ;
#216 = DIRECTION ( 'NONE',  ( 1.000000000000000000, -6.982962677686265922E-15, 4.876176775795935232E-29 ) ) ;
#217 = EDGE_LOOP ( 'NONE', ( #125, #33 ) ) ;
#218 = LINE ( 'NONE', #193, #260 ) ;
#219 = EDGE_CURVE ( 'NONE', #101, #258, #296, .T. ) ;
#220 = APPLICATION_PROTOCOL_DEFINITION ( 'international standard', 'config_control_design', 1994, #213 ) ;
#221 = CARTESIAN_POINT ( 'NONE',  ( -0.1249999999999998335, 8.030407079339191532E-16, -0.02000000000000002470 ) ) ;
#222 = CONICAL_SURFACE ( 'NONE', #203, 0.1239999999999999991, 0.7853981633972775267 ) ;
#223 = DATE_AND_TIME ( #148, #37 ) ;
#224 = CARTESIAN_POINT ( 'NONE',  ( 0.1239999999999999991, -6.103109380297816290E-15, -1.500000000000000222 ) ) ;
#225 = CC_DESIGN_PERSON_AND_ORGANIZATION_ASSIGNMENT ( #59, #259, ( #75 ) ) ;
#226 = MECHANICAL_CONTEXT ( 'NONE', #213, 'mechanical' ) ;
#227 = DIRECTION ( 'NONE',  ( -2.445468806185136597E-29, 3.491481338843145583E-15, 1.000000000000000000 ) ) ;
#228 = ORIENTED_EDGE ( 'NONE', *, *, #48, .F. ) ;
#229 = PERSON_AND_ORGANIZATION ( #309, #211 ) ;
#230 = DIRECTION ( 'NONE',  ( -2.445468806185136877E-29, 3.491481338843145188E-15, 1.000000000000000000 ) ) ;
#231 = APPROVAL_DATE_TIME ( #123, #297 ) ;
#232 = DIRECTION ( 'NONE',  ( 2.438088387897960049E-29, -3.491481338843145188E-15, -1.000000000000000000 ) ) ;
#233 = VERTEX_POINT ( 'NONE', #156 ) ;
#234 = AXIS2_PLACEMENT_3D ( 'NONE', #102, #133, #166 ) ;
#235 = APPROVAL ( #171, 'UNSPECIFIED' ) ;
#236 = ORIENTED_EDGE ( 'NONE', *, *, #219, .T. ) ;
#237 = DIRECTION ( 'NONE',  ( 1.000000000000000000, -6.982962677686270655E-15, 0.000000000000000000 ) ) ;
#238 = ORIENTED_EDGE ( 'NONE', *, *, #104, .F. ) ;
#239 = APPROVAL_PERSON_ORGANIZATION ( #286, #297, #312 ) ;
#240 = FACE_OUTER_BOUND ( 'NONE', #255, .T. ) ;
#241 = DIRECTION ( 'NONE',  ( 2.445468806185136597E-29, -3.491481338843145583E-15, -1.000000000000000000 ) ) ;
#242 =( CONVERSION_BASED_UNIT ( 'INCH', #337 ) LENGTH_UNIT ( ) NAMED_UNIT ( #80 ) );
#243 = AXIS2_PLACEMENT_3D ( 'NONE', #141, #172, #285 ) ;
#244 = LINE ( 'NONE', #188, #70 ) ;
#245 = DIRECTION ( 'NONE',  ( -2.445468806185136597E-29, 3.491481338843145583E-15, 1.000000000000000000 ) ) ;
#246 = EDGE_CURVE ( 'NONE', #318, #233, #333, .T. ) ;
#247 =( LENGTH_UNIT ( ) NAMED_UNIT ( * ) SI_UNIT ( $, .METRE. ) );
#248 = DIRECTION ( 'NONE',  ( 1.000000000000000000, -6.982962677686270655E-15, 0.000000000000000000 ) ) ;
#249 = COORDINATED_UNIVERSAL_TIME_OFFSET ( 5, 0, .BEHIND. ) ;
#250 = DIRECTION ( 'NONE',  ( 1.000000000000000000, -6.982962677686270655E-15, 0.000000000000000000 ) ) ;
#251 = AXIS2_PLACEMENT_3D ( 'NONE', #138, #348, #25 ) ;
#252 = CC_DESIGN_APPROVAL ( #235, ( #75 ) ) ;
#253 = ORIENTED_EDGE ( 'NONE', *, *, #68, .T. ) ;
#254 = DIRECTION ( 'NONE',  ( 0.7071067811865466846, -7.319954787623252890E-15, -0.7071067811865483499 ) ) ;
#255 = EDGE_LOOP ( 'NONE', ( #26, #146, #236, #38 ) ) ;
#256 = PERSON_AND_ORGANIZATION ( #309, #211 ) ;
#257 = DIRECTION ( 'NONE',  ( -2.445468806185136597E-29, 3.491481338843145583E-15, 1.000000000000000000 ) ) ;
#258 = VERTEX_POINT ( 'NONE', #212 ) ;
#259 = PERSON_AND_ORGANIZATION_ROLE ( 'creator' ) ;
#260 = VECTOR ( 'NONE', #279, 39.37007874015748143 ) ;
#261 = ORIENTED_EDGE ( 'NONE', *, *, #78, .F. ) ;
#262 = EDGE_CURVE ( 'NONE', #71, #175, #346, .T. ) ;
#263 = ORIENTED_EDGE ( 'NONE', *, *, #262, .F. ) ;
#264 = ADVANCED_FACE ( 'NONE', ( #240 ), #155, .T. ) ;
#265 = DIRECTION ( 'NONE',  ( -2.445468806185136597E-29, 3.491481338843145583E-15, 1.000000000000000000 ) ) ;
#266 = EDGE_LOOP ( 'NONE', ( #209, #11, #96, #196 ) ) ;
#267 = AXIS2_PLACEMENT_3D ( 'NONE', #331, #109, #270 ) ;
#268 = CARTESIAN_POINT ( 'NONE',  ( 3.668203209277704335E-29, -5.237222008264717388E-15, -1.499999999999999778 ) ) ;
#269 = VERTEX_POINT ( 'NONE', #159 ) ;
#270 = DIRECTION ( 'NONE',  ( 1.000000000000000000, -6.982962677686266711E-15, 4.876176775795935793E-29 ) ) ;
#271 = EDGE_CURVE ( 'NONE', #269, #71, #244, .T. ) ;
#272 = AXIS2_PLACEMENT_3D ( 'NONE', #8, #207, #250 ) ;
#273 = DIRECTION ( 'NONE',  ( -2.445468806185136597E-29, 3.491481338843145583E-15, 1.000000000000000000 ) ) ;
#274 = CYLINDRICAL_SURFACE ( 'NONE', #267, 0.1250000000000000000 ) ;
#275 = ORIENTED_EDGE ( 'NONE', *, *, #43, .F. ) ;
#276 = AXIS2_PLACEMENT_3D ( 'NONE', #302, #165, #134 ) ;
#277 = DIRECTION ( 'NONE',  ( -0.7071067811865466846, 2.468850131082247989E-15, -0.7071067811865483499 ) ) ;
#278 = LOCAL_TIME ( 8, 1, 27.00000000000000000, #83 ) ;
#279 = DIRECTION ( 'NONE',  ( -0.7071067811864267805, 7.493145998869918709E-15, 0.7071067811866682540 ) ) ;
#280 = APPROVAL_DATE_TIME ( #5, #235 ) ;
#281 = PERSON_AND_ORGANIZATION_ROLE ( 'design_owner' ) ;
#282 = DIRECTION ( 'NONE',  ( -1.000000000000000000, 6.982962677686265922E-15, -4.876176775795935793E-29 ) ) ;
#283 = VECTOR ( 'NONE', #310, 39.37007874015748143 ) ;
#284 = AXIS2_PLACEMENT_3D ( 'NONE', #147, #265, #69 ) ;
#285 = DIRECTION ( 'NONE',  ( -1.000000000000000000, 6.982962677686265922E-15, -4.876176775795935793E-29 ) ) ;
#286 = PERSON_AND_ORGANIZATION ( #309, #211 ) ;
#287 = CARTESIAN_POINT ( 'NONE',  ( 0.1250000000000000000, -8.728703347107833388E-16, 6.095220969744919741E-30 ) ) ;
#288 = ADVANCED_FACE ( 'NONE', ( #306 ), #274, .T. ) ;
#289 = ORIENTED_EDGE ( 'NONE', *, *, #262, .T. ) ;
#290 = FACE_OUTER_BOUND ( 'NONE', #63, .T. ) ;
#291 = ORIENTED_EDGE ( 'NONE', *, *, #246, .F. ) ;
#292 = AXIS2_PLACEMENT_3D ( 'NONE', #40, #359, #79 ) ;
#293 = EDGE_LOOP ( 'NONE', ( #86, #253, #67, #210 ) ) ;
#294 = ADVANCED_FACE ( 'NONE', ( #356 ), #47, .F. ) ;
#295 = CIRCLE ( 'NONE', #130, 0.1250000000000000000 ) ;
#296 = LINE ( 'NONE', #39, #66 ) ;
#297 = APPROVAL ( #319, 'UNSPECIFIED' ) ;
#298 = LINE ( 'NONE', #360, #308 ) ;
#299 = AXIS2_PLACEMENT_3D ( 'NONE', #198, #257, #6 ) ;
#300 = AXIS2_PLACEMENT_3D ( 'NONE', #1, #28, #341 ) ;
#301 = DIRECTION ( 'NONE',  ( 1.000000000000000000, -6.982962677686265922E-15, 4.876176775795935793E-29 ) ) ;
#302 = CARTESIAN_POINT ( 'NONE',  ( 0.000000000000000000, 0.000000000000000000, 0.000000000000000000 ) ) ;
#303 = EDGE_CURVE ( 'NONE', #258, #323, #295, .T. ) ;
#304 = DIRECTION ( 'NONE',  ( -2.445468806185136877E-29, 3.491481338843145188E-15, 1.000000000000000000 ) ) ;
#305 = ORIENTED_EDGE ( 'NONE', *, *, #351, .T. ) ;
#306 = FACE_OUTER_BOUND ( 'NONE', #293, .T. ) ;
#307 = PERSON_AND_ORGANIZATION ( #309, #211 ) ;
#308 = VECTOR ( 'NONE', #304, 39.37007874015748143 ) ;
#309 = PERSON ( 'UNSPECIFIED', 'UNSPECIFIED', 'UNSPECIFIED', ('UNSPECIFIED'), ('UNSPECIFIED'), ('UNSPECIFIED') ) ;
#310 = DIRECTION ( 'NONE',  ( -2.445468806185136877E-29, 3.491481338843145188E-15, 1.000000000000000000 ) ) ;
#311 = ORIENTED_EDGE ( 'NONE', *, *, #104, .T. ) ;
#312 = APPROVAL_ROLE ( '' ) ;
#313 = CARTESIAN_POINT ( 'NONE',  ( 4.890937612370273194E-29, -6.982962677686291165E-15, -2.000000000000000000 ) ) ;
#314 = ORIENTED_EDGE ( 'NONE', *, *, #271, .T. ) ;
#315 = COORDINATED_UNIVERSAL_TIME_OFFSET ( 5, 0, .BEHIND. ) ;
#316 = DIRECTION ( 'NONE',  ( 1.000000000000000000, -6.982962677686266711E-15, 0.000000000000000000 ) ) ;
#317 = CIRCLE ( 'NONE', #176, 0.1239999999999999991 ) ;
#318 = VERTEX_POINT ( 'NONE', #329 ) ;
#319 = APPROVAL_STATUS ( 'not_yet_approved' ) ;
#320 = FACE_OUTER_BOUND ( 'NONE', #217, .T. ) ;
#321 = ORIENTED_EDGE ( 'NONE', *, *, #35, .T. ) ;
#322 = CARTESIAN_POINT ( 'NONE',  ( 0.1049999999999998573, -8.238720831321564811E-16, 5.444276250344142358E-30 ) ) ;
#323 = VERTEX_POINT ( 'NONE', #334 ) ;
#324 = LOCAL_TIME ( 8, 1, 27.00000000000000000, #55 ) ;
#325 = ADVANCED_FACE ( 'NONE', ( #45 ), #105, .T. ) ;
#326 = CLOSED_SHELL ( 'NONE', ( #157, #95, #153, #288 ) ) ;
#327 = EDGE_CURVE ( 'NONE', #323, #71, #298, .T. ) ;
#328 = ADVANCED_BREP_SHAPE_REPRESENTATION ( '31309', ( #21, #34, #300 ), #30 ) ;
#329 = CARTESIAN_POINT ( 'NONE',  ( 0.1250000000000000000, -6.110092342975501516E-15, -1.499999999999999778 ) ) ;
#330 = UNCERTAINTY_MEASURE_WITH_UNIT (LENGTH_MEASURE( 1.000000000000000082E-05 ), #242, 'distance_accuracy_value', 'NONE');
#331 = CARTESIAN_POINT ( 'NONE',  ( 0.000000000000000000, 0.000000000000000000, 0.000000000000000000 ) ) ;
#332 = EDGE_CURVE ( 'NONE', #72, #101, #317, .T. ) ;
#333 = CIRCLE ( 'NONE', #14, 0.1250000000000000000 ) ;
#334 = CARTESIAN_POINT ( 'NONE',  ( -0.1250000000000000000, -1.763601657151241635E-15, -1.498999999999999666 ) ) ;
#335 = CARTESIAN_POINT ( 'NONE',  ( 3.665757740471518732E-29, -5.233730526925875170E-15, -1.498999999999999666 ) ) ;
#336 = ORIENTED_EDGE ( 'NONE', *, *, #246, .T. ) ;
#337 = LENGTH_MEASURE_WITH_UNIT ( LENGTH_MEASURE( 0.02539999999999999897 ), #247 );
#338 = APPROVAL_DATE_TIME ( #223, #20 ) ;
#339 = SECURITY_CLASSIFICATION ( '', '', #197 ) ;
#340 = CARTESIAN_POINT ( 'NONE',  ( 7.332110811570569396E-16, 0.1049999999999998573, -3.666055405785298010E-16 ) ) ;
#341 = DIRECTION ( 'NONE',  ( 1.000000000000000000, 0.000000000000000000, 0.000000000000000000 ) ) ;
#342 = CARTESIAN_POINT ( 'NONE',  ( 0.1249999999999998335, -9.273918764983031658E-16, -0.02000000000000002470 ) ) ;
#343 = ORIENTED_EDGE ( 'NONE', *, *, #43, .T. ) ;
#344 = COORDINATED_UNIVERSAL_TIME_OFFSET ( 5, 0, .BEHIND. ) ;
#345 = AXIS2_PLACEMENT_3D ( 'NONE', #340, #23, #149 ) ;
#346 = CIRCLE ( 'NONE', #234, 0.1249999999999998335 ) ;
#347 = CALENDAR_DATE ( 2024, 27, 2 ) ;
#348 = DIRECTION ( 'NONE',  ( -2.445468806185136597E-29, 3.491481338843145583E-15, 1.000000000000000000 ) ) ;
#349 = EDGE_CURVE ( 'NONE', #323, #258, #9, .T. ) ;
#350 = AXIS2_PLACEMENT_3D ( 'NONE', #111, #227, #316 ) ;
#351 = EDGE_CURVE ( 'NONE', #110, #269, #44, .T. ) ;
#352 = ORIENTED_EDGE ( 'NONE', *, *, #139, .T. ) ;
#353 = AXIS2_PLACEMENT_3D ( 'NONE', #167, #245, #49 ) ;
#354 = AXIS2_PLACEMENT_3D ( 'NONE', #160, #273, #216 ) ;
#355 = CARTESIAN_POINT ( 'NONE',  ( 3.668203209277704335E-29, -5.237222008264717388E-15, -1.499999999999999778 ) ) ;
#356 = FACE_OUTER_BOUND ( 'NONE', #54, .T. ) ;
#357 = ADVANCED_FACE ( 'NONE', ( #136 ), #222, .T. ) ;
#358 = CARTESIAN_POINT ( 'NONE',  ( 3.668203209277704895E-29, -5.237222008264718177E-15, -1.500000000000000222 ) ) ;
#359 = DIRECTION ( 'NONE',  ( -2.445468806185136597E-29, 3.491481338843145583E-15, 1.000000000000000000 ) ) ;
#360 = CARTESIAN_POINT ( 'NONE',  ( -0.1249999999999999167, 8.881784197001246407E-16, -6.148668862818628023E-30 ) ) ;
#361 = ADVANCED_FACE ( 'NONE', ( #46 ), #58, .T. ) ;
#362 = CARTESIAN_POINT ( 'NONE',  ( -0.1250000000000000000, -5.221913923275378650E-15, -2.000000000000000000 ) ) ;
#363 = AXIS2_PLACEMENT_3D ( 'NONE', #60, #232, #282 ) ;
#364 = PERSON_AND_ORGANIZATION_ROLE ( 'creator' ) ;
#365 = LINE ( 'NONE', #200, #283 ) ;
#366 = ORIENTED_EDGE ( 'NONE', *, *, #113, .F. ) ;
ENDSEC;
END-ISO-10303-21;
