ISO-10303-21;
HEADER;
FILE_DESCRIPTION (( 'STEP AP203' ),
    '1' );
FILE_NAME ('31315.STEP',
    '2024-02-27T13:03:41',
    ( '' ),
    ( '' ),
    'SwSTEP 2.0',
    'SolidWorks 2023',
    '' );
FILE_SCHEMA (( 'CONFIG_CONTROL_DESIGN' ));
ENDSEC;

DATA;
#1 = ORIENTED_EDGE ( 'NONE', *, *, #107, .F. ) ;
#2 = CARTESIAN_POINT ( 'NONE',  ( 0.000000000000000000, 0.000000000000000000, 0.000000000000000000 ) ) ;
#3 = VERTEX_POINT ( 'NONE', #272 ) ;
#4 = CIRCLE ( 'NONE', #109, 0.3749999999999996669 ) ;
#5 = EDGE_CURVE ( 'NONE', #142, #177, #251, .T. ) ;
#6 = DIRECTION ( 'NONE',  ( -2.445468806185136597E-29, 3.491481338843145583E-15, 1.000000000000000000 ) ) ;
#7 = CC_DESIGN_APPROVAL ( #114, ( #334 ) ) ;
#8 = PERSON_AND_ORGANIZATION ( #324, #196 ) ;
#9 = LINE ( 'NONE', #155, #138 ) ;
#10 = DIRECTION ( 'NONE',  ( -2.445468806185136597E-29, 3.491481338843145583E-15, 1.000000000000000000 ) ) ;
#11 = EDGE_CURVE ( 'NONE', #104, #88, #304, .T. ) ;
#12 = PLANE ( 'NONE',  #169 ) ;
#13 = EDGE_LOOP ( 'NONE', ( #259, #209, #345, #1 ) ) ;
#14 = DIRECTION ( 'NONE',  ( 1.000000000000000000, -6.982962677686265922E-15, 4.876176775795935793E-29 ) ) ;
#15 = ADVANCED_BREP_SHAPE_REPRESENTATION ( '31315', ( #25, #161, #74 ), #235 ) ;
#16 = CARTESIAN_POINT ( 'NONE',  ( 4.890937612370274875E-29, -6.982962677686292743E-15, -2.000000000000000444 ) ) ;
#17 = DIRECTION ( 'NONE',  ( -2.445468806185136597E-29, 3.491481338843145583E-15, 1.000000000000000000 ) ) ;
#18 = DIRECTION ( 'NONE',  ( 2.445468806185136597E-29, -3.491481338843145583E-15, -1.000000000000000000 ) ) ;
#19 = ADVANCED_FACE ( 'NONE', ( #71 ), #284, .T. ) ;
#20 = VECTOR ( 'NONE', #116, 39.37007874015748143 ) ;
#21 = CARTESIAN_POINT ( 'NONE',  ( 4.890937612370290675E-31, -6.982962677686316261E-17, -0.02000000000000007327 ) ) ;
#22 = COORDINATED_UNIVERSAL_TIME_OFFSET ( 5, 0, .BEHIND. ) ;
#23 = APPROVAL_STATUS ( 'not_yet_approved' ) ;
#24 = LOCAL_TIME ( 8, 3, 41.00000000000000000, #22 ) ;
#25 = MANIFOLD_SOLID_BREP ( 'Body-Move/Copy2[1]', #343 ) ;
#26 = AXIS2_PLACEMENT_3D ( 'NONE', #211, #207, #39 ) ;
#27 = VECTOR ( 'NONE', #315, 39.37007874015748143 ) ;
#28 = ORIENTED_EDGE ( 'NONE', *, *, #11, .F. ) ;
#29 = ADVANCED_FACE ( 'NONE', ( #181 ), #354, .T. ) ;
#30 = APPLICATION_CONTEXT ( 'configuration controlled 3d designs of mechanical parts and assemblies' ) ;
#31 = CARTESIAN_POINT ( 'NONE',  ( 0.3750000000000000555, -9.598082200479797386E-15, -1.999000000000000110 ) ) ;
#32 = ORIENTED_EDGE ( 'NONE', *, *, #101, .T. ) ;
#33 = CYLINDRICAL_SURFACE ( 'NONE', #242, 0.3749999999999998335 ) ;
#34 = CARTESIAN_POINT ( 'NONE',  ( -1.043851414335219820E-46, 1.490343170380447200E-32, 4.268512490100411279E-18 ) ) ;
#35 = CARTESIAN_POINT ( 'NONE',  ( 4.890937612370274875E-29, -6.982962677686292743E-15, -2.000000000000000444 ) ) ;
#36 = CIRCLE ( 'NONE', #215, 0.3750000000000000555 ) ;
#37 = DIRECTION ( 'NONE',  ( 1.000000000000000000, -6.982962677686268288E-15, 0.000000000000000000 ) ) ;
#38 = CC_DESIGN_DATE_AND_TIME_ASSIGNMENT ( #335, #164, ( #170 ) ) ;
#39 = DIRECTION ( 'NONE',  ( 1.000000000000000000, -6.982962677686265922E-15, 4.876231632511992667E-29 ) ) ;
#40 = CARTESIAN_POINT ( 'NONE',  ( 2.478951750578621842E-15, 0.3549999999999996492, -1.237341619044265047E-15 ) ) ;
#41 = AXIS2_PLACEMENT_3D ( 'NONE', #301, #232, #126 ) ;
#42 = PERSON_AND_ORGANIZATION ( #324, #196 ) ;
#43 = CARTESIAN_POINT ( 'NONE',  ( 0.3749999999999996669, -2.642516375941185662E-15, -0.02000000000000007327 ) ) ;
#44 = EDGE_LOOP ( 'NONE', ( #231, #356 ) ) ;
#45 = SECURITY_CLASSIFICATION_LEVEL ( 'unclassified' ) ;
#46 = CIRCLE ( 'NONE', #103, 0.3750000000000000555 ) ;
#47 = CALENDAR_DATE ( 2024, 27, 2 ) ;
#48 = ORIENTED_EDGE ( 'NONE', *, *, #73, .F. ) ;
#49 = ADVANCED_FACE ( 'NONE', ( #76 ), #250, .T. ) ;
#50 = DIRECTION ( 'NONE',  ( -2.445468806185136597E-29, 3.491481338843145583E-15, 1.000000000000000000 ) ) ;
#51 = EDGE_LOOP ( 'NONE', ( #327, #123, #168, #171 ) ) ;
#52 = AXIS2_PLACEMENT_3D ( 'NONE', #153, #17, #106 ) ;
#53 = CARTESIAN_POINT ( 'NONE',  ( 4.890937612370273754E-29, -6.982962677686291954E-15, -2.000000000000000444 ) ) ;
#54 = ORIENTED_EDGE ( 'NONE', *, *, #83, .F. ) ;
#55 = DIRECTION ( 'NONE',  ( 1.000000000000000000, -6.982962677686268288E-15, 0.000000000000000000 ) ) ;
#56 = VERTEX_POINT ( 'NONE', #166 ) ;
#57 = CARTESIAN_POINT ( 'NONE',  ( 7.336406418555409790E-29, -1.047444401652943635E-14, -3.000000000000000444 ) ) ;
#58 = VERTEX_POINT ( 'NONE', #43 ) ;
#59 = EDGE_CURVE ( 'NONE', #88, #286, #36, .T. ) ;
#60 = AXIS2_PLACEMENT_3D ( 'NONE', #97, #249, #217 ) ;
#61 = CARTESIAN_POINT ( 'NONE',  ( 4.890937612370273754E-29, -6.982962677686291954E-15, -2.000000000000000444 ) ) ;
#62 = CONICAL_SURFACE ( 'NONE', #160, 0.3749999999999996669, 0.7853981633974479459 ) ;
#63 = CARTESIAN_POINT ( 'NONE',  ( 0.000000000000000000, 0.000000000000000000, 0.000000000000000000 ) ) ;
#64 = ORIENTED_EDGE ( 'NONE', *, *, #59, .T. ) ;
#65 = CARTESIAN_POINT ( 'NONE',  ( 0.000000000000000000, 0.000000000000000000, 0.000000000000000000 ) ) ;
#66 = FACE_OUTER_BOUND ( 'NONE', #154, .T. ) ;
#67 = AXIS2_PLACEMENT_3D ( 'NONE', #57, #6, #172 ) ;
#68 = CC_DESIGN_PERSON_AND_ORGANIZATION_ASSIGNMENT ( #186, #77, ( #334 ) ) ;
#69 = CARTESIAN_POINT ( 'NONE',  ( -0.3749999999999996669, 2.548781377355484352E-15, -0.02000000000000007327 ) ) ;
#70 = DIRECTION ( 'NONE',  ( 1.000000000000000000, -6.982962677686265922E-15, 4.876231632511992667E-29 ) ) ;
#71 = FACE_OUTER_BOUND ( 'NONE', #240, .T. ) ;
#72 = DIRECTION ( 'NONE',  ( 2.445468806185136597E-29, -3.491481338843145583E-15, -1.000000000000000000 ) ) ;
#73 = EDGE_CURVE ( 'NONE', #3, #286, #355, .T. ) ;
#74 = AXIS2_PLACEMENT_3D ( 'NONE', #2, #174, #227 ) ;
#75 = PERSON_AND_ORGANIZATION ( #324, #196 ) ;
#76 = FACE_OUTER_BOUND ( 'NONE', #13, .T. ) ;
#77 = PERSON_AND_ORGANIZATION_ROLE ( 'design_supplier' ) ;
#78 = EDGE_CURVE ( 'NONE', #177, #142, #113, .T. ) ;
#79 = APPROVAL_STATUS ( 'not_yet_approved' ) ;
#80 = AXIS2_PLACEMENT_3D ( 'NONE', #61, #261, #258 ) ;
#81 = CARTESIAN_POINT ( 'NONE',  ( 0.000000000000000000, 0.000000000000000000, 0.000000000000000000 ) ) ;
#82 = ORIENTED_EDGE ( 'NONE', *, *, #112, .F. ) ;
#83 = EDGE_CURVE ( 'NONE', #330, #195, #165, .T. ) ;
#84 = CIRCLE ( 'NONE', #305, 0.3739999999999999991 ) ;
#85 =( CONVERSION_BASED_UNIT ( 'INCH', #294 ) LENGTH_UNIT ( ) NAMED_UNIT ( #283 ) );
#86 = EDGE_LOOP ( 'NONE', ( #125, #82 ) ) ;
#87 = DIRECTION ( 'NONE',  ( 0.7071067811865472397, -7.319954787623254468E-15, -0.7071067811865477948 ) ) ;
#88 = VERTEX_POINT ( 'NONE', #359 ) ;
#89 = APPLICATION_CONTEXT ( 'configuration controlled 3d designs of mechanical parts and assemblies' ) ;
#90 = CC_DESIGN_PERSON_AND_ORGANIZATION_ASSIGNMENT ( #230, #206, ( #178 ) ) ;
#91 = AXIS2_PLACEMENT_3D ( 'NONE', #156, #18, #237 ) ;
#92 = DIRECTION ( 'NONE',  ( -2.445468806185136597E-29, 3.491481338843145583E-15, 1.000000000000000000 ) ) ;
#93 = DIRECTION ( 'NONE',  ( -2.445468806185136597E-29, 3.491481338843145583E-15, 1.000000000000000000 ) ) ;
#94 = DIRECTION ( 'NONE',  ( -2.445468806185136877E-29, 3.491481338843145188E-15, 1.000000000000000000 ) ) ;
#95 = CARTESIAN_POINT ( 'NONE',  ( -0.3749999999999999445, -8.601151524617780590E-16, -1.999000000000000110 ) ) ;
#96 = APPLICATION_PROTOCOL_DEFINITION ( 'international standard', 'config_control_design', 1994, #30 ) ;
#97 = CARTESIAN_POINT ( 'NONE',  ( 2.618611004132423381E-15, 0.3749999999999895639, -3.000000000000001332 ) ) ;
#98 = DIRECTION ( 'NONE',  ( 1.000000000000000000, -6.982962677686266711E-15, 0.000000000000000000 ) ) ;
#99 = PERSON_AND_ORGANIZATION ( #324, #196 ) ;
#100 = ORIENTED_EDGE ( 'NONE', *, *, #107, .T. ) ;
#101 = EDGE_CURVE ( 'NONE', #252, #195, #147, .T. ) ;
#102 = CARTESIAN_POINT ( 'NONE',  ( 7.336406418555409790E-29, -1.047444401652943635E-14, -3.000000000000000444 ) ) ;
#103 = AXIS2_PLACEMENT_3D ( 'NONE', #323, #179, #128 ) ;
#104 = VERTEX_POINT ( 'NONE', #271 ) ;
#105 = CONICAL_SURFACE ( 'NONE', #306, 0.3739999999999999991, 0.7853981633972775267 ) ;
#106 = DIRECTION ( 'NONE',  ( 1.000000000000000000, -6.982962677686264344E-15, 0.000000000000000000 ) ) ;
#107 = EDGE_CURVE ( 'NONE', #309, #58, #4, .T. ) ;
#108 = CARTESIAN_POINT ( 'NONE',  ( 0.3749999999999998335, -2.618611004132348439E-15, 1.828566290923475082E-29 ) ) ;
#109 = AXIS2_PLACEMENT_3D ( 'NONE', #208, #92, #98 ) ;
#110 = CALENDAR_DATE ( 2024, 27, 2 ) ;
#111 = CALENDAR_DATE ( 2024, 27, 2 ) ;
#112 = EDGE_CURVE ( 'NONE', #252, #56, #84, .T. ) ;
#113 = CIRCLE ( 'NONE', #273, 0.3549999999999996492 ) ;
#114 = APPROVAL ( #79, 'UNSPECIFIED' ) ;
#115 = DIRECTION ( 'NONE',  ( 1.000000000000000000, -6.982962677686268288E-15, 0.000000000000000000 ) ) ;
#116 = DIRECTION ( 'NONE',  ( 0.7071067811864267805, -2.468850131080992517E-15, 0.7071067811866682540 ) ) ;
#117 = APPROVAL_STATUS ( 'not_yet_approved' ) ;
#118 = FACE_OUTER_BOUND ( 'NONE', #264, .T. ) ;
#119 = CARTESIAN_POINT ( 'NONE',  ( 4.890937612370290675E-31, -6.982962677686316261E-17, -0.02000000000000007327 ) ) ;
#120 = PLANE ( 'NONE',  #312 ) ;
#121 = CONICAL_SURFACE ( 'NONE', #191, 0.3739999999999999991, 0.7853981633972775267 ) ;
#122 = LINE ( 'NONE', #296, #299 ) ;
#123 = ORIENTED_EDGE ( 'NONE', *, *, #292, .T. ) ;
#124 = CARTESIAN_POINT ( 'NONE',  ( 4.890937612370274875E-29, -6.982962677686292743E-15, -2.000000000000000444 ) ) ;
#125 = ORIENTED_EDGE ( 'NONE', *, *, #216, .F. ) ;
#126 = DIRECTION ( 'NONE',  ( 1.000000000000000000, -6.982962677686265922E-15, 4.876176775795935793E-29 ) ) ;
#127 = ORIENTED_EDGE ( 'NONE', *, *, #292, .F. ) ;
#128 = DIRECTION ( 'NONE',  ( 1.000000000000000000, -6.982962677686264344E-15, 0.000000000000000000 ) ) ;
#129 = CC_DESIGN_PERSON_AND_ORGANIZATION_ASSIGNMENT ( #222, #246, ( #241 ) ) ;
#130 = DIRECTION ( 'NONE',  ( 2.438088387897960049E-29, -3.491481338843145188E-15, -1.000000000000000000 ) ) ;
#131 = CIRCLE ( 'NONE', #256, 0.3750000000000000555 ) ;
#132 = AXIS2_PLACEMENT_3D ( 'NONE', #119, #319, #197 ) ;
#133 = APPROVAL_DATE_TIME ( #362, #134 ) ;
#134 = APPROVAL ( #117, 'UNSPECIFIED' ) ;
#135 = CALENDAR_DATE ( 2024, 27, 2 ) ;
#136 = DIRECTION ( 'NONE',  ( -0.7071067811865472397, 2.468850131082253905E-15, -0.7071067811865477948 ) ) ;
#137 = ORIENTED_EDGE ( 'NONE', *, *, #360, .F. ) ;
#138 = VECTOR ( 'NONE', #269, 39.37007874015748143 ) ;
#139 = ADVANCED_FACE ( 'NONE', ( #66 ), #204, .T. ) ;
#140 = ORIENTED_EDGE ( 'NONE', *, *, #5, .T. ) ;
#141 = FACE_OUTER_BOUND ( 'NONE', #322, .T. ) ;
#142 = VERTEX_POINT ( 'NONE', #212 ) ;
#143 = APPROVAL_PERSON_ORGANIZATION ( #279, #114, #308 ) ;
#144 = CC_DESIGN_PERSON_AND_ORGANIZATION_ASSIGNMENT ( #99, #282, ( #334 ) ) ;
#145 = APPLICATION_PROTOCOL_DEFINITION ( 'international standard', 'config_control_design', 1994, #89 ) ;
#146 = ORIENTED_EDGE ( 'NONE', *, *, #314, .F. ) ;
#147 = LINE ( 'NONE', #263, #234 ) ;
#148 =( LENGTH_UNIT ( ) NAMED_UNIT ( * ) SI_UNIT ( $, .METRE. ) );
#149 = ORIENTED_EDGE ( 'NONE', *, *, #152, .T. ) ;
#150 = DIRECTION ( 'NONE',  ( -2.445468806185136597E-29, 3.491481338843145583E-15, 1.000000000000000000 ) ) ;
#151 = FACE_OUTER_BOUND ( 'NONE', #316, .T. ) ;
#152 = EDGE_CURVE ( 'NONE', #195, #309, #9, .T. ) ;
#153 = CARTESIAN_POINT ( 'NONE',  ( 4.888492143564088712E-29, -6.979471196347448158E-15, -1.999000000000000110 ) ) ;
#154 = EDGE_LOOP ( 'NONE', ( #28, #262, #320, #270 ) ) ;
#155 = CARTESIAN_POINT ( 'NONE',  ( -0.3749999999999998335, 2.664535259100374514E-15, -1.844600658845588757E-29 ) ) ;
#156 = CARTESIAN_POINT ( 'NONE',  ( 4.890937612370290675E-31, -6.982962677686316261E-17, -0.02000000000000007327 ) ) ;
#157 = LINE ( 'NONE', #108, #27 ) ;
#158 = CIRCLE ( 'NONE', #203, 0.3739999999999999991 ) ;
#159 = ADVANCED_FACE ( 'NONE', ( #187 ), #12, .F. ) ;
#160 = AXIS2_PLACEMENT_3D ( 'NONE', #21, #72, #361 ) ;
#161 = MANIFOLD_SOLID_BREP ( 'Body-Move/Copy2[2]', #339 ) ;
#162 = CALENDAR_DATE ( 2024, 27, 2 ) ;
#163 = EDGE_CURVE ( 'NONE', #195, #330, #46, .T. ) ;
#164 = DATE_TIME_ROLE ( 'classification_date' ) ;
#165 = CIRCLE ( 'NONE', #52, 0.3750000000000000555 ) ;
#166 = CARTESIAN_POINT ( 'NONE',  ( 0.3739999999999999991, -9.594590719140957534E-15, -2.000000000000000444 ) ) ;
#167 = ORIENTED_EDGE ( 'NONE', *, *, #5, .F. ) ;
#168 = ORIENTED_EDGE ( 'NONE', *, *, #314, .T. ) ;
#169 = AXIS2_PLACEMENT_3D ( 'NONE', #16, #239, #350 ) ;
#170 = SECURITY_CLASSIFICATION ( '', '', #45 ) ;
#171 = ORIENTED_EDGE ( 'NONE', *, *, #268, .F. ) ;
#172 = DIRECTION ( 'NONE',  ( 1.000000000000000000, -6.982962677686266711E-15, 0.000000000000000000 ) ) ;
#173 = CC_DESIGN_PERSON_AND_ORGANIZATION_ASSIGNMENT ( #75, #280, ( #170 ) ) ;
#174 = DIRECTION ( 'NONE',  ( 0.000000000000000000, 0.000000000000000000, 1.000000000000000000 ) ) ;
#175 = ORIENTED_EDGE ( 'NONE', *, *, #244, .F. ) ;
#176 = CIRCLE ( 'NONE', #67, 0.3750000000000000555 ) ;
#177 = VERTEX_POINT ( 'NONE', #357 ) ;
#178 = PRODUCT ( '31315', '31315', '', ( #344 ) ) ;
#179 = DIRECTION ( 'NONE',  ( -2.445468806185136597E-29, 3.491481338843145583E-15, 1.000000000000000000 ) ) ;
#180 = CARTESIAN_POINT ( 'NONE',  ( 0.3750000000000000555, -9.601573681818641971E-15, -2.000000000000000444 ) ) ;
#181 = FACE_OUTER_BOUND ( 'NONE', #44, .T. ) ;
#182 = EDGE_CURVE ( 'NONE', #3, #104, #131, .T. ) ;
#183 = DIRECTION ( 'NONE',  ( -2.445468806185136877E-29, 3.491481338843145188E-15, 1.000000000000000000 ) ) ;
#184 = ORIENTED_EDGE ( 'NONE', *, *, #268, .T. ) ;
#185 = APPROVAL_PERSON_ORGANIZATION ( #8, #134, #348 ) ;
#186 = PERSON_AND_ORGANIZATION ( #324, #196 ) ;
#187 = FACE_OUTER_BOUND ( 'NONE', #86, .T. ) ;
#188 = ORIENTED_EDGE ( 'NONE', *, *, #101, .F. ) ;
#189 = ADVANCED_FACE ( 'NONE', ( #118 ), #120, .F. ) ;
#190 = FACE_OUTER_BOUND ( 'NONE', #225, .T. ) ;
#191 = AXIS2_PLACEMENT_3D ( 'NONE', #233, #93, #55 ) ;
#192 = APPROVAL ( #23, 'UNSPECIFIED' ) ;
#193 = APPROVAL_ROLE ( '' ) ;
#194 = CC_DESIGN_DATE_AND_TIME_ASSIGNMENT ( #329, #214, ( #241 ) ) ;
#195 = VERTEX_POINT ( 'NONE', #95 ) ;
#196 = ORGANIZATION ( 'UNSPECIFIED', 'UNSPECIFIED', '' ) ;
#197 = DIRECTION ( 'NONE',  ( 1.000000000000000000, -6.982962677686266711E-15, 0.000000000000000000 ) ) ;
#198 = ADVANCED_FACE ( 'NONE', ( #205 ), #325, .T. ) ;
#199 = PRODUCT_DEFINITION_SHAPE ( 'NONE', 'NONE',  #241 ) ;
#200 = ORIENTED_EDGE ( 'NONE', *, *, #112, .T. ) ;
#201 = FACE_OUTER_BOUND ( 'NONE', #302, .T. ) ;
#202 = EDGE_LOOP ( 'NONE', ( #288, #245, #342, #48 ) ) ;
#203 = AXIS2_PLACEMENT_3D ( 'NONE', #124, #238, #243 ) ;
#204 = CYLINDRICAL_SURFACE ( 'NONE', #41, 0.3750000000000000555 ) ;
#205 = FACE_OUTER_BOUND ( 'NONE', #202, .T. ) ;
#206 = PERSON_AND_ORGANIZATION_ROLE ( 'design_owner' ) ;
#207 = DIRECTION ( 'NONE',  ( -2.445468806185136597E-29, 3.491481338843145583E-15, 1.000000000000000000 ) ) ;
#208 = CARTESIAN_POINT ( 'NONE',  ( 4.890937612370290675E-31, -6.982962677686316261E-17, -0.02000000000000007327 ) ) ;
#209 = ORIENTED_EDGE ( 'NONE', *, *, #163, .T. ) ;
#210 = DIRECTION ( 'NONE',  ( 1.000000000000000000, -6.982962677686266711E-15, 0.000000000000000000 ) ) ;
#211 = CARTESIAN_POINT ( 'NONE',  ( -1.043851414335219820E-46, 1.490343170380447200E-32, 4.268512490100411279E-18 ) ) ;
#212 = CARTESIAN_POINT ( 'NONE',  ( -0.3549999999999996492, 2.513866563967053097E-15, 4.268512490082953109E-18 ) ) ;
#213 = DIRECTION ( 'NONE',  ( -1.000000000000000000, 6.982962677686265922E-15, -4.876176775795935793E-29 ) ) ;
#214 = DATE_TIME_ROLE ( 'creation_date' ) ;
#215 = AXIS2_PLACEMENT_3D ( 'NONE', #53, #254, #333 ) ;
#216 = EDGE_CURVE ( 'NONE', #56, #252, #158, .T. ) ;
#217 = DIRECTION ( 'NONE',  ( -1.000000000000000000, 6.982962677686265922E-15, -4.876176775795935793E-29 ) ) ;
#218 = ORIENTED_EDGE ( 'NONE', *, *, #78, .T. ) ;
#219 = APPROVAL_DATE_TIME ( #363, #114 ) ;
#220 = APPROVAL_DATE_TIME ( #267, #192 ) ;
#221 = DESIGN_CONTEXT ( 'detailed design', #89, 'design' ) ;
#222 = PERSON_AND_ORGANIZATION ( #324, #196 ) ;
#223 = LOCAL_TIME ( 8, 3, 41.00000000000000000, #248 ) ;
#224 = ADVANCED_FACE ( 'NONE', ( #190 ), #275, .F. ) ;
#225 = EDGE_LOOP ( 'NONE', ( #140, #218 ) ) ;
#226 = ADVANCED_FACE ( 'NONE', ( #303 ), #62, .T. ) ;
#227 = DIRECTION ( 'NONE',  ( 1.000000000000000000, 0.000000000000000000, 0.000000000000000000 ) ) ;
#228 = ORIENTED_EDGE ( 'NONE', *, *, #216, .T. ) ;
#229 = CC_DESIGN_APPROVAL ( #192, ( #170 ) ) ;
#230 = PERSON_AND_ORGANIZATION ( #324, #196 ) ;
#231 = ORIENTED_EDGE ( 'NONE', *, *, #182, .F. ) ;
#232 = DIRECTION ( 'NONE',  ( -2.445468806185136597E-29, 3.491481338843145583E-15, 1.000000000000000000 ) ) ;
#233 = CARTESIAN_POINT ( 'NONE',  ( 4.890937612370274875E-29, -6.982962677686292743E-15, -2.000000000000000444 ) ) ;
#234 = VECTOR ( 'NONE', #295, 39.37007874015748143 ) ;
#235 =( GEOMETRIC_REPRESENTATION_CONTEXT ( 3 ) GLOBAL_UNCERTAINTY_ASSIGNED_CONTEXT ( ( #346 ) ) GLOBAL_UNIT_ASSIGNED_CONTEXT ( ( #85, #289, #253 ) ) REPRESENTATION_CONTEXT ( 'NONE', 'WORKASPACE' ) );
#236 = DIRECTION ( 'NONE',  ( 2.438088387897960049E-29, -3.491481338843145188E-15, -1.000000000000000000 ) ) ;
#237 = DIRECTION ( 'NONE',  ( -1.000000000000000000, 6.982962677686266711E-15, 0.000000000000000000 ) ) ;
#238 = DIRECTION ( 'NONE',  ( -2.445468806185136597E-29, 3.491481338843145583E-15, 1.000000000000000000 ) ) ;
#239 = DIRECTION ( 'NONE',  ( -2.438088387897960049E-29, 3.491481338843145188E-15, 1.000000000000000000 ) ) ;
#240 = EDGE_LOOP ( 'NONE', ( #127, #167, #184, #100 ) ) ;
#241 = PRODUCT_DEFINITION ( 'UNKNOWN', '', #334, #221 ) ;
#242 = AXIS2_PLACEMENT_3D ( 'NONE', #63, #10, #293 ) ;
#243 = DIRECTION ( 'NONE',  ( 1.000000000000000000, -6.982962677686268288E-15, 0.000000000000000000 ) ) ;
#244 = EDGE_CURVE ( 'NONE', #330, #58, #157, .T. ) ;
#245 = ORIENTED_EDGE ( 'NONE', *, *, #11, .T. ) ;
#246 = PERSON_AND_ORGANIZATION_ROLE ( 'creator' ) ;
#247 = LOCAL_TIME ( 8, 3, 41.00000000000000000, #364 ) ;
#248 = COORDINATED_UNIVERSAL_TIME_OFFSET ( 5, 0, .BEHIND. ) ;
#249 = DIRECTION ( 'NONE',  ( 2.438088387897960049E-29, -3.491481338843145188E-15, -1.000000000000000000 ) ) ;
#250 = CYLINDRICAL_SURFACE ( 'NONE', #274, 0.3749999999999998335 ) ;
#251 = CIRCLE ( 'NONE', #26, 0.3549999999999996492 ) ;
#252 = VERTEX_POINT ( 'NONE', #297 ) ;
#253 =( NAMED_UNIT ( * ) SI_UNIT ( $, .STERADIAN. ) SOLID_ANGLE_UNIT ( ) );
#254 = DIRECTION ( 'NONE',  ( -2.445468806185136597E-29, 3.491481338843145583E-15, 1.000000000000000000 ) ) ;
#255 = CARTESIAN_POINT ( 'NONE',  ( 0.3739999999999999991, -9.594590719140957534E-15, -2.000000000000000444 ) ) ;
#256 = AXIS2_PLACEMENT_3D ( 'NONE', #102, #260, #210 ) ;
#257 = CIRCLE ( 'NONE', #132, 0.3749999999999996669 ) ;
#258 = DIRECTION ( 'NONE',  ( 1.000000000000000000, -6.982962677686266711E-15, 0.000000000000000000 ) ) ;
#259 = ORIENTED_EDGE ( 'NONE', *, *, #152, .F. ) ;
#260 = DIRECTION ( 'NONE',  ( -2.445468806185136597E-29, 3.491481338843145583E-15, 1.000000000000000000 ) ) ;
#261 = DIRECTION ( 'NONE',  ( -2.445468806185136597E-29, 3.491481338843145583E-15, 1.000000000000000000 ) ) ;
#262 = ORIENTED_EDGE ( 'NONE', *, *, #352, .T. ) ;
#263 = CARTESIAN_POINT ( 'NONE',  ( -0.3739999999999999991, -4.325532845943518054E-15, -2.000000000000000444 ) ) ;
#264 = EDGE_LOOP ( 'NONE', ( #341, #64 ) ) ;
#265 = AXIS2_PLACEMENT_3D ( 'NONE', #40, #130, #213 ) ;
#266 = DIRECTION ( 'NONE',  ( -2.445468806185136597E-29, 3.491481338843145583E-15, 1.000000000000000000 ) ) ;
#267 = DATE_AND_TIME ( #111, #24 ) ;
#268 = EDGE_CURVE ( 'NONE', #142, #309, #318, .T. ) ;
#269 = DIRECTION ( 'NONE',  ( -2.445468806185136877E-29, 3.491481338843145188E-15, 1.000000000000000000 ) ) ;
#270 = ORIENTED_EDGE ( 'NONE', *, *, #59, .F. ) ;
#271 = CARTESIAN_POINT ( 'NONE',  ( -0.3750000000000000555, -6.064168088007489246E-15, -3.000000000000000444 ) ) ;
#272 = CARTESIAN_POINT ( 'NONE',  ( 0.3750000000000000555, -1.309305502066178795E-14, -3.000000000000000444 ) ) ;
#273 = AXIS2_PLACEMENT_3D ( 'NONE', #34, #150, #70 ) ;
#274 = AXIS2_PLACEMENT_3D ( 'NONE', #81, #50, #307 ) ;
#275 = PLANE ( 'NONE',  #265 ) ;
#276 = CC_DESIGN_APPROVAL ( #134, ( #241 ) ) ;
#277 = ADVANCED_FACE ( 'NONE', ( #151 ), #33, .T. ) ;
#278 = ORIENTED_EDGE ( 'NONE', *, *, #163, .F. ) ;
#279 = PERSON_AND_ORGANIZATION ( #324, #196 ) ;
#280 = PERSON_AND_ORGANIZATION_ROLE ( 'classification_officer' ) ;
#281 = VECTOR ( 'NONE', #94, 39.37007874015748143 ) ;
#282 = PERSON_AND_ORGANIZATION_ROLE ( 'creator' ) ;
#283 = DIMENSIONAL_EXPONENTS ( 1.000000000000000000, 0.000000000000000000, 0.000000000000000000, 0.000000000000000000, 0.000000000000000000, 0.000000000000000000, 0.000000000000000000 ) ;
#284 = CONICAL_SURFACE ( 'NONE', #91, 0.3749999999999996669, 0.7853981633974479459 ) ;
#285 = LOCAL_TIME ( 8, 3, 41.00000000000000000, #338 ) ;
#286 = VERTEX_POINT ( 'NONE', #180 ) ;
#287 = ADVANCED_FACE ( 'NONE', ( #201 ), #121, .T. ) ;
#288 = ORIENTED_EDGE ( 'NONE', *, *, #182, .T. ) ;
#289 =( NAMED_UNIT ( * ) PLANE_ANGLE_UNIT ( ) SI_UNIT ( $, .RADIAN. ) );
#290 = LOCAL_TIME ( 8, 3, 41.00000000000000000, #311 ) ;
#291 = DIRECTION ( 'NONE',  ( -2.445468806185136597E-29, 3.491481338843145583E-15, 1.000000000000000000 ) ) ;
#292 = EDGE_CURVE ( 'NONE', #177, #58, #122, .T. ) ;
#293 = DIRECTION ( 'NONE',  ( 1.000000000000000000, -6.982962677686265922E-15, 4.876176775795935793E-29 ) ) ;
#294 = LENGTH_MEASURE_WITH_UNIT ( LENGTH_MEASURE( 0.02539999999999999897 ), #148 );
#295 = DIRECTION ( 'NONE',  ( -0.7071067811864267805, 7.493145998869918709E-15, 0.7071067811866682540 ) ) ;
#296 = CARTESIAN_POINT ( 'NONE',  ( 0.3749999999999996669, -2.642516375941185662E-15, -0.02000000000000007327 ) ) ;
#297 = CARTESIAN_POINT ( 'NONE',  ( -0.3739999999999999991, -4.320234391595294863E-15, -2.000000000000000444 ) ) ;
#298 = VECTOR ( 'NONE', #183, 39.37007874015748143 ) ;
#299 = VECTOR ( 'NONE', #87, 39.37007874015748143 ) ;
#300 = CARTESIAN_POINT ( 'NONE',  ( 0.3750000000000000555, -2.618611004132350016E-15, 1.828566290923476203E-29 ) ) ;
#301 = CARTESIAN_POINT ( 'NONE',  ( 0.000000000000000000, 0.000000000000000000, 0.000000000000000000 ) ) ;
#302 = EDGE_LOOP ( 'NONE', ( #228, #32, #54, #137 ) ) ;
#303 = FACE_OUTER_BOUND ( 'NONE', #51, .T. ) ;
#304 = LINE ( 'NONE', #332, #281 ) ;
#305 = AXIS2_PLACEMENT_3D ( 'NONE', #328, #291, #37 ) ;
#306 = AXIS2_PLACEMENT_3D ( 'NONE', #35, #321, #115 ) ;
#307 = DIRECTION ( 'NONE',  ( 1.000000000000000000, -6.982962677686265922E-15, 4.876176775795935793E-29 ) ) ;
#308 = APPROVAL_ROLE ( '' ) ;
#309 = VERTEX_POINT ( 'NONE', #347 ) ;
#310 = EDGE_CURVE ( 'NONE', #286, #88, #340, .T. ) ;
#311 = COORDINATED_UNIVERSAL_TIME_OFFSET ( 5, 0, .BEHIND. ) ;
#312 = AXIS2_PLACEMENT_3D ( 'NONE', #331, #236, #353 ) ;
#313 = APPROVAL_PERSON_ORGANIZATION ( #42, #192, #193 ) ;
#314 = EDGE_CURVE ( 'NONE', #58, #309, #257, .T. ) ;
#315 = DIRECTION ( 'NONE',  ( -2.445468806185136877E-29, 3.491481338843145188E-15, 1.000000000000000000 ) ) ;
#316 = EDGE_LOOP ( 'NONE', ( #317, #149, #146, #175 ) ) ;
#317 = ORIENTED_EDGE ( 'NONE', *, *, #83, .T. ) ;
#318 = LINE ( 'NONE', #69, #351 ) ;
#319 = DIRECTION ( 'NONE',  ( -2.445468806185136597E-29, 3.491481338843145583E-15, 1.000000000000000000 ) ) ;
#320 = ORIENTED_EDGE ( 'NONE', *, *, #73, .T. ) ;
#321 = DIRECTION ( 'NONE',  ( -2.445468806185136597E-29, 3.491481338843145583E-15, 1.000000000000000000 ) ) ;
#322 = EDGE_LOOP ( 'NONE', ( #188, #200, #349, #278 ) ) ;
#323 = CARTESIAN_POINT ( 'NONE',  ( 4.888492143564088712E-29, -6.979471196347448158E-15, -1.999000000000000110 ) ) ;
#324 = PERSON ( 'UNSPECIFIED', 'UNSPECIFIED', 'UNSPECIFIED', ('UNSPECIFIED'), ('UNSPECIFIED'), ('UNSPECIFIED') ) ;
#325 = CYLINDRICAL_SURFACE ( 'NONE', #366, 0.3750000000000000555 ) ;
#326 = LINE ( 'NONE', #255, #20 ) ;
#327 = ORIENTED_EDGE ( 'NONE', *, *, #78, .F. ) ;
#328 = CARTESIAN_POINT ( 'NONE',  ( 4.890937612370274875E-29, -6.982962677686292743E-15, -2.000000000000000444 ) ) ;
#329 = DATE_AND_TIME ( #162, #285 ) ;
#330 = VERTEX_POINT ( 'NONE', #31 ) ;
#331 = CARTESIAN_POINT ( 'NONE',  ( 2.618611004132398926E-15, 0.3749999999999930611, -2.000000000000001776 ) ) ;
#332 = CARTESIAN_POINT ( 'NONE',  ( -0.3750000000000000555, 2.664535259100376091E-15, -1.844600658845589598E-29 ) ) ;
#333 = DIRECTION ( 'NONE',  ( 1.000000000000000000, -6.982962677686266711E-15, 0.000000000000000000 ) ) ;
#334 = PRODUCT_DEFINITION_FORMATION_WITH_SPECIFIED_SOURCE ( 'ANY', '', #178, .NOT_KNOWN. ) ;
#335 = DATE_AND_TIME ( #47, #223 ) ;
#336 = ADVANCED_FACE ( 'NONE', ( #141 ), #105, .T. ) ;
#337 = SHAPE_DEFINITION_REPRESENTATION ( #199, #15 ) ;
#338 = COORDINATED_UNIVERSAL_TIME_OFFSET ( 5, 0, .BEHIND. ) ;
#339 = CLOSED_SHELL ( 'NONE', ( #287, #277, #226, #19, #49, #336, #159, #224 ) ) ;
#340 = CIRCLE ( 'NONE', #80, 0.3750000000000000555 ) ;
#341 = ORIENTED_EDGE ( 'NONE', *, *, #310, .T. ) ;
#342 = ORIENTED_EDGE ( 'NONE', *, *, #310, .F. ) ;
#343 = CLOSED_SHELL ( 'NONE', ( #198, #29, #189, #139 ) ) ;
#344 = MECHANICAL_CONTEXT ( 'NONE', #30, 'mechanical' ) ;
#345 = ORIENTED_EDGE ( 'NONE', *, *, #244, .T. ) ;
#346 = UNCERTAINTY_MEASURE_WITH_UNIT (LENGTH_MEASURE( 1.000000000000000082E-05 ), #85, 'distance_accuracy_value', 'NONE');
#347 = CARTESIAN_POINT ( 'NONE',  ( -0.3749999999999996669, 2.548781377355484352E-15, -0.02000000000000007327 ) ) ;
#348 = APPROVAL_ROLE ( '' ) ;
#349 = ORIENTED_EDGE ( 'NONE', *, *, #360, .T. ) ;
#350 = DIRECTION ( 'NONE',  ( 1.000000000000000000, -6.982962677686265922E-15, 4.876176775795935793E-29 ) ) ;
#351 = VECTOR ( 'NONE', #136, 39.37007874015748143 ) ;
#352 = EDGE_CURVE ( 'NONE', #104, #3, #176, .T. ) ;
#353 = DIRECTION ( 'NONE',  ( -1.000000000000000000, 6.982962677686265922E-15, -4.876176775795935793E-29 ) ) ;
#354 = PLANE ( 'NONE',  #60 ) ;
#355 = LINE ( 'NONE', #300, #298 ) ;
#356 = ORIENTED_EDGE ( 'NONE', *, *, #352, .F. ) ;
#357 = CARTESIAN_POINT ( 'NONE',  ( 0.3549999999999996492, -2.538996582575038287E-15, 4.268512490117958041E-18 ) ) ;
#358 = CC_DESIGN_SECURITY_CLASSIFICATION ( #170, ( #334 ) ) ;
#359 = CARTESIAN_POINT ( 'NONE',  ( -0.3750000000000000555, -6.064168088007489246E-15, -2.000000000000000444 ) ) ;
#360 = EDGE_CURVE ( 'NONE', #56, #330, #326, .T. ) ;
#361 = DIRECTION ( 'NONE',  ( -1.000000000000000000, 6.982962677686266711E-15, 0.000000000000000000 ) ) ;
#362 = DATE_AND_TIME ( #110, #247 ) ;
#363 = DATE_AND_TIME ( #135, #290 ) ;
#364 = COORDINATED_UNIVERSAL_TIME_OFFSET ( 5, 0, .BEHIND. ) ;
#365 = PRODUCT_RELATED_PRODUCT_CATEGORY ( 'detail', '', ( #178 ) ) ;
#366 = AXIS2_PLACEMENT_3D ( 'NONE', #65, #266, #14 ) ;
ENDSEC;
END-ISO-10303-21;
