ISO-10303-21;
HEADER;
FILE_DESCRIPTION (( 'STEP AP203' ),
    '1' );
FILE_NAME ('31914.STEP',
    '2024-02-21T17:11:30',
    ( '' ),
    ( '' ),
    'SwSTEP 2.0',
    'SolidWorks 2023',
    '' );
FILE_SCHEMA (( 'CONFIG_CONTROL_DESIGN' ));
ENDSEC;

DATA;
#1 = ORIENTED_EDGE ( 'NONE', *, *, #357, .F. ) ;
#2 = AXIS2_PLACEMENT_3D ( 'NONE', #68, #235, #321 ) ;
#3 = ORIENTED_EDGE ( 'NONE', *, *, #64, .T. ) ;
#4 = APPROVAL_DATE_TIME ( #173, #20 ) ;
#5 = ADVANCED_FACE ( 'NONE', ( #190 ), #198, .T. ) ;
#6 = AXIS2_PLACEMENT_3D ( 'NONE', #243, #148, #153 ) ;
#7 = DIRECTION ( 'NONE',  ( -6.982962677686265922E-15, -1.000000000000000000, 3.496765431890251398E-15 ) ) ;
#8 = CARTESIAN_POINT ( 'NONE',  ( 0.000000000000000000, 0.000000000000000000, 0.000000000000000000 ) ) ;
#9 = LINE ( 'NONE', #401, #45 ) ;
#10 = CARTESIAN_POINT ( 'NONE',  ( 4.890064532343399911E-31, -6.984212977977449289E-17, -0.02000000000000006981 ) ) ;
#11 =( LENGTH_UNIT ( ) NAMED_UNIT ( * ) SI_UNIT ( $, .METRE. ) );
#12 = DATE_AND_TIME ( #110, #71 ) ;
#13 = APPROVAL ( #236, 'UNSPECIFIED' ) ;
#14 = VECTOR ( 'NONE', #163, 39.37007874015748143 ) ;
#15 = CC_DESIGN_APPROVAL ( #13, ( #305 ) ) ;
#16 = DIRECTION ( 'NONE',  ( -1.000000000000000000, 6.982962677686265922E-15, -4.876176775795935793E-29 ) ) ;
#17 = COORDINATED_UNIVERSAL_TIME_OFFSET ( 5, 0, .BEHIND. ) ;
#18 = ORIENTED_EDGE ( 'NONE', *, *, #306, .T. ) ;
#19 = VERTEX_POINT ( 'NONE', #124 ) ;
#20 = APPROVAL ( #212, 'UNSPECIFIED' ) ;
#21 = DIRECTION ( 'NONE',  ( -6.982962677686265922E-15, -1.000000000000000000, 3.492106488988713551E-15 ) ) ;
#22 = ORIENTED_EDGE ( 'NONE', *, *, #216, .T. ) ;
#23 = CLOSED_SHELL ( 'NONE', ( #41, #217, #359, #325, #5 ) ) ;
#24 = AXIS2_PLACEMENT_3D ( 'NONE', #131, #142, #147 ) ;
#25 = DIRECTION ( 'NONE',  ( 2.445032266171691320E-29, -3.492106488988713156E-15, -1.000000000000000000 ) ) ;
#26 = EDGE_CURVE ( 'NONE', #406, #242, #150, .T. ) ;
#27 = CARTESIAN_POINT ( 'NONE',  ( 0.3125000000000000000, -1.265661985330639628E-14, -3.000000000000000444 ) ) ;
#28 = CC_DESIGN_DATE_AND_TIME_ASSIGNMENT ( #362, #154, ( #404 ) ) ;
#29 = AXIS2_PLACEMENT_3D ( 'NONE', #398, #371, #114 ) ;
#30 = AXIS2_PLACEMENT_3D ( 'NONE', #8, #179, #149 ) ;
#31 = CARTESIAN_POINT ( 'NONE',  ( -2.075300644325891832E-15, -0.2925000000000012035, -1.906335427417354115E-16 ) ) ;
#32 = DIRECTION ( 'NONE',  ( -1.000000000000000000, 6.982962677686265922E-15, -4.883557194083112901E-29 ) ) ;
#33 = VERTEX_POINT ( 'NONE', #230 ) ;
#34 = CARTESIAN_POINT ( 'NONE',  ( 4.890064532343399911E-31, -6.984212977977449289E-17, -0.02000000000000006981 ) ) ;
#35 = DIRECTION ( 'NONE',  ( -6.982962677686265922E-15, -1.000000000000000000, 3.496765431890251398E-15 ) ) ;
#36 = FACE_OUTER_BOUND ( 'NONE', #292, .T. ) ;
#37 = AXIS2_PLACEMENT_3D ( 'NONE', #225, #25, #92 ) ;
#38 = DIRECTION ( 'NONE',  ( 0.000000000000000000, 0.000000000000000000, 1.000000000000000000 ) ) ;
#39 = MECHANICAL_CONTEXT ( 'NONE', #254, 'mechanical' ) ;
#40 = DIRECTION ( 'NONE',  ( -4.851104656540956386E-15, -0.7071067811865489050, -0.7071067811865461294 ) ) ;
#41 = ADVANCED_FACE ( 'NONE', ( #407 ), #345, .T. ) ;
#42 = CARTESIAN_POINT ( 'NONE',  ( -2.182175836776888138E-15, -0.3125000000000109357, -2.998999999999999222 ) ) ;
#43 = ORIENTED_EDGE ( 'NONE', *, *, #336, .T. ) ;
#44 = AXIS2_PLACEMENT_3D ( 'NONE', #117, #111, #182 ) ;
#45 = VECTOR ( 'NONE', #53, 39.37007874015748143 ) ;
#46 = DIRECTION ( 'NONE',  ( -2.445032266171691881E-29, 3.492106488988713156E-15, 1.000000000000000000 ) ) ;
#47 = DIRECTION ( 'NONE',  ( -2.445468806185136597E-29, 3.491481338843145583E-15, 1.000000000000000000 ) ) ;
#48 = PRODUCT_DEFINITION ( 'UNKNOWN', '', #305, #353 ) ;
#49 = DIRECTION ( 'NONE',  ( -6.982962677686265133E-15, -1.000000000000000000, 3.496765431890256920E-15 ) ) ;
#50 =( CONVERSION_BASED_UNIT ( 'INCH', #245 ) LENGTH_UNIT ( ) NAMED_UNIT ( #169 ) );
#51 = LINE ( 'NONE', #334, #319 ) ;
#52 = AXIS2_PLACEMENT_3D ( 'NONE', #122, #377, #250 ) ;
#53 = DIRECTION ( 'NONE',  ( 5.024295867788404755E-15, 0.7071067811865981989, 0.7071067811864968355 ) ) ;
#54 = FACE_OUTER_BOUND ( 'NONE', #316, .T. ) ;
#55 = CARTESIAN_POINT ( 'NONE',  ( 1.357748405726407927E-28, -2.033198248281044304E-14, -5.687500000000000000 ) ) ;
#56 = CARTESIAN_POINT ( 'NONE',  ( 2.963561727945019846E-44, -4.232693892780181089E-30, -1.212074690770938316E-15 ) ) ;
#57 = VERTEX_POINT ( 'NONE', #27 ) ;
#58 = ORIENTED_EDGE ( 'NONE', *, *, #152, .T. ) ;
#59 = AXIS2_PLACEMENT_3D ( 'NONE', #297, #264, #202 ) ;
#60 = AXIS2_PLACEMENT_3D ( 'NONE', #203, #32, #351 ) ;
#61 = ORIENTED_EDGE ( 'NONE', *, *, #275, .F. ) ;
#62 = PERSON_AND_ORGANIZATION ( #265, #141 ) ;
#63 = CARTESIAN_POINT ( 'NONE',  ( 0.000000000000000000, 0.000000000000000000, 0.000000000000000000 ) ) ;
#64 = EDGE_CURVE ( 'NONE', #57, #234, #98, .T. ) ;
#65 = APPROVAL_STATUS ( 'not_yet_approved' ) ;
#66 = FACE_OUTER_BOUND ( 'NONE', #384, .T. ) ;
#67 = ORIENTED_EDGE ( 'NONE', *, *, #152, .F. ) ;
#68 = CARTESIAN_POINT ( 'NONE',  ( 2.963561727945019846E-44, -4.232693892780181089E-30, -1.212074690770938316E-15 ) ) ;
#69 = COORDINATED_UNIVERSAL_TIME_OFFSET ( 5, 0, .BEHIND. ) ;
#70 = VECTOR ( 'NONE', #238, 39.37007874015748143 ) ;
#71 = LOCAL_TIME ( 12, 11, 30.00000000000000000, #106 ) ;
#72 = CARTESIAN_POINT ( 'NONE',  ( -0.3125000000000000000, -1.294567601634960147E-14, -3.000000000000000444 ) ) ;
#73 = DIRECTION ( 'NONE',  ( 1.000000000000000000, -6.982962677686262766E-15, 0.000000000000000000 ) ) ;
#74 = VERTEX_POINT ( 'NONE', #166 ) ;
#75 = DIRECTION ( 'NONE',  ( -6.982962677686265133E-15, -1.000000000000000000, 3.496765431890256920E-15 ) ) ;
#76 = ORIENTED_EDGE ( 'NONE', *, *, #271, .T. ) ;
#77 = CIRCLE ( 'NONE', #172, 0.3125000000000011102 ) ;
#78 = PERSON_AND_ORGANIZATION ( #265, #141 ) ;
#79 =( NAMED_UNIT ( * ) PLANE_ANGLE_UNIT ( ) SI_UNIT ( $, .RADIAN. ) );
#80 = CARTESIAN_POINT ( 'NONE',  ( 2.182175836776958741E-15, 0.3124999999999999445, -0.02000000000000116268 ) ) ;
#81 = AXIS2_PLACEMENT_3D ( 'NONE', #223, #139, #302 ) ;
#82 = DIRECTION ( 'NONE',  ( -2.445032266171691881E-29, 3.492106488988713156E-15, 1.000000000000000000 ) ) ;
#83 = ORIENTED_EDGE ( 'NONE', *, *, #137, .F. ) ;
#84 = PLANE ( 'NONE',  #37 ) ;
#85 = DIRECTION ( 'NONE',  ( -2.445468806185136597E-29, 3.491481338843145583E-15, 1.000000000000000000 ) ) ;
#86 = AXIS2_PLACEMENT_3D ( 'NONE', #392, #82, #282 ) ;
#87 = AXIS2_PLACEMENT_3D ( 'NONE', #10, #107, #49 ) ;
#88 = EDGE_LOOP ( 'NONE', ( #260, #120, #348, #128 ) ) ;
#89 = CC_DESIGN_PERSON_AND_ORGANIZATION_ASSIGNMENT ( #226, #144, ( #48 ) ) ;
#90 = VERTEX_POINT ( 'NONE', #303 ) ;
#91 = FACE_OUTER_BOUND ( 'NONE', #229, .T. ) ;
#92 = DIRECTION ( 'NONE',  ( 6.982962677686265922E-15, 1.000000000000000000, -3.492106488988713156E-15 ) ) ;
#93 = ORIENTED_EDGE ( 'NONE', *, *, #231, .T. ) ;
#94 = EDGE_CURVE ( 'NONE', #257, #320, #219, .T. ) ;
#95 = LOCAL_TIME ( 12, 11, 30.00000000000000000, #69 ) ;
#96 = DIRECTION ( 'NONE',  ( -2.445468806185136597E-29, 3.491481338843145583E-15, 1.000000000000000000 ) ) ;
#97 = APPROVAL_DATE_TIME ( #121, #130 ) ;
#98 = CIRCLE ( 'NONE', #360, 0.3125000000000000000 ) ;
#99 = CONICAL_SURFACE ( 'NONE', #6, 0.3114999999999999991, 0.7853981633975165577 ) ;
#100 = ADVANCED_FACE ( 'NONE', ( #91 ), #244, .T. ) ;
#101 = CALENDAR_DATE ( 2024, 21, 2 ) ;
#102 = DIRECTION ( 'NONE',  ( 1.000000000000000000, 0.000000000000000000, 0.000000000000000000 ) ) ;
#103 = EDGE_CURVE ( 'NONE', #162, #257, #164, .T. ) ;
#104 = DIRECTION ( 'NONE',  ( -6.982962677686265922E-15, -1.000000000000000000, 3.507991003100177457E-15 ) ) ;
#105 = CARTESIAN_POINT ( 'NONE',  ( 0.3125000000000000000, -2.182175836776958347E-15, 1.523805242436230075E-29 ) ) ;
#106 = COORDINATED_UNIVERSAL_TIME_OFFSET ( 5, 0, .BEHIND. ) ;
#107 = DIRECTION ( 'NONE',  ( -2.445032266171691881E-29, 3.492106488988713156E-15, 1.000000000000000000 ) ) ;
#108 = FACE_OUTER_BOUND ( 'NONE', #349, .T. ) ;
#109 = EDGE_CURVE ( 'NONE', #368, #406, #178, .T. ) ;
#110 = CALENDAR_DATE ( 2024, 21, 2 ) ;
#111 = DIRECTION ( 'NONE',  ( -2.445468806185136597E-29, 3.491481338843145583E-15, 1.000000000000000000 ) ) ;
#112 = VECTOR ( 'NONE', #381, 39.37007874015748143 ) ;
#113 = CARTESIAN_POINT ( 'NONE',  ( -2.175192874099198574E-15, -0.3115000000000104352, -2.999999999999999556 ) ) ;
#114 = DIRECTION ( 'NONE',  ( -6.982962677686265922E-15, -1.000000000000000000, 3.492106488988713156E-15 ) ) ;
#115 = CARTESIAN_POINT ( 'NONE',  ( 2.182175836777031317E-15, 0.3124999999999895639, -3.000000000000000888 ) ) ;
#116 = MANIFOLD_SOLID_BREP ( 'Body-Move/Copy2[1]', #23 ) ;
#117 = CARTESIAN_POINT ( 'NONE',  ( 7.336406418555409790E-29, -1.047444401652943635E-14, -3.000000000000000444 ) ) ;
#118 = ORIENTED_EDGE ( 'NONE', *, *, #412, .F. ) ;
#119 = AXIS2_PLACEMENT_3D ( 'NONE', #157, #313, #278 ) ;
#120 = ORIENTED_EDGE ( 'NONE', *, *, #194, .F. ) ;
#121 = DATE_AND_TIME ( #293, #248 ) ;
#122 = CARTESIAN_POINT ( 'NONE',  ( 0.000000000000000000, 0.000000000000000000, 0.000000000000000000 ) ) ;
#123 = ORIENTED_EDGE ( 'NONE', *, *, #355, .F. ) ;
#124 = CARTESIAN_POINT ( 'NONE',  ( -0.3125000000000000000, -1.294567601634960147E-14, -5.687500000000000000 ) ) ;
#125 = CARTESIAN_POINT ( 'NONE',  ( 7.336406418555409790E-29, -1.047444401652943635E-14, -3.000000000000000444 ) ) ;
#126 = CIRCLE ( 'NONE', #2, 0.2925000000000012035 ) ;
#127 = ORIENTED_EDGE ( 'NONE', *, *, #135, .T. ) ;
#128 = ORIENTED_EDGE ( 'NONE', *, *, #94, .T. ) ;
#129 = ORIENTED_EDGE ( 'NONE', *, *, #369, .T. ) ;
#130 = APPROVAL ( #65, 'UNSPECIFIED' ) ;
#131 = CARTESIAN_POINT ( 'NONE',  ( 7.335096798515078164E-29, -1.047631946696614184E-14, -3.000000000000000888 ) ) ;
#132 = ORIENTED_EDGE ( 'NONE', *, *, #310, .F. ) ;
#133 = ADVANCED_FACE ( 'NONE', ( #36 ), #394, .F. ) ;
#134 = ORIENTED_EDGE ( 'NONE', *, *, #275, .T. ) ;
#135 = EDGE_CURVE ( 'NONE', #74, #295, #378, .T. ) ;
#136 = CARTESIAN_POINT ( 'NONE',  ( -2.182175836776959925E-15, -0.3125000000000002776, 1.091283277808973798E-15 ) ) ;
#137 = EDGE_CURVE ( 'NONE', #295, #320, #240, .T. ) ;
#138 = ORIENTED_EDGE ( 'NONE', *, *, #64, .F. ) ;
#139 = DIRECTION ( 'NONE',  ( -2.445468806185136597E-29, 3.491481338843145583E-15, 1.000000000000000000 ) ) ;
#140 = PERSON_AND_ORGANIZATION_ROLE ( 'classification_officer' ) ;
#141 = ORGANIZATION ( 'UNSPECIFIED', 'UNSPECIFIED', '' ) ;
#142 = DIRECTION ( 'NONE',  ( -2.445032266171691881E-29, 3.492106488988713156E-15, 1.000000000000000000 ) ) ;
#143 = DIRECTION ( 'NONE',  ( -1.000000000000000000, 7.105427357601001070E-15, -4.926315508542082329E-29 ) ) ;
#144 = PERSON_AND_ORGANIZATION_ROLE ( 'creator' ) ;
#145 = ADVANCED_FACE ( 'NONE', ( #175 ), #402, .T. ) ;
#146 = CARTESIAN_POINT ( 'NONE',  ( 7.332651766248905611E-29, -1.047282736047715268E-14, -2.999000000000000554 ) ) ;
#147 = DIRECTION ( 'NONE',  ( -6.982962677686265922E-15, -1.000000000000000000, 3.507991003100177457E-15 ) ) ;
#148 = DIRECTION ( 'NONE',  ( -2.445032266171691881E-29, 3.492106488988713156E-15, 1.000000000000000000 ) ) ;
#149 = DIRECTION ( 'NONE',  ( -6.982962677686265922E-15, -1.000000000000000000, 3.492106488988713156E-15 ) ) ;
#150 = CIRCLE ( 'NONE', #267, 0.3125000000000000000 ) ;
#151 = DIRECTION ( 'NONE',  ( -4.937700262164884886E-15, -0.7071067811865933139, 0.7071067811865017205 ) ) ;
#152 = EDGE_CURVE ( 'NONE', #270, #295, #51, .T. ) ;
#153 = DIRECTION ( 'NONE',  ( -6.982962677686265922E-15, -1.000000000000000000, 3.507991003100177457E-15 ) ) ;
#154 = DATE_TIME_ROLE ( 'classification_date' ) ;
#155 = EDGE_CURVE ( 'NONE', #234, #57, #403, .T. ) ;
#156 = UNCERTAINTY_MEASURE_WITH_UNIT (LENGTH_MEASURE( 1.000000000000000082E-05 ), #50, 'distance_accuracy_value', 'NONE');
#157 = CARTESIAN_POINT ( 'NONE',  ( 4.890064532343399911E-31, -6.984212977977449289E-17, -0.02000000000000006981 ) ) ;
#158 = ORIENTED_EDGE ( 'NONE', *, *, #109, .F. ) ;
#159 = COORDINATED_UNIVERSAL_TIME_OFFSET ( 5, 0, .BEHIND. ) ;
#160 = ORIENTED_EDGE ( 'NONE', *, *, #231, .F. ) ;
#161 = CIRCLE ( 'NONE', #185, 0.3125000000000011102 ) ;
#162 = VERTEX_POINT ( 'NONE', #312 ) ;
#163 = DIRECTION ( 'NONE',  ( -2.445468806185136877E-29, 3.491481338843145188E-15, 1.000000000000000000 ) ) ;
#164 = LINE ( 'NONE', #259, #70 ) ;
#165 = LINE ( 'NONE', #189, #14 ) ;
#166 = CARTESIAN_POINT ( 'NONE',  ( 2.220446049250352524E-15, 0.3124999999999900635, -2.999000000000001442 ) ) ;
#167 = APPLICATION_CONTEXT ( 'configuration controlled 3d designs of mechanical parts and assemblies' ) ;
#168 = CONICAL_SURFACE ( 'NONE', #119, 0.3125000000000000000, 0.7853981633974468357 ) ;
#169 = DIMENSIONAL_EXPONENTS ( 1.000000000000000000, 0.000000000000000000, 0.000000000000000000, 0.000000000000000000, 0.000000000000000000, 0.000000000000000000, 0.000000000000000000 ) ;
#170 = ADVANCED_FACE ( 'NONE', ( #54 ), #84, .F. ) ;
#171 = APPROVAL_ROLE ( '' ) ;
#172 = AXIS2_PLACEMENT_3D ( 'NONE', #308, #390, #213 ) ;
#173 = DATE_AND_TIME ( #383, #95 ) ;
#174 = EDGE_LOOP ( 'NONE', ( #191, #272, #342, #280, #382 ) ) ;
#175 = FACE_OUTER_BOUND ( 'NONE', #196, .T. ) ;
#176 = PRODUCT_DEFINITION_SHAPE ( 'NONE', 'NONE',  #48 ) ;
#177 = ORIENTED_EDGE ( 'NONE', *, *, #355, .T. ) ;
#178 = CIRCLE ( 'NONE', #304, 0.3125000000000000000 ) ;
#179 = DIRECTION ( 'NONE',  ( -2.445032266171691881E-29, 3.492106488988713156E-15, 1.000000000000000000 ) ) ;
#180 = CC_DESIGN_APPROVAL ( #130, ( #48 ) ) ;
#181 = ADVANCED_FACE ( 'NONE', ( #346 ), #367, .T. ) ;
#182 = DIRECTION ( 'NONE',  ( 1.000000000000000000, -6.982962677686269077E-15, 0.000000000000000000 ) ) ;
#183 = DIRECTION ( 'NONE',  ( -2.445468806185136877E-29, 3.491481338843145188E-15, 1.000000000000000000 ) ) ;
#184 = CARTESIAN_POINT ( 'NONE',  ( -2.143905624303602824E-15, -0.3125000000000000555, -0.01999999999999897693 ) ) ;
#185 = AXIS2_PLACEMENT_3D ( 'NONE', #279, #143, #391 ) ;
#186 = DIRECTION ( 'NONE',  ( -2.445032266171691881E-29, 3.492106488988713156E-15, 1.000000000000000000 ) ) ;
#187 = APPROVAL_ROLE ( '' ) ;
#188 = DIRECTION ( 'NONE',  ( -2.445032266171691881E-29, 3.492106488988713156E-15, 1.000000000000000000 ) ) ;
#189 = CARTESIAN_POINT ( 'NONE',  ( -0.3125000000000000000, 2.220446049250313081E-15, -1.537167215704658232E-29 ) ) ;
#190 = FACE_OUTER_BOUND ( 'NONE', #174, .T. ) ;
#191 = ORIENTED_EDGE ( 'NONE', *, *, #206, .F. ) ;
#192 = DIRECTION ( 'NONE',  ( -2.445468806185136597E-29, 3.491481338843145583E-15, 1.000000000000000000 ) ) ;
#193 = DIRECTION ( 'NONE',  ( 1.000000000000000000, -6.982962677686269077E-15, 0.000000000000000000 ) ) ;
#194 = EDGE_CURVE ( 'NONE', #162, #375, #207, .T. ) ;
#195 = DIRECTION ( 'NONE',  ( -2.445032266171691881E-29, 3.492106488988713156E-15, 1.000000000000000000 ) ) ;
#196 = EDGE_LOOP ( 'NONE', ( #410, #127, #205, #323 ) ) ;
#197 = PERSON_AND_ORGANIZATION ( #265, #141 ) ;
#198 = CYLINDRICAL_SURFACE ( 'NONE', #52, 0.3125000000000000000 ) ;
#199 = CC_DESIGN_PERSON_AND_ORGANIZATION_ASSIGNMENT ( #78, #140, ( #404 ) ) ;
#200 = AXIS2_PLACEMENT_3D ( 'NONE', #56, #188, #21 ) ;
#201 = ORIENTED_EDGE ( 'NONE', *, *, #26, .T. ) ;
#202 = DIRECTION ( 'NONE',  ( 6.982962677686265133E-15, 1.000000000000000000, -3.496765431890256920E-15 ) ) ;
#203 = CARTESIAN_POINT ( 'NONE',  ( 1.357748405726407927E-28, -2.033198248281044304E-14, -5.687500000000000000 ) ) ;
#204 = EDGE_LOOP ( 'NONE', ( #3, #338 ) ) ;
#205 = ORIENTED_EDGE ( 'NONE', *, *, #137, .T. ) ;
#206 = EDGE_CURVE ( 'NONE', #19, #234, #165, .T. ) ;
#207 = CIRCLE ( 'NONE', #200, 0.2925000000000012035 ) ;
#208 = VECTOR ( 'NONE', #40, 39.37007874015748143 ) ;
#209 = PERSON_AND_ORGANIZATION_ROLE ( 'design_supplier' ) ;
#210 = CARTESIAN_POINT ( 'NONE',  ( 1.390860383517796215E-28, -1.985780011467039117E-14, -5.687500000000000000 ) ) ;
#211 = PRODUCT ( '31914', '31914', '', ( #39 ) ) ;
#212 = APPROVAL_STATUS ( 'not_yet_approved' ) ;
#213 = DIRECTION ( 'NONE',  ( 6.982962677686265922E-15, 1.000000000000000000, 0.000000000000000000 ) ) ;
#214 = FACE_OUTER_BOUND ( 'NONE', #315, .T. ) ;
#215 = CC_DESIGN_SECURITY_CLASSIFICATION ( #404, ( #305 ) ) ;
#216 = EDGE_CURVE ( 'NONE', #74, #257, #298, .T. ) ;
#217 = ADVANCED_FACE ( 'NONE', ( #66 ), #411, .T. ) ;
#218 = CARTESIAN_POINT ( 'NONE',  ( -2.143905624303602824E-15, -0.3125000000000000555, -0.01999999999999897693 ) ) ;
#219 = CIRCLE ( 'NONE', #335, 0.3125000000000000000 ) ;
#220 =( GEOMETRIC_REPRESENTATION_CONTEXT ( 3 ) GLOBAL_UNCERTAINTY_ASSIGNED_CONTEXT ( ( #156 ) ) GLOBAL_UNIT_ASSIGNED_CONTEXT ( ( #50, #79, #290 ) ) REPRESENTATION_CONTEXT ( 'NONE', 'WORKASPACE' ) );
#221 = PERSON_AND_ORGANIZATION ( #265, #141 ) ;
#222 = ORIENTED_EDGE ( 'NONE', *, *, #369, .F. ) ;
#223 = CARTESIAN_POINT ( 'NONE',  ( 1.390860383517796215E-28, -1.985780011467039117E-14, -5.687500000000000000 ) ) ;
#224 = PERSON_AND_ORGANIZATION ( #265, #141 ) ;
#225 = CARTESIAN_POINT ( 'NONE',  ( 2.042516583223241217E-15, 0.2925000000000012035, -1.627478493414672038E-15 ) ) ;
#226 = PERSON_AND_ORGANIZATION ( #265, #141 ) ;
#227 = ORIENTED_EDGE ( 'NONE', *, *, #357, .T. ) ;
#228 = VECTOR ( 'NONE', #273, 39.37007874015748143 ) ;
#229 = EDGE_LOOP ( 'NONE', ( #160, #76, #43, #253 ) ) ;
#230 = CARTESIAN_POINT ( 'NONE',  ( 2.216893335571587124E-15, 0.3114999999999895630, -3.000000000000001776 ) ) ;
#231 = EDGE_CURVE ( 'NONE', #375, #162, #126, .T. ) ;
#232 = EDGE_LOOP ( 'NONE', ( #132, #134, #354, #158 ) ) ;
#233 = CC_DESIGN_PERSON_AND_ORGANIZATION_ASSIGNMENT ( #221, #372, ( #305 ) ) ;
#234 = VERTEX_POINT ( 'NONE', #72 ) ;
#235 = DIRECTION ( 'NONE',  ( -2.445032266171691881E-29, 3.492106488988713156E-15, 1.000000000000000000 ) ) ;
#236 = APPROVAL_STATUS ( 'not_yet_approved' ) ;
#237 = LOCAL_TIME ( 12, 11, 30.00000000000000000, #276 ) ;
#238 = DIRECTION ( 'NONE',  ( 4.937700262164540154E-15, 0.7071067811865440200, -0.7071067811865510144 ) ) ;
#239 = AXIS2_PLACEMENT_3D ( 'NONE', #115, #246, #16 ) ;
#240 = LINE ( 'NONE', #136, #228 ) ;
#241 = PERSON_AND_ORGANIZATION ( #265, #141 ) ;
#242 = VERTEX_POINT ( 'NONE', #285 ) ;
#243 = CARTESIAN_POINT ( 'NONE',  ( 7.335096798515078164E-29, -1.047631946696614184E-14, -3.000000000000000888 ) ) ;
#244 = CONICAL_SURFACE ( 'NONE', #59, 0.3125000000000000000, 0.7853981633974468357 ) ;
#245 = LENGTH_MEASURE_WITH_UNIT ( LENGTH_MEASURE( 0.02539999999999999897 ), #11 );
#246 = DIRECTION ( 'NONE',  ( 2.438088387897960049E-29, -3.491481338843145188E-15, -1.000000000000000000 ) ) ;
#247 = DIRECTION ( 'NONE',  ( 6.982962677686265922E-15, 1.000000000000000000, -3.496765431890244692E-15 ) ) ;
#248 = LOCAL_TIME ( 12, 11, 30.00000000000000000, #159 ) ;
#249 = ADVANCED_FACE ( 'NONE', ( #214 ), #396, .T. ) ;
#250 = DIRECTION ( 'NONE',  ( 1.000000000000000000, -6.982962677686266711E-15, 4.876176775795936353E-29 ) ) ;
#251 = ORIENTED_EDGE ( 'NONE', *, *, #336, .F. ) ;
#252 = CARTESIAN_POINT ( 'NONE',  ( 7.335096798515078164E-29, -1.047631946696614184E-14, -3.000000000000000888 ) ) ;
#253 = ORIENTED_EDGE ( 'NONE', *, *, #103, .F. ) ;
#254 = APPLICATION_CONTEXT ( 'configuration controlled 3d designs of mechanical parts and assemblies' ) ;
#255 = CARTESIAN_POINT ( 'NONE',  ( 2.220446049250314659E-15, 0.3125000000000002776, -1.091283277808973798E-15 ) ) ;
#256 = CIRCLE ( 'NONE', #277, 0.3114999999999999991 ) ;
#257 = VERTEX_POINT ( 'NONE', #80 ) ;
#258 = DIRECTION ( 'NONE',  ( -2.445468806185136597E-29, 3.491481338843145583E-15, 1.000000000000000000 ) ) ;
#259 = CARTESIAN_POINT ( 'NONE',  ( 2.182175836776958741E-15, 0.3124999999999999445, -0.02000000000000116268 ) ) ;
#260 = ORIENTED_EDGE ( 'NONE', *, *, #271, .F. ) ;
#261 = CC_DESIGN_PERSON_AND_ORGANIZATION_ASSIGNMENT ( #224, #209, ( #305 ) ) ;
#262 = EDGE_LOOP ( 'NONE', ( #227, #177, #317, #67 ) ) ;
#263 = CARTESIAN_POINT ( 'NONE',  ( 7.332651766248905611E-29, -1.047282736047715268E-14, -2.999000000000000554 ) ) ;
#264 = DIRECTION ( 'NONE',  ( 2.445032266171691881E-29, -3.492106488988713156E-15, -1.000000000000000000 ) ) ;
#265 = PERSON ( 'UNSPECIFIED', 'UNSPECIFIED', 'UNSPECIFIED', ('UNSPECIFIED'), ('UNSPECIFIED'), ('UNSPECIFIED') ) ;
#266 = ORIENTED_EDGE ( 'NONE', *, *, #310, .T. ) ;
#267 = AXIS2_PLACEMENT_3D ( 'NONE', #374, #85, #347 ) ;
#268 = CIRCLE ( 'NONE', #343, 0.3125000000000004996 ) ;
#269 = SHAPE_DEFINITION_REPRESENTATION ( #176, #361 ) ;
#270 = VERTEX_POINT ( 'NONE', #113 ) ;
#271 = EDGE_CURVE ( 'NONE', #375, #320, #363, .T. ) ;
#272 = ORIENTED_EDGE ( 'NONE', *, *, #412, .T. ) ;
#273 = DIRECTION ( 'NONE',  ( -2.445032266171692161E-29, 3.492106488988713156E-15, 1.000000000000000000 ) ) ;
#274 = MANIFOLD_SOLID_BREP ( 'Body-Move/Copy2[2]', #350 ) ;
#275 = EDGE_CURVE ( 'NONE', #90, #242, #77, .T. ) ;
#276 = COORDINATED_UNIVERSAL_TIME_OFFSET ( 5, 0, .BEHIND. ) ;
#277 = AXIS2_PLACEMENT_3D ( 'NONE', #405, #186, #104 ) ;
#278 = DIRECTION ( 'NONE',  ( 6.982962677686265133E-15, 1.000000000000000000, -3.496765431890256920E-15 ) ) ;
#279 = CARTESIAN_POINT ( 'NONE',  ( 1.357748405726407927E-28, -2.033198248281044304E-14, -5.687500000000000000 ) ) ;
#280 = ORIENTED_EDGE ( 'NONE', *, *, #340, .T. ) ;
#281 = APPROVAL_ROLE ( '' ) ;
#282 = DIRECTION ( 'NONE',  ( -6.982962677686265922E-15, -1.000000000000000000, 3.492106488988713156E-15 ) ) ;
#283 = FACE_OUTER_BOUND ( 'NONE', #88, .T. ) ;
#284 = DIRECTION ( 'NONE',  ( -2.445032266171691881E-29, 3.492106488988713156E-15, 1.000000000000000000 ) ) ;
#285 = CARTESIAN_POINT ( 'NONE',  ( 2.182175836777099159E-15, 0.3124999999999804601, -5.687500000000000888 ) ) ;
#286 = CALENDAR_DATE ( 2024, 21, 2 ) ;
#287 = CIRCLE ( 'NONE', #87, 0.3125000000000000000 ) ;
#288 = FACE_OUTER_BOUND ( 'NONE', #232, .T. ) ;
#289 = APPROVAL_DATE_TIME ( #12, #13 ) ;
#290 =( NAMED_UNIT ( * ) SI_UNIT ( $, .STERADIAN. ) SOLID_ANGLE_UNIT ( ) );
#291 = FACE_OUTER_BOUND ( 'NONE', #204, .T. ) ;
#292 = EDGE_LOOP ( 'NONE', ( #1, #301 ) ) ;
#293 = CALENDAR_DATE ( 2024, 21, 2 ) ;
#294 = APPROVAL_PERSON_ORGANIZATION ( #241, #20, #171 ) ;
#295 = VERTEX_POINT ( 'NONE', #42 ) ;
#296 = LINE ( 'NONE', #105, #337 ) ;
#297 = CARTESIAN_POINT ( 'NONE',  ( 4.890064532343399911E-31, -6.984212977977449289E-17, -0.02000000000000006981 ) ) ;
#298 = LINE ( 'NONE', #255, #112 ) ;
#299 = CIRCLE ( 'NONE', #24, 0.3114999999999999991 ) ;
#300 = ORIENTED_EDGE ( 'NONE', *, *, #206, .T. ) ;
#301 = ORIENTED_EDGE ( 'NONE', *, *, #397, .F. ) ;
#302 = DIRECTION ( 'NONE',  ( 1.000000000000000000, -6.982962677686262766E-15, 0.000000000000000000 ) ) ;
#303 = CARTESIAN_POINT ( 'NONE',  ( 1.435505503246536289E-28, -2.140393529496225274E-14, -6.000000000000001776 ) ) ;
#304 = AXIS2_PLACEMENT_3D ( 'NONE', #387, #96, #73 ) ;
#305 = PRODUCT_DEFINITION_FORMATION_WITH_SPECIFIED_SOURCE ( 'ANY', '', #211, .NOT_KNOWN. ) ;
#306 = EDGE_CURVE ( 'NONE', #295, #74, #268, .T. ) ;
#307 = CARTESIAN_POINT ( 'NONE',  ( -2.220446049250179369E-15, -0.3125000000000206501, -5.687499999999999112 ) ) ;
#308 = CARTESIAN_POINT ( 'NONE',  ( 1.357748405726407927E-28, -2.033198248281044304E-14, -5.687500000000000000 ) ) ;
#309 = LOCAL_TIME ( 12, 11, 30.00000000000000000, #17 ) ;
#310 = EDGE_CURVE ( 'NONE', #90, #368, #161, .T. ) ;
#311 = CIRCLE ( 'NONE', #81, 0.3125000000000000000 ) ;
#312 = CARTESIAN_POINT ( 'NONE',  ( 2.112346210000099782E-15, 0.2925000000000012035, -2.233515838800140604E-15 ) ) ;
#313 = DIRECTION ( 'NONE',  ( 2.445032266171691881E-29, -3.492106488988713156E-15, -1.000000000000000000 ) ) ;
#314 = PERSON_AND_ORGANIZATION ( #265, #141 ) ;
#315 = EDGE_LOOP ( 'NONE', ( #18, #22, #251, #83 ) ) ;
#316 = EDGE_LOOP ( 'NONE', ( #379, #93 ) ) ;
#317 = ORIENTED_EDGE ( 'NONE', *, *, #306, .F. ) ;
#318 = DIRECTION ( 'NONE',  ( 1.000000000000000000, -6.982962677686266711E-15, 4.876176775795936353E-29 ) ) ;
#319 = VECTOR ( 'NONE', #151, 39.37007874015748143 ) ;
#320 = VERTEX_POINT ( 'NONE', #218 ) ;
#321 = DIRECTION ( 'NONE',  ( -6.982962677686265922E-15, -1.000000000000000000, 3.492106488988713551E-15 ) ) ;
#322 = ADVANCED_FACE ( 'NONE', ( #108 ), #99, .T. ) ;
#323 = ORIENTED_EDGE ( 'NONE', *, *, #94, .F. ) ;
#324 = CIRCLE ( 'NONE', #380, 0.3125000000000000000 ) ;
#325 = ADVANCED_FACE ( 'NONE', ( #291 ), #399, .F. ) ;
#326 = SECURITY_CLASSIFICATION_LEVEL ( 'unclassified' ) ;
#327 = CC_DESIGN_DATE_AND_TIME_ASSIGNMENT ( #370, #341, ( #48 ) ) ;
#328 = SPHERICAL_SURFACE ( 'NONE', #356, 0.3125000000000011102 ) ;
#329 = ADVANCED_FACE ( 'NONE', ( #283 ), #168, .T. ) ;
#330 = ORIENTED_EDGE ( 'NONE', *, *, #340, .F. ) ;
#331 = DIRECTION ( 'NONE',  ( 1.000000000000000000, -6.982962677686262766E-15, 0.000000000000000000 ) ) ;
#332 = APPROVAL_PERSON_ORGANIZATION ( #197, #13, #281 ) ;
#333 = CARTESIAN_POINT ( 'NONE',  ( 0.3125000000000000000, -1.734829790237687290E-14, -5.687500000000000000 ) ) ;
#334 = CARTESIAN_POINT ( 'NONE',  ( -2.175192874099198574E-15, -0.3115000000000104352, -2.999999999999999556 ) ) ;
#335 = AXIS2_PLACEMENT_3D ( 'NONE', #34, #385, #75 ) ;
#336 = EDGE_CURVE ( 'NONE', #320, #257, #287, .T. ) ;
#337 = VECTOR ( 'NONE', #183, 39.37007874015748143 ) ;
#338 = ORIENTED_EDGE ( 'NONE', *, *, #155, .T. ) ;
#339 = DIRECTION ( 'NONE',  ( -6.982962677686265922E-15, -1.000000000000000000, 3.507991003100177457E-15 ) ) ;
#340 = EDGE_CURVE ( 'NONE', #406, #57, #296, .T. ) ;
#341 = DATE_TIME_ROLE ( 'creation_date' ) ;
#342 = ORIENTED_EDGE ( 'NONE', *, *, #109, .T. ) ;
#343 = AXIS2_PLACEMENT_3D ( 'NONE', #146, #284, #7 ) ;
#344 = APPLICATION_PROTOCOL_DEFINITION ( 'international standard', 'config_control_design', 1994, #254 ) ;
#345 = CYLINDRICAL_SURFACE ( 'NONE', #388, 0.3125000000000000000 ) ;
#346 = FACE_OUTER_BOUND ( 'NONE', #262, .T. ) ;
#347 = DIRECTION ( 'NONE',  ( 1.000000000000000000, -6.982962677686262766E-15, 0.000000000000000000 ) ) ;
#348 = ORIENTED_EDGE ( 'NONE', *, *, #103, .T. ) ;
#349 = EDGE_LOOP ( 'NONE', ( #123, #373, #58, #409 ) ) ;
#350 = CLOSED_SHELL ( 'NONE', ( #181, #249, #100, #329, #145, #322, #133, #170 ) ) ;
#351 = DIRECTION ( 'NONE',  ( 6.982962677686265922E-15, 1.000000000000000000, -3.496765431890244692E-15 ) ) ;
#352 = APPROVAL_PERSON_ORGANIZATION ( #314, #130, #187 ) ;
#353 = DESIGN_CONTEXT ( 'detailed design', #167, 'design' ) ;
#354 = ORIENTED_EDGE ( 'NONE', *, *, #26, .F. ) ;
#355 = EDGE_CURVE ( 'NONE', #33, #74, #9, .T. ) ;
#356 = AXIS2_PLACEMENT_3D ( 'NONE', #55, #408, #247 ) ;
#357 = EDGE_CURVE ( 'NONE', #270, #33, #256, .T. ) ;
#358 = EDGE_LOOP ( 'NONE', ( #129, #300, #138, #330, #201 ) ) ;
#359 = ADVANCED_FACE ( 'NONE', ( #288 ), #328, .T. ) ;
#360 = AXIS2_PLACEMENT_3D ( 'NONE', #125, #258, #193 ) ;
#361 = ADVANCED_BREP_SHAPE_REPRESENTATION ( '31914', ( #116, #274, #389 ), #220 ) ;
#362 = DATE_AND_TIME ( #286, #237 ) ;
#363 = LINE ( 'NONE', #184, #208 ) ;
#364 = PERSON_AND_ORGANIZATION_ROLE ( 'design_owner' ) ;
#365 = PRODUCT_RELATED_PRODUCT_CATEGORY ( 'detail', '', ( #211 ) ) ;
#366 = CARTESIAN_POINT ( 'NONE',  ( 0.000000000000000000, 0.000000000000000000, 0.000000000000000000 ) ) ;
#367 = CONICAL_SURFACE ( 'NONE', #395, 0.3114999999999999991, 0.7853981633975165577 ) ;
#368 = VERTEX_POINT ( 'NONE', #307 ) ;
#369 = EDGE_CURVE ( 'NONE', #242, #19, #311, .T. ) ;
#370 = DATE_AND_TIME ( #101, #309 ) ;
#371 = DIRECTION ( 'NONE',  ( -2.445032266171691320E-29, 3.492106488988713156E-15, 1.000000000000000000 ) ) ;
#372 = PERSON_AND_ORGANIZATION_ROLE ( 'creator' ) ;
#373 = ORIENTED_EDGE ( 'NONE', *, *, #397, .T. ) ;
#374 = CARTESIAN_POINT ( 'NONE',  ( 1.390860383517796215E-28, -1.985780011467039117E-14, -5.687500000000000000 ) ) ;
#375 = VERTEX_POINT ( 'NONE', #31 ) ;
#376 = APPLICATION_PROTOCOL_DEFINITION ( 'international standard', 'config_control_design', 1994, #167 ) ;
#377 = DIRECTION ( 'NONE',  ( -2.445468806185136597E-29, 3.491481338843145583E-15, 1.000000000000000000 ) ) ;
#378 = CIRCLE ( 'NONE', #393, 0.3125000000000004996 ) ;
#379 = ORIENTED_EDGE ( 'NONE', *, *, #194, .T. ) ;
#380 = AXIS2_PLACEMENT_3D ( 'NONE', #210, #47, #331 ) ;
#381 = DIRECTION ( 'NONE',  ( -2.445032266171692161E-29, 3.492106488988713156E-15, 1.000000000000000000 ) ) ;
#382 = ORIENTED_EDGE ( 'NONE', *, *, #155, .F. ) ;
#383 = CALENDAR_DATE ( 2024, 21, 2 ) ;
#384 = EDGE_LOOP ( 'NONE', ( #61, #266, #118, #222 ) ) ;
#385 = DIRECTION ( 'NONE',  ( -2.445032266171691881E-29, 3.492106488988713156E-15, 1.000000000000000000 ) ) ;
#386 = CC_DESIGN_APPROVAL ( #20, ( #404 ) ) ;
#387 = CARTESIAN_POINT ( 'NONE',  ( 1.390860383517796215E-28, -1.985780011467039117E-14, -5.687500000000000000 ) ) ;
#388 = AXIS2_PLACEMENT_3D ( 'NONE', #63, #192, #318 ) ;
#389 = AXIS2_PLACEMENT_3D ( 'NONE', #366, #38, #102 ) ;
#390 = DIRECTION ( 'NONE',  ( 1.000000000000000000, -6.982962677686265922E-15, 4.883557194083112340E-29 ) ) ;
#391 = DIRECTION ( 'NONE',  ( -7.105427357601000281E-15, -1.000000000000000000, 0.000000000000000000 ) ) ;
#392 = CARTESIAN_POINT ( 'NONE',  ( 0.000000000000000000, 0.000000000000000000, 0.000000000000000000 ) ) ;
#393 = AXIS2_PLACEMENT_3D ( 'NONE', #263, #46, #35 ) ;
#394 = PLANE ( 'NONE',  #29 ) ;
#395 = AXIS2_PLACEMENT_3D ( 'NONE', #252, #195, #339 ) ;
#396 = CYLINDRICAL_SURFACE ( 'NONE', #30, 0.3125000000000002776 ) ;
#397 = EDGE_CURVE ( 'NONE', #33, #270, #299, .T. ) ;
#398 = CARTESIAN_POINT ( 'NONE',  ( 7.335096798515077043E-29, -1.047631946696613868E-14, -3.000000000000000444 ) ) ;
#399 = PLANE ( 'NONE',  #239 ) ;
#400 = CC_DESIGN_PERSON_AND_ORGANIZATION_ASSIGNMENT ( #62, #364, ( #211 ) ) ;
#401 = CARTESIAN_POINT ( 'NONE',  ( 2.213340621892785042E-15, 0.3114999999999895630, -3.000000000000001776 ) ) ;
#402 = CYLINDRICAL_SURFACE ( 'NONE', #86, 0.3125000000000002776 ) ;
#403 = CIRCLE ( 'NONE', #44, 0.3125000000000000000 ) ;
#404 = SECURITY_CLASSIFICATION ( '', '', #326 ) ;
#405 = CARTESIAN_POINT ( 'NONE',  ( 7.335096798515078164E-29, -1.047631946696614184E-14, -3.000000000000000888 ) ) ;
#406 = VERTEX_POINT ( 'NONE', #333 ) ;
#407 = FACE_OUTER_BOUND ( 'NONE', #358, .T. ) ;
#408 = DIRECTION ( 'NONE',  ( -1.000000000000000000, 6.982962677686265922E-15, -4.883557194083112901E-29 ) ) ;
#409 = ORIENTED_EDGE ( 'NONE', *, *, #135, .F. ) ;
#410 = ORIENTED_EDGE ( 'NONE', *, *, #216, .F. ) ;
#411 = SPHERICAL_SURFACE ( 'NONE', #60, 0.3125000000000011102 ) ;
#412 = EDGE_CURVE ( 'NONE', #19, #368, #324, .T. ) ;
ENDSEC;
END-ISO-10303-21;
