ISO-10303-21;
HEADER;
FILE_DESCRIPTION (( 'STEP AP203' ),
    '1' );
FILE_NAME ('31933.STEP',
    '2024-02-21T17:18:39',
    ( '' ),
    ( '' ),
    'SwSTEP 2.0',
    'SolidWorks 2023',
    '' );
FILE_SCHEMA (( 'CONFIG_CONTROL_DESIGN' ));
ENDSEC;

DATA;
#1 = LOCAL_TIME ( 12, 18, 39.00000000000000000, #230 ) ;
#2 = CALENDAR_DATE ( 2024, 21, 2 ) ;
#3 = ORIENTED_EDGE ( 'NONE', *, *, #155, .F. ) ;
#4 = DIRECTION ( 'NONE',  ( -2.445357092195460350E-29, 3.491641319634726865E-15, 1.000000000000000000 ) ) ;
#5 = CARTESIAN_POINT ( 'NONE',  ( 1.380674675784393582E-28, -2.065930885832698561E-14, -5.781250000000000000 ) ) ;
#6 = ADVANCED_FACE ( 'NONE', ( #18 ), #45, .T. ) ;
#7 = VERTEX_POINT ( 'NONE', #184 ) ;
#8 = AXIS2_PLACEMENT_3D ( 'NONE', #269, #345, #119 ) ;
#9 = VECTOR ( 'NONE', #64, 39.37007874015748143 ) ;
#10 = DATE_TIME_ROLE ( 'classification_date' ) ;
#11 = VERTEX_POINT ( 'NONE', #82 ) ;
#12 = APPROVAL_DATE_TIME ( #104, #350 ) ;
#13 = APPROVAL_STATUS ( 'not_yet_approved' ) ;
#14 = ORIENTED_EDGE ( 'NONE', *, *, #126, .T. ) ;
#15 = PERSON_AND_ORGANIZATION_ROLE ( 'design_supplier' ) ;
#16 = LOCAL_TIME ( 12, 18, 39.00000000000000000, #289 ) ;
#17 = CC_DESIGN_PERSON_AND_ORGANIZATION_ASSIGNMENT ( #397, #15, ( #301 ) ) ;
#18 = FACE_OUTER_BOUND ( 'NONE', #135, .T. ) ;
#19 = DIRECTION ( 'NONE',  ( -6.982962677686265922E-15, -1.000000000000000000, 3.491641319634726471E-15 ) ) ;
#20 = DIRECTION ( 'NONE',  ( -2.445357092195460631E-29, 3.491641319634726865E-15, 1.000000000000000000 ) ) ;
#21 = EDGE_CURVE ( 'NONE', #231, #235, #210, .T. ) ;
#22 = CARTESIAN_POINT ( 'NONE',  ( 7.333625919494186240E-29, -1.047143231758454520E-14, -2.999000000000000110 ) ) ;
#23 = LINE ( 'NONE', #343, #300 ) ;
#24 = LINE ( 'NONE', #349, #85 ) ;
#25 = PRODUCT_DEFINITION_SHAPE ( 'NONE', 'NONE',  #334 ) ;
#26 = DIRECTION ( 'NONE',  ( 1.000000000000000000, -6.982962677686265133E-15, 0.000000000000000000 ) ) ;
#27 = EDGE_CURVE ( 'NONE', #159, #73, #191, .T. ) ;
#28 = CARTESIAN_POINT ( 'NONE',  ( 4.890714184390933313E-31, -6.983282639269472121E-17, -0.02000000000000005246 ) ) ;
#29 = CARTESIAN_POINT ( 'NONE',  ( 0.2187500000000000000, -1.200196710227330483E-14, -2.999999999999999556 ) ) ;
#30 = DIRECTION ( 'NONE',  ( -6.982962677686265922E-15, -1.000000000000000000, 3.492862791899307676E-15 ) ) ;
#31 = AXIS2_PLACEMENT_3D ( 'NONE', #271, #308, #112 ) ;
#32 = ORIENTED_EDGE ( 'NONE', *, *, #325, .F. ) ;
#33 = DIRECTION ( 'NONE',  ( -6.982962677686265922E-15, -1.000000000000000000, 2.509160040104949192E-15 ) ) ;
#34 = ORIENTED_EDGE ( 'NONE', *, *, #391, .T. ) ;
#35 = DIRECTION ( 'NONE',  ( 2.445357092195460631E-29, -3.491641319634726865E-15, -1.000000000000000000 ) ) ;
#36 = ORIENTED_EDGE ( 'NONE', *, *, #87, .F. ) ;
#37 = DESIGN_CONTEXT ( 'detailed design', #366, 'design' ) ;
#38 = DATE_AND_TIME ( #320, #307 ) ;
#39 = AXIS2_PLACEMENT_3D ( 'NONE', #367, #53, #76 ) ;
#40 = AXIS2_PLACEMENT_3D ( 'NONE', #22, #183, #317 ) ;
#41 = ORIENTED_EDGE ( 'NONE', *, *, #325, .T. ) ;
#42 = DATE_TIME_ROLE ( 'creation_date' ) ;
#43 = FACE_OUTER_BOUND ( 'NONE', #98, .T. ) ;
#44 = EDGE_LOOP ( 'NONE', ( #176, #258, #41, #360, #49 ) ) ;
#45 = CONICAL_SURFACE ( 'NONE', #57, 0.2177499999999999991, 0.7853981633977384913 ) ;
#46 =( GEOMETRIC_REPRESENTATION_CONTEXT ( 3 ) GLOBAL_UNCERTAINTY_ASSIGNED_CONTEXT ( ( #189 ) ) GLOBAL_UNIT_ASSIGNED_CONTEXT ( ( #158, #71, #227 ) ) REPRESENTATION_CONTEXT ( 'NONE', 'WORKASPACE' ) );
#47 = ORIENTED_EDGE ( 'NONE', *, *, #77, .T. ) ;
#48 = DATE_AND_TIME ( #229, #1 ) ;
#49 = ORIENTED_EDGE ( 'NONE', *, *, #180, .F. ) ;
#50 = EDGE_CURVE ( 'NONE', #231, #139, #288, .T. ) ;
#51 = EDGE_LOOP ( 'NONE', ( #97, #315, #294, #172 ) ) ;
#52 = CARTESIAN_POINT ( 'NONE',  ( 1.993587369521304244E-44, -2.846574864643979993E-30, -8.152540894268517659E-16 ) ) ;
#53 = DIRECTION ( 'NONE',  ( -2.445357092195460631E-29, 3.491641319634726865E-15, 1.000000000000000000 ) ) ;
#54 = CARTESIAN_POINT ( 'NONE',  ( 1.457693458967011095E-15, 0.1987500000000007871, -1.509217801704256579E-15 ) ) ;
#55 = LINE ( 'NONE', #241, #351 ) ;
#56 = MANIFOLD_SOLID_BREP ( 'Body-Move/Copy2[1]', #322 ) ;
#57 = AXIS2_PLACEMENT_3D ( 'NONE', #268, #364, #74 ) ;
#58 = CONICAL_SURFACE ( 'NONE', #69, 0.2187500000000000278, 0.7853981633974483900 ) ;
#59 = CYLINDRICAL_SURFACE ( 'NONE', #121, 0.2187499999999999445 ) ;
#60 = DIRECTION ( 'NONE',  ( 6.982962677686265922E-15, 1.000000000000000000, -3.491641319634726865E-15 ) ) ;
#61 = CARTESIAN_POINT ( 'NONE',  ( 1.527523085743871237E-15, 0.2187499999999999445, -0.02000000000000081574 ) ) ;
#62 = CARTESIAN_POINT ( 'NONE',  ( -1.527523085743872026E-15, -0.2187500000000001943, 7.637965386700971057E-16 ) ) ;
#63 = SPHERICAL_SURFACE ( 'NONE', #108, 0.2187500000000010270 ) ;
#64 = DIRECTION ( 'NONE',  ( -2.445468806185136877E-29, 3.491481338843145188E-15, 1.000000000000000000 ) ) ;
#65 = AXIS2_PLACEMENT_3D ( 'NONE', #377, #81, #152 ) ;
#66 = ORIENTED_EDGE ( 'NONE', *, *, #217, .F. ) ;
#67 = COORDINATED_UNIVERSAL_TIME_OFFSET ( 5, 0, .BEHIND. ) ;
#68 = EDGE_CURVE ( 'NONE', #362, #237, #23, .T. ) ;
#69 = AXIS2_PLACEMENT_3D ( 'NONE', #342, #35, #328 ) ;
#70 = ADVANCED_FACE ( 'NONE', ( #403 ), #341, .T. ) ;
#71 =( NAMED_UNIT ( * ) PLANE_ANGLE_UNIT ( ) SI_UNIT ( $, .RADIAN. ) );
#72 = EDGE_LOOP ( 'NONE', ( #327, #354 ) ) ;
#73 = VERTEX_POINT ( 'NONE', #274 ) ;
#74 = DIRECTION ( 'NONE',  ( -6.982962677686265922E-15, -1.000000000000000000, 2.509160040104949192E-15 ) ) ;
#75 = ORIENTED_EDGE ( 'NONE', *, *, #21, .T. ) ;
#76 = DIRECTION ( 'NONE',  ( -6.982962677686265922E-15, -1.000000000000000000, 3.491641319634726471E-15 ) ) ;
#77 = EDGE_CURVE ( 'NONE', #140, #235, #84, .T. ) ;
#78 = CC_DESIGN_SECURITY_CLASSIFICATION ( #130, ( #301 ) ) ;
#79 = DIRECTION ( 'NONE',  ( -2.445357092195460631E-29, 3.491641319634726865E-15, 1.000000000000000000 ) ) ;
#80 = FACE_OUTER_BOUND ( 'NONE', #396, .T. ) ;
#81 = DIRECTION ( 'NONE',  ( -1.000000000000000000, 7.105427357601001070E-15, -4.926315508542082329E-29 ) ) ;
#82 = CARTESIAN_POINT ( 'NONE',  ( -0.2187500000000000000, -1.377547301888296510E-14, -2.999999999999999556 ) ) ;
#83 = CARTESIAN_POINT ( 'NONE',  ( 4.890714184390933313E-31, -6.983282639269472121E-17, -0.02000000000000005246 ) ) ;
#84 = CIRCLE ( 'NONE', #332, 0.2187500000000000278 ) ;
#85 = VECTOR ( 'NONE', #275, 39.37007874015748143 ) ;
#86 = DIRECTION ( 'NONE',  ( -1.000000000000000000, 6.982962677686265922E-15, -4.876176775795935793E-29 ) ) ;
#87 = EDGE_CURVE ( 'NONE', #139, #231, #107, .T. ) ;
#88 = DIRECTION ( 'NONE',  ( -2.445357092195460350E-29, 3.491641319634726865E-15, 1.000000000000000000 ) ) ;
#89 = CARTESIAN_POINT ( 'NONE',  ( -0.2187499999999999445, -1.377547301888296510E-14, -5.781250000000000000 ) ) ;
#90 = CARTESIAN_POINT ( 'NONE',  ( -0.2187499999999999445, 1.554312234475218762E-15, -1.076017050993260482E-29 ) ) ;
#91 = DIRECTION ( 'NONE',  ( -1.000000000000000000, 6.982962677686265922E-15, -4.883557194083113462E-29 ) ) ;
#92 = APPROVAL_ROLE ( '' ) ;
#93 = ADVANCED_FACE ( 'NONE', ( #398 ), #148, .F. ) ;
#94 = AXIS2_PLACEMENT_3D ( 'NONE', #150, #340, #114 ) ;
#95 = ORGANIZATION ( 'UNSPECIFIED', 'UNSPECIFIED', '' ) ;
#96 = DIRECTION ( 'NONE',  ( 6.982962677686265133E-15, 1.000000000000000000, 0.000000000000000000 ) ) ;
#97 = ORIENTED_EDGE ( 'NONE', *, *, #379, .F. ) ;
#98 = EDGE_LOOP ( 'NONE', ( #201, #221 ) ) ;
#99 = AXIS2_PLACEMENT_3D ( 'NONE', #353, #132, #356 ) ;
#100 = CARTESIAN_POINT ( 'NONE',  ( 0.2187499999999999445, -1.685730833910205431E-14, -5.781250000000000000 ) ) ;
#101 = PERSON_AND_ORGANIZATION ( #285, #95 ) ;
#102 = ORIENTED_EDGE ( 'NONE', *, *, #118, .F. ) ;
#103 = APPROVAL_ROLE ( '' ) ;
#104 = DATE_AND_TIME ( #336, #339 ) ;
#105 = ADVANCED_FACE ( 'NONE', ( #304 ), #116, .T. ) ;
#106 = ORIENTED_EDGE ( 'NONE', *, *, #310, .T. ) ;
#107 = CIRCLE ( 'NONE', #407, 0.1987500000000007871 ) ;
#108 = AXIS2_PLACEMENT_3D ( 'NONE', #250, #91, #279 ) ;
#109 = EDGE_LOOP ( 'NONE', ( #390, #293, #266, #319 ) ) ;
#110 = APPLICATION_CONTEXT ( 'configuration controlled 3d designs of mechanical parts and assemblies' ) ;
#111 = DIRECTION ( 'NONE',  ( -2.445357092195460631E-29, 3.491641319634726865E-15, 1.000000000000000000 ) ) ;
#112 = DIRECTION ( 'NONE',  ( 1.000000000000000000, -6.982962677686265133E-15, 0.000000000000000000 ) ) ;
#113 = AXIS2_PLACEMENT_3D ( 'NONE', #311, #120, #344 ) ;
#114 = DIRECTION ( 'NONE',  ( 1.000000000000000000, -6.982962677686265133E-15, 0.000000000000000000 ) ) ;
#115 = CARTESIAN_POINT ( 'NONE',  ( 1.380674675784393582E-28, -2.065930885832698561E-14, -5.781250000000000000 ) ) ;
#116 = CYLINDRICAL_SURFACE ( 'NONE', #225, 0.2187500000000001943 ) ;
#117 = CARTESIAN_POINT ( 'NONE',  ( 1.550759520796492805E-15, 0.2177499999999895075, -3.000000000000000444 ) ) ;
#118 = EDGE_CURVE ( 'NONE', #237, #11, #383, .T. ) ;
#119 = DIRECTION ( 'NONE',  ( 1.000000000000000000, -6.982962677686265133E-15, 0.000000000000000000 ) ) ;
#120 = DIRECTION ( 'NONE',  ( -2.445357092195460631E-29, 3.491641319634726865E-15, 1.000000000000000000 ) ) ;
#121 = AXIS2_PLACEMENT_3D ( 'NONE', #309, #245, #187 ) ;
#122 = CC_DESIGN_APPROVAL ( #255, ( #130 ) ) ;
#123 = CARTESIAN_POINT ( 'NONE',  ( -1.432128957034809564E-15, -0.1987500000000007871, -1.212903771494471011E-16 ) ) ;
#124 = DIRECTION ( 'NONE',  ( 2.445357092195460631E-29, -3.491641319634726865E-15, -1.000000000000000000 ) ) ;
#125 = CARTESIAN_POINT ( 'NONE',  ( -1.527523085743799845E-15, -0.2187500000000108524, -2.998999999999999222 ) ) ;
#126 = EDGE_CURVE ( 'NONE', #7, #159, #197, .T. ) ;
#127 = PERSON_AND_ORGANIZATION ( #285, #95 ) ;
#128 = ORIENTED_EDGE ( 'NONE', *, *, #408, .F. ) ;
#129 = PLANE ( 'NONE',  #281 ) ;
#130 = SECURITY_CLASSIFICATION ( '', '', #137 ) ;
#131 = ORIENTED_EDGE ( 'NONE', *, *, #87, .T. ) ;
#132 = DIRECTION ( 'NONE',  ( 0.000000000000000000, 0.000000000000000000, 1.000000000000000000 ) ) ;
#133 = ORIENTED_EDGE ( 'NONE', *, *, #166, .T. ) ;
#134 = DIRECTION ( 'NONE',  ( -4.937700262165980614E-15, -0.7071067811867502995, 0.7071067811863447350 ) ) ;
#135 = EDGE_LOOP ( 'NONE', ( #330, #142, #66, #128 ) ) ;
#136 = ADVANCED_FACE ( 'NONE', ( #238 ), #59, .T. ) ;
#137 = SECURITY_CLASSIFICATION_LEVEL ( 'unclassified' ) ;
#138 = PRODUCT ( '31933', '31933', '', ( #388 ) ) ;
#139 = VERTEX_POINT ( 'NONE', #123 ) ;
#140 = VERTEX_POINT ( 'NONE', #156 ) ;
#141 = PRODUCT_RELATED_PRODUCT_CATEGORY ( 'detail', '', ( #138 ) ) ;
#142 = ORIENTED_EDGE ( 'NONE', *, *, #278, .T. ) ;
#143 = DIRECTION ( 'NONE',  ( -2.445468806185136597E-29, 3.491481338843145583E-15, 1.000000000000000000 ) ) ;
#144 = ADVANCED_BREP_SHAPE_REPRESENTATION ( '31933', ( #56, #324, #99 ), #46 ) ;
#145 = DIRECTION ( 'NONE',  ( -6.982962677686265922E-15, -1.000000000000000000, 3.492862791899307676E-15 ) ) ;
#146 = LINE ( 'NONE', #62, #316 ) ;
#147 = AXIS2_PLACEMENT_3D ( 'NONE', #283, #411, #219 ) ;
#148 = PLANE ( 'NONE',  #375 ) ;
#149 = PLANE ( 'NONE',  #215 ) ;
#150 = CARTESIAN_POINT ( 'NONE',  ( 1.413786653575781871E-28, -2.018512649018693374E-14, -5.781250000000000000 ) ) ;
#151 = FACE_OUTER_BOUND ( 'NONE', #44, .T. ) ;
#152 = DIRECTION ( 'NONE',  ( -7.105427357601000281E-15, -1.000000000000000000, 0.000000000000000000 ) ) ;
#153 = AXIS2_PLACEMENT_3D ( 'NONE', #214, #143, #373 ) ;
#154 = APPROVAL_PERSON_ORGANIZATION ( #233, #255, #359 ) ;
#155 = EDGE_CURVE ( 'NONE', #235, #140, #168, .T. ) ;
#156 = CARTESIAN_POINT ( 'NONE',  ( -1.500733937012521938E-15, -0.2187500000000000833, -0.01999999999999928571 ) ) ;
#157 = EDGE_LOOP ( 'NONE', ( #36, #171, #47, #329 ) ) ;
#158 =( CONVERSION_BASED_UNIT ( 'INCH', #200 ) LENGTH_UNIT ( ) NAMED_UNIT ( #232 ) );
#159 = VERTEX_POINT ( 'NONE', #89 ) ;
#160 = APPROVAL_DATE_TIME ( #38, #387 ) ;
#161 = EDGE_LOOP ( 'NONE', ( #204, #131 ) ) ;
#162 = PERSON_AND_ORGANIZATION_ROLE ( 'creator' ) ;
#163 = AXIS2_PLACEMENT_3D ( 'NONE', #358, #252, #193 ) ;
#164 = LOCAL_TIME ( 12, 18, 39.00000000000000000, #331 ) ;
#165 = VERTEX_POINT ( 'NONE', #125 ) ;
#166 = EDGE_CURVE ( 'NONE', #335, #165, #246, .T. ) ;
#167 = EDGE_LOOP ( 'NONE', ( #256, #34, #262, #296 ) ) ;
#168 = CIRCLE ( 'NONE', #400, 0.2187500000000000278 ) ;
#169 = ADVANCED_FACE ( 'NONE', ( #381 ), #63, .T. ) ;
#170 = CIRCLE ( 'NONE', #40, 0.2187500000000003608 ) ;
#171 = ORIENTED_EDGE ( 'NONE', *, *, #303, .T. ) ;
#172 = ORIENTED_EDGE ( 'NONE', *, *, #126, .F. ) ;
#173 = PERSON_AND_ORGANIZATION ( #285, #95 ) ;
#174 = VERTEX_POINT ( 'NONE', #248 ) ;
#175 = CC_DESIGN_PERSON_AND_ORGANIZATION_ASSIGNMENT ( #101, #392, ( #301 ) ) ;
#176 = ORIENTED_EDGE ( 'NONE', *, *, #310, .F. ) ;
#177 = CC_DESIGN_APPROVAL ( #387, ( #334 ) ) ;
#178 = CARTESIAN_POINT ( 'NONE',  ( 1.527523085743943813E-15, 0.2187499999999895084, -3.000000000000000444 ) ) ;
#179 = FACE_OUTER_BOUND ( 'NONE', #161, .T. ) ;
#180 = EDGE_CURVE ( 'NONE', #11, #237, #295, .T. ) ;
#181 = LINE ( 'NONE', #90, #9 ) ;
#182 = CC_DESIGN_APPROVAL ( #350, ( #301 ) ) ;
#183 = DIRECTION ( 'NONE',  ( -2.445357092195460631E-29, 3.491641319634726865E-15, 1.000000000000000000 ) ) ;
#184 = CARTESIAN_POINT ( 'NONE',  ( 1.527523085744013627E-15, 0.2187499999999800715, -5.781250000000000888 ) ) ;
#185 = FACE_OUTER_BOUND ( 'NONE', #302, .T. ) ;
#186 = EDGE_CURVE ( 'NONE', #195, #223, #273, .T. ) ;
#187 = DIRECTION ( 'NONE',  ( 1.000000000000000000, -6.982962677686266711E-15, 4.876176775795935232E-29 ) ) ;
#188 = ORIENTED_EDGE ( 'NONE', *, *, #303, .F. ) ;
#189 = UNCERTAINTY_MEASURE_WITH_UNIT (LENGTH_MEASURE( 1.000000000000000082E-05 ), #158, 'distance_accuracy_value', 'NONE');
#190 = DIRECTION ( 'NONE',  ( -2.445357092195460631E-29, 3.491641319634726865E-15, 1.000000000000000000 ) ) ;
#191 = CIRCLE ( 'NONE', #94, 0.2187499999999999445 ) ;
#192 = CIRCLE ( 'NONE', #203, 0.2187500000000010270 ) ;
#193 = DIRECTION ( 'NONE',  ( -6.982962677686265922E-15, -1.000000000000000000, 2.509160040104949192E-15 ) ) ;
#194 = DIRECTION ( 'NONE',  ( -6.982962677686265922E-15, -1.000000000000000000, 3.491641319634726865E-15 ) ) ;
#195 = VERTEX_POINT ( 'NONE', #240 ) ;
#196 = DIRECTION ( 'NONE',  ( 1.000000000000000000, -6.982962677686265922E-15, 4.883557194083112340E-29 ) ) ;
#197 = CIRCLE ( 'NONE', #8, 0.2187499999999999445 ) ;
#198 = AXIS2_PLACEMENT_3D ( 'NONE', #115, #374, #410 ) ;
#199 = ORIENTED_EDGE ( 'NONE', *, *, #50, .F. ) ;
#200 = LENGTH_MEASURE_WITH_UNIT ( LENGTH_MEASURE( 0.02539999999999999897 ), #321 );
#201 = ORIENTED_EDGE ( 'NONE', *, *, #186, .F. ) ;
#202 = PERSON_AND_ORGANIZATION ( #285, #95 ) ;
#203 = AXIS2_PLACEMENT_3D ( 'NONE', #5, #196, #96 ) ;
#204 = ORIENTED_EDGE ( 'NONE', *, *, #50, .T. ) ;
#205 = CALENDAR_DATE ( 2024, 21, 2 ) ;
#206 = ORIENTED_EDGE ( 'NONE', *, *, #236, .F. ) ;
#207 = ADVANCED_FACE ( 'NONE', ( #179 ), #149, .F. ) ;
#208 = DIRECTION ( 'NONE',  ( -6.982962677686266711E-15, -1.000000000000000000, 3.491641319634726471E-15 ) ) ;
#209 = AXIS2_PLACEMENT_3D ( 'NONE', #369, #190, #33 ) ;
#210 = LINE ( 'NONE', #61, #290 ) ;
#211 = LINE ( 'NONE', #380, #226 ) ;
#212 = ADVANCED_FACE ( 'NONE', ( #151 ), #399, .T. ) ;
#213 = DIRECTION ( 'NONE',  ( -4.851104656540964275E-15, -0.7071067811865500152, -0.7071067811865450192 ) ) ;
#214 = CARTESIAN_POINT ( 'NONE',  ( 7.336406418555408669E-29, -1.047444401652943478E-14, -2.999999999999999556 ) ) ;
#215 = AXIS2_PLACEMENT_3D ( 'NONE', #404, #406, #60 ) ;
#216 = CARTESIAN_POINT ( 'NONE',  ( 1.554312234475257811E-15, 0.2187499999999898692, -2.999000000000000554 ) ) ;
#217 = EDGE_CURVE ( 'NONE', #165, #335, #170, .T. ) ;
#218 = DIRECTION ( 'NONE',  ( -2.445468806185136597E-29, 3.491481338843145583E-15, 1.000000000000000000 ) ) ;
#219 = DIRECTION ( 'NONE',  ( -6.982962677686265922E-15, -1.000000000000000000, 2.497689594207322427E-15 ) ) ;
#220 = CARTESIAN_POINT ( 'NONE',  ( 1.527523085743871237E-15, 0.2187499999999999445, -0.02000000000000081574 ) ) ;
#221 = ORIENTED_EDGE ( 'NONE', *, *, #391, .F. ) ;
#222 = AXIS2_PLACEMENT_3D ( 'NONE', #402, #218, #305 ) ;
#223 = VERTEX_POINT ( 'NONE', #117 ) ;
#224 = APPLICATION_PROTOCOL_DEFINITION ( 'international standard', 'config_control_design', 1994, #366 ) ;
#225 = AXIS2_PLACEMENT_3D ( 'NONE', #242, #111, #19 ) ;
#226 = VECTOR ( 'NONE', #213, 39.37007874015748143 ) ;
#227 =( NAMED_UNIT ( * ) SI_UNIT ( $, .STERADIAN. ) SOLID_ANGLE_UNIT ( ) );
#228 = EDGE_CURVE ( 'NONE', #165, #140, #146, .T. ) ;
#229 = CALENDAR_DATE ( 2024, 21, 2 ) ;
#230 = COORDINATED_UNIVERSAL_TIME_OFFSET ( 5, 0, .BEHIND. ) ;
#231 = VERTEX_POINT ( 'NONE', #54 ) ;
#232 = DIMENSIONAL_EXPONENTS ( 1.000000000000000000, 0.000000000000000000, 0.000000000000000000, 0.000000000000000000, 0.000000000000000000, 0.000000000000000000, 0.000000000000000000 ) ;
#233 = PERSON_AND_ORGANIZATION ( #285, #95 ) ;
#234 = CLOSED_SHELL ( 'NONE', ( #6, #105, #239, #361, #70, #318, #401, #207 ) ) ;
#235 = VERTEX_POINT ( 'NONE', #220 ) ;
#236 = EDGE_CURVE ( 'NONE', #362, #7, #389, .T. ) ;
#237 = VERTEX_POINT ( 'NONE', #29 ) ;
#238 = FACE_OUTER_BOUND ( 'NONE', #260, .T. ) ;
#239 = ADVANCED_FACE ( 'NONE', ( #313 ), #368, .T. ) ;
#240 = CARTESIAN_POINT ( 'NONE',  ( -1.520540123066111070E-15, -0.2177500000000104630, -2.999999999999999112 ) ) ;
#241 = CARTESIAN_POINT ( 'NONE',  ( 1.554312234475220340E-15, 0.2187500000000001943, -7.637965386700971057E-16 ) ) ;
#242 = CARTESIAN_POINT ( 'NONE',  ( 0.000000000000000000, 0.000000000000000000, 0.000000000000000000 ) ) ;
#243 = CARTESIAN_POINT ( 'NONE',  ( 1.413786653575781871E-28, -2.018512649018693374E-14, -5.781250000000000000 ) ) ;
#244 = CC_DESIGN_PERSON_AND_ORGANIZATION_ASSIGNMENT ( #287, #162, ( #334 ) ) ;
#245 = DIRECTION ( 'NONE',  ( -2.445468806185136597E-29, 3.491481338843145583E-15, 1.000000000000000000 ) ) ;
#246 = CIRCLE ( 'NONE', #147, 0.2187500000000003608 ) ;
#247 = DIRECTION ( 'NONE',  ( -2.445468806185136597E-29, 3.491481338843145583E-15, 1.000000000000000000 ) ) ;
#248 = CARTESIAN_POINT ( 'NONE',  ( 1.435104644048483615E-28, -2.140967582683325082E-14, -6.000000000000000888 ) ) ;
#249 = DIRECTION ( 'NONE',  ( 1.000000000000000000, -6.982962677686262766E-15, 0.000000000000000000 ) ) ;
#250 = CARTESIAN_POINT ( 'NONE',  ( 1.380674675784393582E-28, -2.065930885832698561E-14, -5.781250000000000000 ) ) ;
#251 = APPLICATION_PROTOCOL_DEFINITION ( 'international standard', 'config_control_design', 1994, #110 ) ;
#252 = DIRECTION ( 'NONE',  ( -2.445357092195460631E-29, 3.491641319634726865E-15, 1.000000000000000000 ) ) ;
#253 = ORIENTED_EDGE ( 'NONE', *, *, #379, .T. ) ;
#254 = CARTESIAN_POINT ( 'NONE',  ( 7.336071276586380771E-29, -1.047492395890417941E-14, -2.999999999999999556 ) ) ;
#255 = APPROVAL ( #13, 'UNSPECIFIED' ) ;
#256 = ORIENTED_EDGE ( 'NONE', *, *, #278, .F. ) ;
#257 = AXIS2_PLACEMENT_3D ( 'NONE', #83, #124, #277 ) ;
#258 = ORIENTED_EDGE ( 'NONE', *, *, #27, .T. ) ;
#259 = SHAPE_DEFINITION_REPRESENTATION ( #25, #144 ) ;
#260 = EDGE_LOOP ( 'NONE', ( #14, #106, #102, #393, #299 ) ) ;
#261 = COORDINATED_UNIVERSAL_TIME_OFFSET ( 5, 0, .BEHIND. ) ;
#262 = ORIENTED_EDGE ( 'NONE', *, *, #408, .T. ) ;
#263 = DATE_AND_TIME ( #205, #164 ) ;
#264 = CC_DESIGN_PERSON_AND_ORGANIZATION_ASSIGNMENT ( #385, #412, ( #138 ) ) ;
#265 = AXIS2_PLACEMENT_3D ( 'NONE', #243, #247, #26 ) ;
#266 = ORIENTED_EDGE ( 'NONE', *, *, #77, .F. ) ;
#267 = APPROVAL_DATE_TIME ( #263, #255 ) ;
#268 = CARTESIAN_POINT ( 'NONE',  ( 7.336071276586380771E-29, -1.047492395890417941E-14, -2.999999999999999556 ) ) ;
#269 = CARTESIAN_POINT ( 'NONE',  ( 1.413786653575781871E-28, -2.018512649018693374E-14, -5.781250000000000000 ) ) ;
#270 = CC_DESIGN_PERSON_AND_ORGANIZATION_ASSIGNMENT ( #173, #394, ( #130 ) ) ;
#271 = CARTESIAN_POINT ( 'NONE',  ( 1.413786653575781871E-28, -2.018512649018693374E-14, -5.781250000000000000 ) ) ;
#272 = DIRECTION ( 'NONE',  ( -2.445357092195460631E-29, 3.491641319634726865E-15, 1.000000000000000000 ) ) ;
#273 = CIRCLE ( 'NONE', #113, 0.2177499999999999991 ) ;
#274 = CARTESIAN_POINT ( 'NONE',  ( -1.554312234475082486E-15, -0.2187500000000209277, -5.781249999999999112 ) ) ;
#275 = DIRECTION ( 'NONE',  ( 5.024295867789520205E-15, 0.7071067811867551844, 0.7071067811863398500 ) ) ;
#276 = DIRECTION ( 'NONE',  ( -6.982962677686266711E-15, -1.000000000000000000, 3.491641319634726471E-15 ) ) ;
#277 = DIRECTION ( 'NONE',  ( 6.982962677686265922E-15, 1.000000000000000000, -3.492862791899307676E-15 ) ) ;
#278 = EDGE_CURVE ( 'NONE', #223, #335, #24, .T. ) ;
#279 = DIRECTION ( 'NONE',  ( 6.982962677686265922E-15, 1.000000000000000000, -4.995379188414629865E-15 ) ) ;
#280 = AXIS2_PLACEMENT_3D ( 'NONE', #52, #79, #276 ) ;
#281 = AXIS2_PLACEMENT_3D ( 'NONE', #254, #4, #194 ) ;
#282 = SPHERICAL_SURFACE ( 'NONE', #198, 0.2187500000000010270 ) ;
#283 = CARTESIAN_POINT ( 'NONE',  ( 7.333625919494186240E-29, -1.047143231758454520E-14, -2.999000000000000110 ) ) ;
#284 = ORIENTED_EDGE ( 'NONE', *, *, #155, .T. ) ;
#285 = PERSON ( 'UNSPECIFIED', 'UNSPECIFIED', 'UNSPECIFIED', ('UNSPECIFIED'), ('UNSPECIFIED'), ('UNSPECIFIED') ) ;
#286 = EDGE_CURVE ( 'NONE', #174, #73, #326, .T. ) ;
#287 = PERSON_AND_ORGANIZATION ( #285, #95 ) ;
#288 = CIRCLE ( 'NONE', #280, 0.1987500000000007871 ) ;
#289 = COORDINATED_UNIVERSAL_TIME_OFFSET ( 5, 0, .BEHIND. ) ;
#290 = VECTOR ( 'NONE', #370, 39.37007874015748143 ) ;
#291 = EDGE_LOOP ( 'NONE', ( #297, #133, #365, #3 ) ) ;
#292 = ADVANCED_FACE ( 'NONE', ( #185 ), #282, .T. ) ;
#293 = ORIENTED_EDGE ( 'NONE', *, *, #298, .T. ) ;
#294 = ORIENTED_EDGE ( 'NONE', *, *, #27, .F. ) ;
#295 = CIRCLE ( 'NONE', #384, 0.2187500000000000000 ) ;
#296 = ORIENTED_EDGE ( 'NONE', *, *, #166, .F. ) ;
#297 = ORIENTED_EDGE ( 'NONE', *, *, #298, .F. ) ;
#298 = EDGE_CURVE ( 'NONE', #335, #235, #55, .T. ) ;
#299 = ORIENTED_EDGE ( 'NONE', *, *, #236, .T. ) ;
#300 = VECTOR ( 'NONE', #312, 39.37007874015748143 ) ;
#301 = PRODUCT_DEFINITION_FORMATION_WITH_SPECIFIED_SOURCE ( 'ANY', '', #138, .NOT_KNOWN. ) ;
#302 = EDGE_LOOP ( 'NONE', ( #352, #253, #206, #32 ) ) ;
#303 = EDGE_CURVE ( 'NONE', #139, #140, #211, .T. ) ;
#304 = FACE_OUTER_BOUND ( 'NONE', #109, .T. ) ;
#305 = DIRECTION ( 'NONE',  ( 1.000000000000000000, -6.982962677686266711E-15, 4.876176775795935232E-29 ) ) ;
#306 = CARTESIAN_POINT ( 'NONE',  ( 1.993587369521304244E-44, -2.846574864643979993E-30, -8.152540894268517659E-16 ) ) ;
#307 = LOCAL_TIME ( 12, 18, 39.00000000000000000, #67 ) ;
#308 = DIRECTION ( 'NONE',  ( -2.445468806185136597E-29, 3.491481338843145583E-15, 1.000000000000000000 ) ) ;
#309 = CARTESIAN_POINT ( 'NONE',  ( 0.000000000000000000, 0.000000000000000000, 0.000000000000000000 ) ) ;
#310 = EDGE_CURVE ( 'NONE', #159, #11, #181, .T. ) ;
#311 = CARTESIAN_POINT ( 'NONE',  ( 7.336071276586380771E-29, -1.047492395890417941E-14, -2.999999999999999556 ) ) ;
#312 = DIRECTION ( 'NONE',  ( -2.445468806185136877E-29, 3.491481338843145188E-15, 1.000000000000000000 ) ) ;
#313 = FACE_OUTER_BOUND ( 'NONE', #157, .T. ) ;
#314 = DIRECTION ( 'NONE',  ( -2.445357092195460631E-29, 3.491641319634726865E-15, 1.000000000000000000 ) ) ;
#315 = ORIENTED_EDGE ( 'NONE', *, *, #286, .T. ) ;
#316 = VECTOR ( 'NONE', #347, 39.37007874015748143 ) ;
#317 = DIRECTION ( 'NONE',  ( -6.982962677686265922E-15, -1.000000000000000000, 2.497689594207322427E-15 ) ) ;
#318 = ADVANCED_FACE ( 'NONE', ( #371 ), #409, .T. ) ;
#319 = ORIENTED_EDGE ( 'NONE', *, *, #228, .F. ) ;
#320 = CALENDAR_DATE ( 2024, 21, 2 ) ;
#321 =( LENGTH_UNIT ( ) NAMED_UNIT ( * ) SI_UNIT ( $, .METRE. ) );
#322 = CLOSED_SHELL ( 'NONE', ( #136, #169, #292, #93, #212 ) ) ;
#323 = CARTESIAN_POINT ( 'NONE',  ( -1.520540123066111070E-15, -0.2177500000000104630, -2.999999999999999112 ) ) ;
#324 = MANIFOLD_SOLID_BREP ( 'Body-Move/Copy2[2]', #234 ) ;
#325 = EDGE_CURVE ( 'NONE', #73, #362, #357, .T. ) ;
#326 = CIRCLE ( 'NONE', #65, 0.2187500000000010270 ) ;
#327 = ORIENTED_EDGE ( 'NONE', *, *, #118, .T. ) ;
#328 = DIRECTION ( 'NONE',  ( 6.982962677686265922E-15, 1.000000000000000000, -3.492862791899307676E-15 ) ) ;
#329 = ORIENTED_EDGE ( 'NONE', *, *, #21, .F. ) ;
#330 = ORIENTED_EDGE ( 'NONE', *, *, #186, .T. ) ;
#331 = COORDINATED_UNIVERSAL_TIME_OFFSET ( 5, 0, .BEHIND. ) ;
#332 = AXIS2_PLACEMENT_3D ( 'NONE', #28, #20, #145 ) ;
#333 = APPROVAL_PERSON_ORGANIZATION ( #127, #387, #92 ) ;
#334 = PRODUCT_DEFINITION ( 'UNKNOWN', '', #301, #37 ) ;
#335 = VERTEX_POINT ( 'NONE', #216 ) ;
#336 = CALENDAR_DATE ( 2024, 21, 2 ) ;
#337 = APPROVAL_STATUS ( 'not_yet_approved' ) ;
#338 = CC_DESIGN_DATE_AND_TIME_ASSIGNMENT ( #355, #42, ( #334 ) ) ;
#339 = LOCAL_TIME ( 12, 18, 39.00000000000000000, #261 ) ;
#340 = DIRECTION ( 'NONE',  ( -2.445468806185136597E-29, 3.491481338843145583E-15, 1.000000000000000000 ) ) ;
#341 = CYLINDRICAL_SURFACE ( 'NONE', #39, 0.2187500000000001943 ) ;
#342 = CARTESIAN_POINT ( 'NONE',  ( 4.890714184390933313E-31, -6.983282639269472121E-17, -0.02000000000000005246 ) ) ;
#343 = CARTESIAN_POINT ( 'NONE',  ( 0.2187499999999999445, -1.527523085743870449E-15, 1.066663669705360604E-29 ) ) ;
#344 = DIRECTION ( 'NONE',  ( -6.982962677686265922E-15, -1.000000000000000000, 2.509160040104949192E-15 ) ) ;
#345 = DIRECTION ( 'NONE',  ( -2.445468806185136597E-29, 3.491481338843145583E-15, 1.000000000000000000 ) ) ;
#346 = DIRECTION ( 'NONE',  ( -2.445468806185136597E-29, 3.491481338843145583E-15, 1.000000000000000000 ) ) ;
#347 = DIRECTION ( 'NONE',  ( -2.445357092195460350E-29, 3.491641319634726865E-15, 1.000000000000000000 ) ) ;
#348 = CARTESIAN_POINT ( 'NONE',  ( 7.336406418555408669E-29, -1.047444401652943478E-14, -2.999999999999999556 ) ) ;
#349 = CARTESIAN_POINT ( 'NONE',  ( 1.547206807117691118E-15, 0.2177499999999895075, -3.000000000000000444 ) ) ;
#350 = APPROVAL ( #337, 'UNSPECIFIED' ) ;
#351 = VECTOR ( 'NONE', #88, 39.37007874015748143 ) ;
#352 = ORIENTED_EDGE ( 'NONE', *, *, #286, .F. ) ;
#353 = CARTESIAN_POINT ( 'NONE',  ( 0.000000000000000000, 0.000000000000000000, 0.000000000000000000 ) ) ;
#354 = ORIENTED_EDGE ( 'NONE', *, *, #180, .T. ) ;
#355 = DATE_AND_TIME ( #2, #16 ) ;
#356 = DIRECTION ( 'NONE',  ( 1.000000000000000000, 0.000000000000000000, 0.000000000000000000 ) ) ;
#357 = CIRCLE ( 'NONE', #31, 0.2187499999999999445 ) ;
#358 = CARTESIAN_POINT ( 'NONE',  ( 7.336071276586380771E-29, -1.047492395890417941E-14, -2.999999999999999556 ) ) ;
#359 = APPROVAL_ROLE ( '' ) ;
#360 = ORIENTED_EDGE ( 'NONE', *, *, #68, .T. ) ;
#361 = ADVANCED_FACE ( 'NONE', ( #80 ), #58, .T. ) ;
#362 = VERTEX_POINT ( 'NONE', #100 ) ;
#363 = APPROVAL_PERSON_ORGANIZATION ( #202, #350, #103 ) ;
#364 = DIRECTION ( 'NONE',  ( -2.445357092195460631E-29, 3.491641319634726865E-15, 1.000000000000000000 ) ) ;
#365 = ORIENTED_EDGE ( 'NONE', *, *, #228, .T. ) ;
#366 = APPLICATION_CONTEXT ( 'configuration controlled 3d designs of mechanical parts and assemblies' ) ;
#367 = CARTESIAN_POINT ( 'NONE',  ( 0.000000000000000000, 0.000000000000000000, 0.000000000000000000 ) ) ;
#368 = CONICAL_SURFACE ( 'NONE', #257, 0.2187500000000000278, 0.7853981633974483900 ) ;
#369 = CARTESIAN_POINT ( 'NONE',  ( 7.336071276586380771E-29, -1.047492395890417941E-14, -2.999999999999999556 ) ) ;
#370 = DIRECTION ( 'NONE',  ( 4.937700262164548042E-15, 0.7071067811865451302, -0.7071067811865499042 ) ) ;
#371 = FACE_OUTER_BOUND ( 'NONE', #167, .T. ) ;
#372 = CC_DESIGN_DATE_AND_TIME_ASSIGNMENT ( #48, #10, ( #130 ) ) ;
#373 = DIRECTION ( 'NONE',  ( 1.000000000000000000, -6.982962677686262766E-15, 0.000000000000000000 ) ) ;
#374 = DIRECTION ( 'NONE',  ( -1.000000000000000000, 6.982962677686265922E-15, -4.883557194083113462E-29 ) ) ;
#375 = AXIS2_PLACEMENT_3D ( 'NONE', #178, #405, #86 ) ;
#376 = VECTOR ( 'NONE', #134, 39.37007874015748143 ) ;
#377 = CARTESIAN_POINT ( 'NONE',  ( 1.380674675784393582E-28, -2.065930885832698561E-14, -5.781250000000000000 ) ) ;
#378 = CARTESIAN_POINT ( 'NONE',  ( 4.890714184390933313E-31, -6.983282639269472121E-17, -0.02000000000000005246 ) ) ;
#379 = EDGE_CURVE ( 'NONE', #174, #7, #192, .T. ) ;
#380 = CARTESIAN_POINT ( 'NONE',  ( -1.500733937012521938E-15, -0.2187500000000000833, -0.01999999999999928571 ) ) ;
#381 = FACE_OUTER_BOUND ( 'NONE', #51, .T. ) ;
#382 = APPROVAL_STATUS ( 'not_yet_approved' ) ;
#383 = CIRCLE ( 'NONE', #153, 0.2187500000000000000 ) ;
#384 = AXIS2_PLACEMENT_3D ( 'NONE', #348, #346, #249 ) ;
#385 = PERSON_AND_ORGANIZATION ( #285, #95 ) ;
#386 = LINE ( 'NONE', #323, #376 ) ;
#387 = APPROVAL ( #382, 'UNSPECIFIED' ) ;
#388 = MECHANICAL_CONTEXT ( 'NONE', #110, 'mechanical' ) ;
#389 = CIRCLE ( 'NONE', #265, 0.2187499999999999445 ) ;
#390 = ORIENTED_EDGE ( 'NONE', *, *, #217, .T. ) ;
#391 = EDGE_CURVE ( 'NONE', #223, #195, #395, .T. ) ;
#392 = PERSON_AND_ORGANIZATION_ROLE ( 'creator' ) ;
#393 = ORIENTED_EDGE ( 'NONE', *, *, #68, .F. ) ;
#394 = PERSON_AND_ORGANIZATION_ROLE ( 'classification_officer' ) ;
#395 = CIRCLE ( 'NONE', #163, 0.2177499999999999991 ) ;
#396 = EDGE_LOOP ( 'NONE', ( #188, #199, #75, #284 ) ) ;
#397 = PERSON_AND_ORGANIZATION ( #285, #95 ) ;
#398 = FACE_OUTER_BOUND ( 'NONE', #72, .T. ) ;
#399 = CYLINDRICAL_SURFACE ( 'NONE', #222, 0.2187499999999999445 ) ;
#400 = AXIS2_PLACEMENT_3D ( 'NONE', #378, #314, #30 ) ;
#401 = ADVANCED_FACE ( 'NONE', ( #43 ), #129, .F. ) ;
#402 = CARTESIAN_POINT ( 'NONE',  ( 0.000000000000000000, 0.000000000000000000, 0.000000000000000000 ) ) ;
#403 = FACE_OUTER_BOUND ( 'NONE', #291, .T. ) ;
#404 = CARTESIAN_POINT ( 'NONE',  ( 1.387863832190150952E-15, 0.1987500000000007871, -1.101590756990830597E-15 ) ) ;
#405 = DIRECTION ( 'NONE',  ( 2.438088387897960049E-29, -3.491481338843145188E-15, -1.000000000000000000 ) ) ;
#406 = DIRECTION ( 'NONE',  ( 2.445357092195460350E-29, -3.491641319634726865E-15, -1.000000000000000000 ) ) ;
#407 = AXIS2_PLACEMENT_3D ( 'NONE', #306, #272, #208 ) ;
#408 = EDGE_CURVE ( 'NONE', #195, #165, #386, .T. ) ;
#409 = CONICAL_SURFACE ( 'NONE', #209, 0.2177499999999999991, 0.7853981633977384913 ) ;
#410 = DIRECTION ( 'NONE',  ( 6.982962677686265922E-15, 1.000000000000000000, -4.995379188414629865E-15 ) ) ;
#411 = DIRECTION ( 'NONE',  ( -2.445357092195460631E-29, 3.491641319634726865E-15, 1.000000000000000000 ) ) ;
#412 = PERSON_AND_ORGANIZATION_ROLE ( 'design_owner' ) ;
ENDSEC;
END-ISO-10303-21;
