ISO-10303-21;
HEADER;
FILE_DESCRIPTION (( 'STEP AP203' ),
    '1' );
FILE_NAME ('32041.STEP',
    '2024-02-27T14:34:37',
    ( '' ),
    ( '' ),
    'SwSTEP 2.0',
    'SolidWorks 2023',
    '' );
FILE_SCHEMA (( 'CONFIG_CONTROL_DESIGN' ));
ENDSEC;

DATA;
#1 = EDGE_LOOP ( 'NONE', ( #146, #228, #321, #252 ) ) ;
#2 = VERTEX_POINT ( 'NONE', #283 ) ;
#3 = CC_DESIGN_PERSON_AND_ORGANIZATION_ASSIGNMENT ( #260, #174, ( #88 ) ) ;
#4 = APPROVAL_STATUS ( 'not_yet_approved' ) ;
#5 = VECTOR ( 'NONE', #205, 39.37007874015748143 ) ;
#6 = EDGE_LOOP ( 'NONE', ( #251, #57, #151, #17 ) ) ;
#7 = AXIS2_PLACEMENT_3D ( 'NONE', #212, #351, #175 ) ;
#8 = CC_DESIGN_APPROVAL ( #285, ( #227 ) ) ;
#9 = DIRECTION ( 'NONE',  ( 1.000000000000000000, -6.982962677686266711E-15, 0.000000000000000000 ) ) ;
#10 = CARTESIAN_POINT ( 'NONE',  ( 0.2299999999999997602, -1.681434332853597631E-15, 4.268512490111905999E-18 ) ) ;
#11 = FACE_OUTER_BOUND ( 'NONE', #6, .T. ) ;
#12 = EDGE_CURVE ( 'NONE', #2, #198, #230, .T. ) ;
#13 = LINE ( 'NONE', #100, #149 ) ;
#14 = AXIS2_PLACEMENT_3D ( 'NONE', #69, #154, #276 ) ;
#15 = FACE_OUTER_BOUND ( 'NONE', #292, .T. ) ;
#16 = ORIENTED_EDGE ( 'NONE', *, *, #195, .F. ) ;
#17 = ORIENTED_EDGE ( 'NONE', *, *, #234, .F. ) ;
#18 = ADVANCED_FACE ( 'NONE', ( #170 ), #308, .T. ) ;
#19 = ORIENTED_EDGE ( 'NONE', *, *, #43, .T. ) ;
#20 = CARTESIAN_POINT ( 'NONE',  ( 1.606081415867839490E-15, 0.2299999999999997602, -8.009064516888724897E-16 ) ) ;
#21 = CARTESIAN_POINT ( 'NONE',  ( 4.890937612370272633E-29, -6.982962677686290376E-15, -1.999999999999999778 ) ) ;
#22 = MECHANICAL_CONTEXT ( 'NONE', #132, 'mechanical' ) ;
#23 = DIRECTION ( 'NONE',  ( -2.445468806185136597E-29, 3.491481338843145583E-15, 1.000000000000000000 ) ) ;
#24 = EDGE_CURVE ( 'NONE', #332, #208, #59, .T. ) ;
#25 = PERSON_AND_ORGANIZATION ( #302, #289 ) ;
#26 = CIRCLE ( 'NONE', #39, 0.2500000000000000000 ) ;
#27 = CALENDAR_DATE ( 2024, 27, 2 ) ;
#28 = EDGE_CURVE ( 'NONE', #76, #320, #294, .T. ) ;
#29 = DATE_AND_TIME ( #235, #145 ) ;
#30 = LINE ( 'NONE', #336, #337 ) ;
#31 = CONICAL_SURFACE ( 'NONE', #14, 0.2499999999999998057, 0.7853981633974472798 ) ;
#32 = DIRECTION ( 'NONE',  ( 0.7071067811866199593, -2.468850131083015945E-15, 0.7071067811864750752 ) ) ;
#33 = CC_DESIGN_SECURITY_CLASSIFICATION ( #227, ( #88 ) ) ;
#34 = APPLICATION_PROTOCOL_DEFINITION ( 'international standard', 'config_control_design', 1994, #340 ) ;
#35 = ORIENTED_EDGE ( 'NONE', *, *, #182, .F. ) ;
#36 = FACE_OUTER_BOUND ( 'NONE', #278, .T. ) ;
#37 = CIRCLE ( 'NONE', #253, 0.2499999999999998057 ) ;
#38 = CARTESIAN_POINT ( 'NONE',  ( 0.2499999999999998057, -1.784954126219744611E-15, -0.02000000000000006287 ) ) ;
#39 = AXIS2_PLACEMENT_3D ( 'NONE', #156, #357, #183 ) ;
#40 = CARTESIAN_POINT ( 'NONE',  ( -0.2489999999999999991, -5.208412811295418518E-15, -1.999999999999999778 ) ) ;
#41 = DIRECTION ( 'NONE',  ( -2.445468806185136597E-29, 3.491481338843145583E-15, 1.000000000000000000 ) ) ;
#42 = ORIENTED_EDGE ( 'NONE', *, *, #118, .T. ) ;
#43 = EDGE_CURVE ( 'NONE', #113, #198, #359, .T. ) ;
#44 = DIRECTION ( 'NONE',  ( 2.438088387897960049E-29, -3.491481338843145188E-15, -1.000000000000000000 ) ) ;
#45 = CARTESIAN_POINT ( 'NONE',  ( 0.000000000000000000, 0.000000000000000000, 0.000000000000000000 ) ) ;
#46 = DIRECTION ( 'NONE',  ( -0.7071067811865467956, 2.468850131082249172E-15, -0.7071067811865482389 ) ) ;
#47 = LOCAL_TIME ( 9, 34, 37.00000000000000000, #107 ) ;
#48 = ORIENTED_EDGE ( 'NONE', *, *, #144, .T. ) ;
#49 = CARTESIAN_POINT ( 'NONE',  ( 0.000000000000000000, 0.000000000000000000, 0.000000000000000000 ) ) ;
#50 = EDGE_LOOP ( 'NONE', ( #52, #296, #303, #304 ) ) ;
#51 = EDGE_CURVE ( 'NONE', #220, #320, #37, .T. ) ;
#52 = ORIENTED_EDGE ( 'NONE', *, *, #209, .T. ) ;
#53 = ORIENTED_EDGE ( 'NONE', *, *, #234, .T. ) ;
#54 = AXIS2_PLACEMENT_3D ( 'NONE', #93, #270, #115 ) ;
#55 = CC_DESIGN_PERSON_AND_ORGANIZATION_ASSIGNMENT ( #188, #178, ( #299 ) ) ;
#56 = CARTESIAN_POINT ( 'NONE',  ( -1.043851414335219820E-46, 1.490343170380447200E-32, 4.268512490100411279E-18 ) ) ;
#57 = ORIENTED_EDGE ( 'NONE', *, *, #272, .T. ) ;
#58 = COORDINATED_UNIVERSAL_TIME_OFFSET ( 5, 0, .BEHIND. ) ;
#59 = CIRCLE ( 'NONE', #314, 0.2489999999999999991 ) ;
#60 = CC_DESIGN_DATE_AND_TIME_ASSIGNMENT ( #80, #139, ( #123 ) ) ;
#61 = EDGE_LOOP ( 'NONE', ( #172, #341, #256, #125 ) ) ;
#62 = CIRCLE ( 'NONE', #254, 0.2499999999999998057 ) ;
#63 = CARTESIAN_POINT ( 'NONE',  ( 4.890937612370288923E-31, -6.982962677686312563E-17, -0.02000000000000006287 ) ) ;
#64 = DATE_AND_TIME ( #323, #333 ) ;
#65 = DIRECTION ( 'NONE',  ( 1.000000000000000000, -6.982962677686266711E-15, 0.000000000000000000 ) ) ;
#66 = CARTESIAN_POINT ( 'NONE',  ( 4.888492143564087591E-29, -6.979471196347447369E-15, -1.998999999999999888 ) ) ;
#67 = DIRECTION ( 'NONE',  ( -2.445468806185136597E-29, 3.491481338843145583E-15, 1.000000000000000000 ) ) ;
#68 =( LENGTH_UNIT ( ) NAMED_UNIT ( * ) SI_UNIT ( $, .METRE. ) );
#69 = CARTESIAN_POINT ( 'NONE',  ( 4.890937612370288923E-31, -6.982962677686312563E-17, -0.02000000000000006287 ) ) ;
#70 = AXIS2_PLACEMENT_3D ( 'NONE', #122, #177, #203 ) ;
#71 = LINE ( 'NONE', #221, #158 ) ;
#72 = DIRECTION ( 'NONE',  ( -2.445468806185136597E-29, 3.491481338843145583E-15, 1.000000000000000000 ) ) ;
#73 = CARTESIAN_POINT ( 'NONE',  ( 1.745740669421664299E-15, 0.2499999999999860389, -4.000000000000000888 ) ) ;
#74 = ORIENTED_EDGE ( 'NONE', *, *, #209, .F. ) ;
#75 = AXIS2_PLACEMENT_3D ( 'NONE', #45, #155, #334 ) ;
#76 = VERTEX_POINT ( 'NONE', #10 ) ;
#77 = UNCERTAINTY_MEASURE_WITH_UNIT (LENGTH_MEASURE( 1.000000000000000082E-05 ), #313, 'distance_accuracy_value', 'NONE');
#78 = ADVANCED_FACE ( 'NONE', ( #311 ), #127, .T. ) ;
#79 = CONICAL_SURFACE ( 'NONE', #331, 0.2489999999999999991, 0.7853981633975507526 ) ;
#80 = DATE_AND_TIME ( #262, #47 ) ;
#81 = DIRECTION ( 'NONE',  ( -1.000000000000000000, 6.982962677686265922E-15, -4.876176775795935793E-29 ) ) ;
#82 = ADVANCED_FACE ( 'NONE', ( #306 ), #277, .F. ) ;
#83 = ORIENTED_EDGE ( 'NONE', *, *, #157, .T. ) ;
#84 = PERSON_AND_ORGANIZATION ( #302, #289 ) ;
#85 = AXIS2_PLACEMENT_3D ( 'NONE', #233, #167, #245 ) ;
#86 = APPROVAL_STATUS ( 'not_yet_approved' ) ;
#87 = EDGE_CURVE ( 'NONE', #275, #220, #13, .T. ) ;
#88 = PRODUCT_DEFINITION_FORMATION_WITH_SPECIFIED_SOURCE ( 'ANY', '', #299, .NOT_KNOWN. ) ;
#89 = APPROVAL_PERSON_ORGANIZATION ( #363, #285, #237 ) ;
#90 = ORIENTED_EDGE ( 'NONE', *, *, #335, .T. ) ;
#91 = DIRECTION ( 'NONE',  ( 1.000000000000000000, -6.982962677686266711E-15, 4.876176775795935793E-29 ) ) ;
#92 = DIRECTION ( 'NONE',  ( 1.000000000000000000, -6.982962677686266711E-15, 0.000000000000000000 ) ) ;
#93 = CARTESIAN_POINT ( 'NONE',  ( 0.000000000000000000, 0.000000000000000000, 0.000000000000000000 ) ) ;
#94 = CARTESIAN_POINT ( 'NONE',  ( -0.2299999999999997602, 1.640996229256270941E-15, 4.268512490089056766E-18 ) ) ;
#95 = CARTESIAN_POINT ( 'NONE',  ( 4.890937612370272633E-29, -6.982962677686290376E-15, -1.999999999999999778 ) ) ;
#96 = DIRECTION ( 'NONE',  ( 1.000000000000000000, -6.982962677686266711E-15, 0.000000000000000000 ) ) ;
#97 = DIRECTION ( 'NONE',  ( -1.000000000000000000, 6.982962677686265922E-15, -4.876176775795935793E-29 ) ) ;
#98 = AXIS2_PLACEMENT_3D ( 'NONE', #21, #257, #280 ) ;
#99 = PLANE ( 'NONE',  #7 ) ;
#100 = CARTESIAN_POINT ( 'NONE',  ( -0.2499999999999998057, 1.675911042644702196E-15, -0.02000000000000006287 ) ) ;
#101 = DIRECTION ( 'NONE',  ( -1.000000000000000000, 6.982962677686265922E-15, -4.876176775795935793E-29 ) ) ;
#102 = ADVANCED_FACE ( 'NONE', ( #309 ), #110, .T. ) ;
#103 = AXIS2_PLACEMENT_3D ( 'NONE', #350, #41, #91 ) ;
#104 = AXIS2_PLACEMENT_3D ( 'NONE', #243, #291, #242 ) ;
#105 = VERTEX_POINT ( 'NONE', #163 ) ;
#106 = CARTESIAN_POINT ( 'NONE',  ( 1.745740669421615390E-15, 0.2499999999999930334, -2.000000000000000888 ) ) ;
#107 = COORDINATED_UNIVERSAL_TIME_OFFSET ( 5, 0, .BEHIND. ) ;
#108 = DIRECTION ( 'NONE',  ( 2.438088387897960049E-29, -3.491481338843145188E-15, -1.000000000000000000 ) ) ;
#109 = VECTOR ( 'NONE', #315, 39.37007874015748143 ) ;
#110 = CYLINDRICAL_SURFACE ( 'NONE', #85, 0.2500000000000000000 ) ;
#111 = COORDINATED_UNIVERSAL_TIME_OFFSET ( 5, 0, .BEHIND. ) ;
#112 = ADVANCED_FACE ( 'NONE', ( #218 ), #354, .F. ) ;
#113 = VERTEX_POINT ( 'NONE', #129 ) ;
#114 = APPROVAL_STATUS ( 'not_yet_approved' ) ;
#115 = DIRECTION ( 'NONE',  ( 1.000000000000000000, 0.000000000000000000, 0.000000000000000000 ) ) ;
#116 = PERSON_AND_ORGANIZATION_ROLE ( 'creator' ) ;
#117 = ORIENTED_EDGE ( 'NONE', *, *, #24, .T. ) ;
#118 = EDGE_CURVE ( 'NONE', #332, #105, #134, .T. ) ;
#119 = COORDINATED_UNIVERSAL_TIME_OFFSET ( 5, 0, .BEHIND. ) ;
#120 = VECTOR ( 'NONE', #358, 39.37007874015748143 ) ;
#121 = LOCAL_TIME ( 9, 34, 37.00000000000000000, #111 ) ;
#122 = CARTESIAN_POINT ( 'NONE',  ( -1.043851414335219820E-46, 1.490343170380447200E-32, 4.268512490100411279E-18 ) ) ;
#123 = PRODUCT_DEFINITION ( 'UNKNOWN', '', #88, #136 ) ;
#124 = CARTESIAN_POINT ( 'NONE',  ( 4.890937612370272633E-29, -6.982962677686290376E-15, -1.999999999999999778 ) ) ;
#125 = ORIENTED_EDGE ( 'NONE', *, *, #87, .F. ) ;
#126 = DIRECTION ( 'NONE',  ( 2.445468806185136597E-29, -3.491481338843145583E-15, -1.000000000000000000 ) ) ;
#127 = CYLINDRICAL_SURFACE ( 'NONE', #75, 0.2499999999999998890 ) ;
#128 = APPROVAL_PERSON_ORGANIZATION ( #268, #324, #342 ) ;
#129 = CARTESIAN_POINT ( 'NONE',  ( 0.2500000000000000000, -8.728703347107857054E-15, -2.000000000000000000 ) ) ;
#130 = DIRECTION ( 'NONE',  ( -2.445468806185136597E-29, 3.491481338843145583E-15, 1.000000000000000000 ) ) ;
#131 = EDGE_LOOP ( 'NONE', ( #35, #229, #345, #165 ) ) ;
#132 = APPLICATION_CONTEXT ( 'configuration controlled 3d designs of mechanical parts and assemblies' ) ;
#133 = VECTOR ( 'NONE', #32, 39.37007874015748143 ) ;
#134 = LINE ( 'NONE', #248, #120 ) ;
#135 = VERTEX_POINT ( 'NONE', #222 ) ;
#136 = DESIGN_CONTEXT ( 'detailed design', #340, 'design' ) ;
#137 = APPROVAL_DATE_TIME ( #64, #324 ) ;
#138 = DIRECTION ( 'NONE',  ( 1.000000000000000000, -6.982962677686266711E-15, 0.000000000000000000 ) ) ;
#139 = DATE_TIME_ROLE ( 'creation_date' ) ;
#140 = APPROVAL_ROLE ( '' ) ;
#141 = PERSON_AND_ORGANIZATION_ROLE ( 'classification_officer' ) ;
#142 = PRODUCT_DEFINITION_SHAPE ( 'NONE', 'NONE',  #123 ) ;
#143 = AXIS2_PLACEMENT_3D ( 'NONE', #20, #108, #97 ) ;
#144 = EDGE_CURVE ( 'NONE', #208, #332, #207, .T. ) ;
#145 = LOCAL_TIME ( 9, 34, 37.00000000000000000, #365 ) ;
#146 = ORIENTED_EDGE ( 'NONE', *, *, #28, .F. ) ;
#147 = CARTESIAN_POINT ( 'NONE',  ( 4.890937612370273194E-29, -6.982962677686291165E-15, -2.000000000000000000 ) ) ;
#148 = VECTOR ( 'NONE', #153, 39.37007874015748143 ) ;
#149 = VECTOR ( 'NONE', #46, 39.37007874015748143 ) ;
#150 = LINE ( 'NONE', #173, #133 ) ;
#151 = ORIENTED_EDGE ( 'NONE', *, *, #364, .T. ) ;
#152 = PLANE ( 'NONE',  #239 ) ;
#153 = DIRECTION ( 'NONE',  ( 0.7071067811865467956, -7.319954787623254468E-15, -0.7071067811865482389 ) ) ;
#154 = DIRECTION ( 'NONE',  ( 2.445468806185136597E-29, -3.491481338843145583E-15, -1.000000000000000000 ) ) ;
#155 = DIRECTION ( 'NONE',  ( -2.445468806185136597E-29, 3.491481338843145583E-15, 1.000000000000000000 ) ) ;
#156 = CARTESIAN_POINT ( 'NONE',  ( 9.781875224740546387E-29, -1.396592535537258233E-14, -4.000000000000000000 ) ) ;
#157 = EDGE_CURVE ( 'NONE', #275, #76, #356, .T. ) ;
#158 = VECTOR ( 'NONE', #293, 39.37007874015748143 ) ;
#159 = DIRECTION ( 'NONE',  ( -2.445468806185136597E-29, 3.491481338843145583E-15, 1.000000000000000000 ) ) ;
#160 = EDGE_LOOP ( 'NONE', ( #305, #181 ) ) ;
#161 = CARTESIAN_POINT ( 'NONE',  ( 0.2500000000000000000, -1.745740669421566678E-15, 1.219044193948983948E-29 ) ) ;
#162 = CC_DESIGN_PERSON_AND_ORGANIZATION_ASSIGNMENT ( #25, #141, ( #227 ) ) ;
#163 = CARTESIAN_POINT ( 'NONE',  ( -0.2500000000000000000, -1.748293572161903489E-15, -1.998999999999999888 ) ) ;
#164 = CLOSED_SHELL ( 'NONE', ( #343, #78, #279, #232, #18, #249, #312, #112 ) ) ;
#165 = ORIENTED_EDGE ( 'NONE', *, *, #51, .F. ) ;
#166 = PERSON_AND_ORGANIZATION ( #302, #289 ) ;
#167 = DIRECTION ( 'NONE',  ( -2.445468806185136597E-29, 3.491481338843145583E-15, 1.000000000000000000 ) ) ;
#168 = CARTESIAN_POINT ( 'NONE',  ( 4.888492143564087591E-29, -6.979471196347447369E-15, -1.998999999999999888 ) ) ;
#169 = DATE_AND_TIME ( #27, #290 ) ;
#170 = FACE_OUTER_BOUND ( 'NONE', #131, .T. ) ;
#171 = EDGE_CURVE ( 'NONE', #105, #135, #201, .T. ) ;
#172 = ORIENTED_EDGE ( 'NONE', *, *, #366, .F. ) ;
#173 = CARTESIAN_POINT ( 'NONE',  ( 0.2489999999999999991, -8.721720384430171040E-15, -1.999999999999999778 ) ) ;
#174 = PERSON_AND_ORGANIZATION_ROLE ( 'design_supplier' ) ;
#175 = DIRECTION ( 'NONE',  ( 1.000000000000000000, -6.982962677686265922E-15, 4.876176775795935793E-29 ) ) ;
#176 = CC_DESIGN_APPROVAL ( #324, ( #123 ) ) ;
#177 = DIRECTION ( 'NONE',  ( -2.445468806185136597E-29, 3.491481338843145583E-15, 1.000000000000000000 ) ) ;
#178 = PERSON_AND_ORGANIZATION_ROLE ( 'design_owner' ) ;
#179 = DIRECTION ( 'NONE',  ( -2.445468806185136597E-29, 3.491481338843145583E-15, 1.000000000000000000 ) ) ;
#180 = DIRECTION ( 'NONE',  ( -1.000000000000000000, 6.982962677686266711E-15, 0.000000000000000000 ) ) ;
#181 = ORIENTED_EDGE ( 'NONE', *, *, #24, .F. ) ;
#182 = EDGE_CURVE ( 'NONE', #105, #220, #30, .T. ) ;
#183 = DIRECTION ( 'NONE',  ( 1.000000000000000000, -6.982962677686270655E-15, 0.000000000000000000 ) ) ;
#184 = DIRECTION ( 'NONE',  ( 1.000000000000000000, -6.982962677686266711E-15, 0.000000000000000000 ) ) ;
#185 = DIRECTION ( 'NONE',  ( -2.445468806185136597E-29, 3.491481338843145583E-15, 1.000000000000000000 ) ) ;
#186 = FACE_OUTER_BOUND ( 'NONE', #1, .T. ) ;
#187 = AXIS2_PLACEMENT_3D ( 'NONE', #273, #126, #180 ) ;
#188 = PERSON_AND_ORGANIZATION ( #302, #289 ) ;
#189 = CARTESIAN_POINT ( 'NONE',  ( 4.890937612370288923E-31, -6.982962677686312563E-17, -0.02000000000000006287 ) ) ;
#190 = DIRECTION ( 'NONE',  ( 1.000000000000000000, -6.982962677686266711E-15, 0.000000000000000000 ) ) ;
#191 = ORIENTED_EDGE ( 'NONE', *, *, #272, .F. ) ;
#192 = CYLINDRICAL_SURFACE ( 'NONE', #269, 0.2500000000000000000 ) ;
#193 = CLOSED_SHELL ( 'NONE', ( #102, #225, #82, #295 ) ) ;
#194 = AXIS2_PLACEMENT_3D ( 'NONE', #168, #282, #138 ) ;
#195 = EDGE_CURVE ( 'NONE', #135, #105, #346, .T. ) ;
#196 = ORIENTED_EDGE ( 'NONE', *, *, #366, .T. ) ;
#197 = APPLICATION_PROTOCOL_DEFINITION ( 'international standard', 'config_control_design', 1994, #132 ) ;
#198 = VERTEX_POINT ( 'NONE', #327 ) ;
#199 = DIRECTION ( 'NONE',  ( 2.438088387897960049E-29, -3.491481338843145188E-15, -1.000000000000000000 ) ) ;
#200 = AXIS2_PLACEMENT_3D ( 'NONE', #66, #352, #271 ) ;
#201 = CIRCLE ( 'NONE', #194, 0.2500000000000000000 ) ;
#202 = CARTESIAN_POINT ( 'NONE',  ( 4.890937612370273194E-29, -6.982962677686291165E-15, -2.000000000000000000 ) ) ;
#203 = DIRECTION ( 'NONE',  ( 1.000000000000000000, -6.982962677686267499E-15, 4.876225828469313926E-29 ) ) ;
#204 = DIRECTION ( 'NONE',  ( 1.000000000000000000, -6.982962677686266711E-15, 0.000000000000000000 ) ) ;
#205 = DIRECTION ( 'NONE',  ( -2.445468806185136877E-29, 3.491481338843145188E-15, 1.000000000000000000 ) ) ;
#206 = AXIS2_PLACEMENT_3D ( 'NONE', #202, #23, #204 ) ;
#207 = CIRCLE ( 'NONE', #98, 0.2489999999999999991 ) ;
#208 = VERTEX_POINT ( 'NONE', #348 ) ;
#209 = EDGE_CURVE ( 'NONE', #274, #2, #26, .T. ) ;
#210 = SHAPE_DEFINITION_REPRESENTATION ( #142, #240 ) ;
#211 = CALENDAR_DATE ( 2024, 27, 2 ) ;
#212 = CARTESIAN_POINT ( 'NONE',  ( 4.890937612370273194E-29, -6.982962677686291165E-15, -2.000000000000000000 ) ) ;
#213 = CIRCLE ( 'NONE', #70, 0.2299999999999997602 ) ;
#214 = APPROVAL_PERSON_ORGANIZATION ( #288, #266, #140 ) ;
#215 = ORIENTED_EDGE ( 'NONE', *, *, #335, .F. ) ;
#216 = FACE_OUTER_BOUND ( 'NONE', #61, .T. ) ;
#217 =( GEOMETRIC_REPRESENTATION_CONTEXT ( 3 ) GLOBAL_UNCERTAINTY_ASSIGNED_CONTEXT ( ( #77 ) ) GLOBAL_UNIT_ASSIGNED_CONTEXT ( ( #313, #286, #339 ) ) REPRESENTATION_CONTEXT ( 'NONE', 'WORKASPACE' ) );
#218 = FACE_OUTER_BOUND ( 'NONE', #297, .T. ) ;
#219 = EDGE_CURVE ( 'NONE', #135, #320, #71, .T. ) ;
#220 = VERTEX_POINT ( 'NONE', #328 ) ;
#221 = CARTESIAN_POINT ( 'NONE',  ( 0.2499999999999998890, -1.745740669421565889E-15, 1.219044193948983388E-29 ) ) ;
#222 = CARTESIAN_POINT ( 'NONE',  ( 0.2500000000000000000, -8.725211865769014047E-15, -1.998999999999999888 ) ) ;
#223 = EDGE_LOOP ( 'NONE', ( #48, #42, #16, #215 ) ) ;
#224 = DIRECTION ( 'NONE',  ( -2.445468806185136597E-29, 3.491481338843145583E-15, 1.000000000000000000 ) ) ;
#225 = ADVANCED_FACE ( 'NONE', ( #36 ), #152, .T. ) ;
#226 = AXIS2_PLACEMENT_3D ( 'NONE', #95, #185, #96 ) ;
#227 = SECURITY_CLASSIFICATION ( '', '', #319 ) ;
#228 = ORIENTED_EDGE ( 'NONE', *, *, #157, .F. ) ;
#229 = ORIENTED_EDGE ( 'NONE', *, *, #171, .T. ) ;
#230 = LINE ( 'NONE', #316, #5 ) ;
#231 = CIRCLE ( 'NONE', #104, 0.2500000000000000000 ) ;
#232 = ADVANCED_FACE ( 'NONE', ( #186 ), #307, .T. ) ;
#233 = CARTESIAN_POINT ( 'NONE',  ( 0.000000000000000000, 0.000000000000000000, 0.000000000000000000 ) ) ;
#234 = EDGE_CURVE ( 'NONE', #198, #113, #281, .T. ) ;
#235 = CALENDAR_DATE ( 2024, 27, 2 ) ;
#236 = AXIS2_PLACEMENT_3D ( 'NONE', #106, #199, #81 ) ;
#237 = APPROVAL_ROLE ( '' ) ;
#238 = LINE ( 'NONE', #161, #109 ) ;
#239 = AXIS2_PLACEMENT_3D ( 'NONE', #73, #44, #101 ) ;
#240 = ADVANCED_BREP_SHAPE_REPRESENTATION ( '32041', ( #310, #318, #54 ), #217 ) ;
#241 = EDGE_LOOP ( 'NONE', ( #300, #265, #298, #287 ) ) ;
#242 = DIRECTION ( 'NONE',  ( 1.000000000000000000, -6.982962677686270655E-15, 0.000000000000000000 ) ) ;
#243 = CARTESIAN_POINT ( 'NONE',  ( 9.781875224740546387E-29, -1.396592535537258233E-14, -4.000000000000000000 ) ) ;
#244 = CC_DESIGN_PERSON_AND_ORGANIZATION_ASSIGNMENT ( #84, #116, ( #88 ) ) ;
#245 = DIRECTION ( 'NONE',  ( 1.000000000000000000, -6.982962677686266711E-15, 4.876176775795935793E-29 ) ) ;
#246 = DIRECTION ( 'NONE',  ( -2.445468806185136877E-29, 3.491481338843145188E-15, 1.000000000000000000 ) ) ;
#247 = CC_DESIGN_APPROVAL ( #266, ( #88 ) ) ;
#248 = CARTESIAN_POINT ( 'NONE',  ( -0.2489999999999999991, -5.213711265643640920E-15, -1.999999999999999778 ) ) ;
#249 = ADVANCED_FACE ( 'NONE', ( #15 ), #79, .T. ) ;
#250 = ORIENTED_EDGE ( 'NONE', *, *, #118, .F. ) ;
#251 = ORIENTED_EDGE ( 'NONE', *, *, #12, .F. ) ;
#252 = ORIENTED_EDGE ( 'NONE', *, *, #51, .T. ) ;
#253 = AXIS2_PLACEMENT_3D ( 'NONE', #189, #72, #190 ) ;
#254 = AXIS2_PLACEMENT_3D ( 'NONE', #63, #179, #92 ) ;
#255 = DIRECTION ( 'NONE',  ( -2.445468806185136597E-29, 3.491481338843145583E-15, 1.000000000000000000 ) ) ;
#256 = ORIENTED_EDGE ( 'NONE', *, *, #329, .T. ) ;
#257 = DIRECTION ( 'NONE',  ( -2.445468806185136597E-29, 3.491481338843145583E-15, 1.000000000000000000 ) ) ;
#258 = PRODUCT_RELATED_PRODUCT_CATEGORY ( 'detail', '', ( #299 ) ) ;
#259 = PERSON_AND_ORGANIZATION_ROLE ( 'creator' ) ;
#260 = PERSON_AND_ORGANIZATION ( #302, #289 ) ;
#261 = LENGTH_MEASURE_WITH_UNIT ( LENGTH_MEASURE( 0.02539999999999999897 ), #68 );
#262 = CALENDAR_DATE ( 2024, 27, 2 ) ;
#263 = APPROVAL_DATE_TIME ( #317, #285 ) ;
#264 = EDGE_LOOP ( 'NONE', ( #19, #53 ) ) ;
#265 = ORIENTED_EDGE ( 'NONE', *, *, #182, .T. ) ;
#266 = APPROVAL ( #114, 'UNSPECIFIED' ) ;
#267 = ORIENTED_EDGE ( 'NONE', *, *, #171, .F. ) ;
#268 = PERSON_AND_ORGANIZATION ( #302, #289 ) ;
#269 = AXIS2_PLACEMENT_3D ( 'NONE', #49, #159, #330 ) ;
#270 = DIRECTION ( 'NONE',  ( 0.000000000000000000, 0.000000000000000000, 1.000000000000000000 ) ) ;
#271 = DIRECTION ( 'NONE',  ( 1.000000000000000000, -6.982962677686266711E-15, 0.000000000000000000 ) ) ;
#272 = EDGE_CURVE ( 'NONE', #2, #274, #231, .T. ) ;
#273 = CARTESIAN_POINT ( 'NONE',  ( 4.890937612370288923E-31, -6.982962677686312563E-17, -0.02000000000000006287 ) ) ;
#274 = VERTEX_POINT ( 'NONE', #353 ) ;
#275 = VERTEX_POINT ( 'NONE', #94 ) ;
#276 = DIRECTION ( 'NONE',  ( -1.000000000000000000, 6.982962677686266711E-15, 0.000000000000000000 ) ) ;
#277 = PLANE ( 'NONE',  #236 ) ;
#278 = EDGE_LOOP ( 'NONE', ( #74, #191 ) ) ;
#279 = ADVANCED_FACE ( 'NONE', ( #216 ), #31, .T. ) ;
#280 = DIRECTION ( 'NONE',  ( 1.000000000000000000, -6.982962677686266711E-15, 0.000000000000000000 ) ) ;
#281 = CIRCLE ( 'NONE', #284, 0.2500000000000000000 ) ;
#282 = DIRECTION ( 'NONE',  ( -2.445468806185136597E-29, 3.491481338843145583E-15, 1.000000000000000000 ) ) ;
#283 = CARTESIAN_POINT ( 'NONE',  ( -0.2500000000000000000, -8.698087177129185889E-15, -4.000000000000000000 ) ) ;
#284 = AXIS2_PLACEMENT_3D ( 'NONE', #147, #224, #9 ) ;
#285 = APPROVAL ( #86, 'UNSPECIFIED' ) ;
#286 =( NAMED_UNIT ( * ) PLANE_ANGLE_UNIT ( ) SI_UNIT ( $, .RADIAN. ) );
#287 = ORIENTED_EDGE ( 'NONE', *, *, #219, .F. ) ;
#288 = PERSON_AND_ORGANIZATION ( #302, #289 ) ;
#289 = ORGANIZATION ( 'UNSPECIFIED', 'UNSPECIFIED', '' ) ;
#290 = LOCAL_TIME ( 9, 34, 37.00000000000000000, #58 ) ;
#291 = DIRECTION ( 'NONE',  ( -2.445468806185136597E-29, 3.491481338843145583E-15, 1.000000000000000000 ) ) ;
#292 = EDGE_LOOP ( 'NONE', ( #250, #117, #90, #267 ) ) ;
#293 = DIRECTION ( 'NONE',  ( -2.445468806185136877E-29, 3.491481338843145188E-15, 1.000000000000000000 ) ) ;
#294 = LINE ( 'NONE', #38, #148 ) ;
#295 = ADVANCED_FACE ( 'NONE', ( #11 ), #192, .T. ) ;
#296 = ORIENTED_EDGE ( 'NONE', *, *, #12, .T. ) ;
#297 = EDGE_LOOP ( 'NONE', ( #83, #196 ) ) ;
#298 = ORIENTED_EDGE ( 'NONE', *, *, #329, .F. ) ;
#299 = PRODUCT ( '32041', '32041', '', ( #22 ) ) ;
#300 = ORIENTED_EDGE ( 'NONE', *, *, #195, .T. ) ;
#301 = AXIS2_PLACEMENT_3D ( 'NONE', #56, #255, #361 ) ;
#302 = PERSON ( 'UNSPECIFIED', 'UNSPECIFIED', 'UNSPECIFIED', ('UNSPECIFIED'), ('UNSPECIFIED'), ('UNSPECIFIED') ) ;
#303 = ORIENTED_EDGE ( 'NONE', *, *, #43, .F. ) ;
#304 = ORIENTED_EDGE ( 'NONE', *, *, #364, .F. ) ;
#305 = ORIENTED_EDGE ( 'NONE', *, *, #144, .F. ) ;
#306 = FACE_OUTER_BOUND ( 'NONE', #264, .T. ) ;
#307 = CONICAL_SURFACE ( 'NONE', #187, 0.2499999999999998057, 0.7853981633974472798 ) ;
#308 = CYLINDRICAL_SURFACE ( 'NONE', #103, 0.2499999999999998890 ) ;
#309 = FACE_OUTER_BOUND ( 'NONE', #50, .T. ) ;
#310 = MANIFOLD_SOLID_BREP ( 'Body-Move/Copy2[1]', #193 ) ;
#311 = FACE_OUTER_BOUND ( 'NONE', #241, .T. ) ;
#312 = ADVANCED_FACE ( 'NONE', ( #355 ), #99, .F. ) ;
#313 =( CONVERSION_BASED_UNIT ( 'INCH', #261 ) LENGTH_UNIT ( ) NAMED_UNIT ( #326 ) );
#314 = AXIS2_PLACEMENT_3D ( 'NONE', #325, #67, #184 ) ;
#315 = DIRECTION ( 'NONE',  ( -2.445468806185136877E-29, 3.491481338843145188E-15, 1.000000000000000000 ) ) ;
#316 = CARTESIAN_POINT ( 'NONE',  ( -0.2500000000000000000, 1.776356839400250465E-15, -1.229733772563726445E-29 ) ) ;
#317 = DATE_AND_TIME ( #211, #121 ) ;
#318 = MANIFOLD_SOLID_BREP ( 'Body-Move/Copy2[2]', #164 ) ;
#319 = SECURITY_CLASSIFICATION_LEVEL ( 'unclassified' ) ;
#320 = VERTEX_POINT ( 'NONE', #322 ) ;
#321 = ORIENTED_EDGE ( 'NONE', *, *, #87, .T. ) ;
#322 = CARTESIAN_POINT ( 'NONE',  ( 0.2499999999999998057, -1.784954126219744611E-15, -0.02000000000000006287 ) ) ;
#323 = CALENDAR_DATE ( 2024, 27, 2 ) ;
#324 = APPROVAL ( #4, 'UNSPECIFIED' ) ;
#325 = CARTESIAN_POINT ( 'NONE',  ( 4.890937612370272633E-29, -6.982962677686290376E-15, -1.999999999999999778 ) ) ;
#326 = DIMENSIONAL_EXPONENTS ( 1.000000000000000000, 0.000000000000000000, 0.000000000000000000, 0.000000000000000000, 0.000000000000000000, 0.000000000000000000, 0.000000000000000000 ) ;
#327 = CARTESIAN_POINT ( 'NONE',  ( -0.2500000000000000000, -8.698087177129185889E-15, -2.000000000000000000 ) ) ;
#328 = CARTESIAN_POINT ( 'NONE',  ( -0.2499999999999998057, 1.675911042644702196E-15, -0.02000000000000006287 ) ) ;
#329 = EDGE_CURVE ( 'NONE', #320, #220, #62, .T. ) ;
#330 = DIRECTION ( 'NONE',  ( 1.000000000000000000, -6.982962677686266711E-15, 4.876176775795935793E-29 ) ) ;
#331 = AXIS2_PLACEMENT_3D ( 'NONE', #124, #130, #65 ) ;
#332 = VERTEX_POINT ( 'NONE', #40 ) ;
#333 = LOCAL_TIME ( 9, 34, 37.00000000000000000, #119 ) ;
#334 = DIRECTION ( 'NONE',  ( 1.000000000000000000, -6.982962677686266711E-15, 4.876176775795935793E-29 ) ) ;
#335 = EDGE_CURVE ( 'NONE', #208, #135, #150, .T. ) ;
#336 = CARTESIAN_POINT ( 'NONE',  ( -0.2499999999999998890, 1.776356839400249676E-15, -1.229733772563726025E-29 ) ) ;
#337 = VECTOR ( 'NONE', #246, 39.37007874015748143 ) ;
#338 = DATE_TIME_ROLE ( 'classification_date' ) ;
#339 =( NAMED_UNIT ( * ) SI_UNIT ( $, .STERADIAN. ) SOLID_ANGLE_UNIT ( ) );
#340 = APPLICATION_CONTEXT ( 'configuration controlled 3d designs of mechanical parts and assemblies' ) ;
#341 = ORIENTED_EDGE ( 'NONE', *, *, #28, .T. ) ;
#342 = APPROVAL_ROLE ( '' ) ;
#343 = ADVANCED_FACE ( 'NONE', ( #349 ), #362, .T. ) ;
#344 = APPROVAL_DATE_TIME ( #169, #266 ) ;
#345 = ORIENTED_EDGE ( 'NONE', *, *, #219, .T. ) ;
#346 = CIRCLE ( 'NONE', #200, 0.2500000000000000000 ) ;
#347 = CC_DESIGN_PERSON_AND_ORGANIZATION_ASSIGNMENT ( #166, #259, ( #123 ) ) ;
#348 = CARTESIAN_POINT ( 'NONE',  ( 0.2489999999999999991, -8.721720384430171040E-15, -1.999999999999999778 ) ) ;
#349 = FACE_OUTER_BOUND ( 'NONE', #223, .T. ) ;
#350 = CARTESIAN_POINT ( 'NONE',  ( 0.000000000000000000, 0.000000000000000000, 0.000000000000000000 ) ) ;
#351 = DIRECTION ( 'NONE',  ( -2.438088387897960049E-29, 3.491481338843145188E-15, 1.000000000000000000 ) ) ;
#352 = DIRECTION ( 'NONE',  ( -2.445468806185136597E-29, 3.491481338843145583E-15, 1.000000000000000000 ) ) ;
#353 = CARTESIAN_POINT ( 'NONE',  ( 0.2500000000000000000, -1.571166602479415059E-14, -4.000000000000000000 ) ) ;
#354 = PLANE ( 'NONE',  #143 ) ;
#355 = FACE_OUTER_BOUND ( 'NONE', #160, .T. ) ;
#356 = CIRCLE ( 'NONE', #301, 0.2299999999999997602 ) ;
#357 = DIRECTION ( 'NONE',  ( -2.445468806185136597E-29, 3.491481338843145583E-15, 1.000000000000000000 ) ) ;
#358 = DIRECTION ( 'NONE',  ( -0.7071067811866199593, 7.493145998870616062E-15, 0.7071067811864750752 ) ) ;
#359 = CIRCLE ( 'NONE', #206, 0.2500000000000000000 ) ;
#360 = CC_DESIGN_DATE_AND_TIME_ASSIGNMENT ( #29, #338, ( #227 ) ) ;
#361 = DIRECTION ( 'NONE',  ( 1.000000000000000000, -6.982962677686267499E-15, 4.876225828469313926E-29 ) ) ;
#362 = CONICAL_SURFACE ( 'NONE', #226, 0.2489999999999999991, 0.7853981633975507526 ) ;
#363 = PERSON_AND_ORGANIZATION ( #302, #289 ) ;
#364 = EDGE_CURVE ( 'NONE', #274, #113, #238, .T. ) ;
#365 = COORDINATED_UNIVERSAL_TIME_OFFSET ( 5, 0, .BEHIND. ) ;
#366 = EDGE_CURVE ( 'NONE', #76, #275, #213, .T. ) ;
ENDSEC;
END-ISO-10303-21;
