ISO-10303-21;
HEADER;
FILE_DESCRIPTION (( 'STEP AP203' ),
    '1' );
FILE_NAME ('32057.STEP',
    '2024-02-27T14:40:58',
    ( '' ),
    ( '' ),
    'SwSTEP 2.0',
    'SolidWorks 2023',
    '' );
FILE_SCHEMA (( 'CONFIG_CONTROL_DESIGN' ));
ENDSEC;

DATA;
#1 = FACE_OUTER_BOUND ( 'NONE', #212, .T. ) ;
#2 = DIRECTION ( 'NONE',  ( -2.445468806185136597E-29, 3.491481338843145583E-15, 1.000000000000000000 ) ) ;
#3 = AXIS2_PLACEMENT_3D ( 'NONE', #152, #203, #226 ) ;
#4 = EDGE_CURVE ( 'NONE', #128, #330, #247, .T. ) ;
#5 = DIRECTION ( 'NONE',  ( 1.000000000000000000, -6.982962677686269077E-15, 0.000000000000000000 ) ) ;
#6 = FACE_OUTER_BOUND ( 'NONE', #79, .T. ) ;
#7 = FACE_OUTER_BOUND ( 'NONE', #194, .T. ) ;
#8 =( LENGTH_UNIT ( ) NAMED_UNIT ( * ) SI_UNIT ( $, .METRE. ) );
#9 = PRODUCT_RELATED_PRODUCT_CATEGORY ( 'detail', '', ( #303 ) ) ;
#10 = PERSON_AND_ORGANIZATION ( #329, #35 ) ;
#11 = ORIENTED_EDGE ( 'NONE', *, *, #4, .T. ) ;
#12 = APPROVAL_DATE_TIME ( #172, #173 ) ;
#13 = VERTEX_POINT ( 'NONE', #338 ) ;
#14 = ADVANCED_FACE ( 'NONE', ( #166 ), #346, .T. ) ;
#15 = APPROVAL_PERSON_ORGANIZATION ( #261, #173, #204 ) ;
#16 = ORIENTED_EDGE ( 'NONE', *, *, #32, .T. ) ;
#17 = CALENDAR_DATE ( 2024, 27, 2 ) ;
#18 = ORIENTED_EDGE ( 'NONE', *, *, #206, .F. ) ;
#19 = ORIENTED_EDGE ( 'NONE', *, *, #366, .F. ) ;
#20 = CARTESIAN_POINT ( 'NONE',  ( 4.279570410823989044E-29, -6.110092342975505460E-15, -1.750000000000000222 ) ) ;
#21 = AXIS2_PLACEMENT_3D ( 'NONE', #222, #60, #46 ) ;
#22 = EDGE_CURVE ( 'NONE', #267, #297, #58, .T. ) ;
#23 = CARTESIAN_POINT ( 'NONE',  ( 0.1674999999999997879, -1.252653207992877105E-15, -3.841661241089523050E-17 ) ) ;
#24 = DATE_AND_TIME ( #162, #130 ) ;
#25 = DIRECTION ( 'NONE',  ( -2.445468806185136597E-29, 3.491481338843145583E-15, 1.000000000000000000 ) ) ;
#26 = DIRECTION ( 'NONE',  ( -2.445468806185136597E-29, 3.491481338843145583E-15, 1.000000000000000000 ) ) ;
#27 = VECTOR ( 'NONE', #192, 39.37007874015748143 ) ;
#28 = CONICAL_SURFACE ( 'NONE', #40, 0.1864999999999999714, 0.7853981633974141952 ) ;
#29 = ORIENTED_EDGE ( 'NONE', *, *, #301, .F. ) ;
#30 = DIRECTION ( 'NONE',  ( -2.445468806185136597E-29, 3.491481338843145583E-15, 1.000000000000000000 ) ) ;
#31 = ADVANCED_FACE ( 'NONE', ( #243 ), #307, .T. ) ;
#32 = EDGE_CURVE ( 'NONE', #259, #13, #111, .T. ) ;
#33 = CARTESIAN_POINT ( 'NONE',  ( 9.394662729016977403E-46, -1.341308853342402453E-31, -3.841661241090370459E-17 ) ) ;
#34 = AXIS2_PLACEMENT_3D ( 'NONE', #363, #25, #270 ) ;
#35 = ORGANIZATION ( 'UNSPECIFIED', 'UNSPECIFIED', '' ) ;
#36 = DIRECTION ( 'NONE',  ( 1.000000000000000000, -6.982962677686269077E-15, 0.000000000000000000 ) ) ;
#37 = CARTESIAN_POINT ( 'NONE',  ( 4.890937612370290675E-31, -6.982962677686316261E-17, -0.02000000000000007327 ) ) ;
#38 = DIRECTION ( 'NONE',  ( -2.445468806185136597E-29, 3.491481338843145583E-15, 1.000000000000000000 ) ) ;
#39 = CIRCLE ( 'NONE', #359, 0.1674999999999997879 ) ;
#40 = AXIS2_PLACEMENT_3D ( 'NONE', #61, #66, #5 ) ;
#41 = PERSON_AND_ORGANIZATION_ROLE ( 'creator' ) ;
#42 = ORIENTED_EDGE ( 'NONE', *, *, #301, .T. ) ;
#43 = DATE_AND_TIME ( #124, #325 ) ;
#44 = EDGE_LOOP ( 'NONE', ( #240, #158, #16, #295 ) ) ;
#45 = EDGE_CURVE ( 'NONE', #179, #267, #214, .T. ) ;
#46 = DIRECTION ( 'NONE',  ( 1.000000000000000000, -6.982962677686266711E-15, 4.876176775795935793E-29 ) ) ;
#47 = ORIENTED_EDGE ( 'NONE', *, *, #4, .F. ) ;
#48 = COORDINATED_UNIVERSAL_TIME_OFFSET ( 5, 0, .BEHIND. ) ;
#49 = EDGE_LOOP ( 'NONE', ( #213, #292, #322, #138 ) ) ;
#50 = DIRECTION ( 'NONE',  ( 1.000000000000000000, -6.982962677686269077E-15, 0.000000000000000000 ) ) ;
#51 = VERTEX_POINT ( 'NONE', #80 ) ;
#52 = DIRECTION ( 'NONE',  ( -2.445468806185136877E-29, 3.491481338843145188E-15, 1.000000000000000000 ) ) ;
#53 = EDGE_CURVE ( 'NONE', #182, #102, #59, .T. ) ;
#54 = CARTESIAN_POINT ( 'NONE',  ( -0.1874999999999998890, 1.332267629550187060E-15, -9.223003294227942385E-30 ) ) ;
#55 = PRODUCT_DEFINITION_FORMATION_WITH_SPECIFIED_SOURCE ( 'ANY', '', #303, .NOT_KNOWN. ) ;
#56 = PLANE ( 'NONE',  #69 ) ;
#57 = DIRECTION ( 'NONE',  ( 1.000000000000000000, -6.982962677686265922E-15, 4.876176775795935793E-29 ) ) ;
#58 = LINE ( 'NONE', #246, #219 ) ;
#59 = CIRCLE ( 'NONE', #284, 0.1674999999999997879 ) ;
#60 = DIRECTION ( 'NONE',  ( -2.445468806185136597E-29, 3.491481338843145583E-15, 1.000000000000000000 ) ) ;
#61 = CARTESIAN_POINT ( 'NONE',  ( 4.279570410823989044E-29, -6.110092342975505460E-15, -1.750000000000000222 ) ) ;
#62 = LINE ( 'NONE', #283, #209 ) ;
#63 = AXIS2_PLACEMENT_3D ( 'NONE', #336, #141, #81 ) ;
#64 = AXIS2_PLACEMENT_3D ( 'NONE', #349, #181, #50 ) ;
#65 = PLANE ( 'NONE',  #266 ) ;
#66 = DIRECTION ( 'NONE',  ( -2.445468806185136597E-29, 3.491481338843145583E-15, 1.000000000000000000 ) ) ;
#67 = PERSON_AND_ORGANIZATION ( #329, #35 ) ;
#68 = EDGE_LOOP ( 'NONE', ( #327, #262 ) ) ;
#69 = AXIS2_PLACEMENT_3D ( 'NONE', #163, #143, #57 ) ;
#70 = AXIS2_PLACEMENT_3D ( 'NONE', #263, #77, #294 ) ;
#71 = DATE_AND_TIME ( #17, #279 ) ;
#72 = EDGE_CURVE ( 'NONE', #268, #13, #234, .T. ) ;
#73 = EDGE_LOOP ( 'NONE', ( #11, #42, #19, #18 ) ) ;
#74 = COORDINATED_UNIVERSAL_TIME_OFFSET ( 5, 0, .BEHIND. ) ;
#75 = ORIENTED_EDGE ( 'NONE', *, *, #121, .F. ) ;
#76 = DESIGN_CONTEXT ( 'detailed design', #125, 'design' ) ;
#77 = DIRECTION ( 'NONE',  ( 0.000000000000000000, 0.000000000000000000, 1.000000000000000000 ) ) ;
#78 = APPROVAL_PERSON_ORGANIZATION ( #140, #231, #144 ) ;
#79 = EDGE_LOOP ( 'NONE', ( #304, #357, #244, #156 ) ) ;
#80 = CARTESIAN_POINT ( 'NONE',  ( -0.1874999999999997780, 1.239475875289310330E-15, -0.02000000000000007327 ) ) ;
#81 = DIRECTION ( 'NONE',  ( 1.000000000000000000, -6.982962677686265133E-15, 0.000000000000000000 ) ) ;
#82 = AXIS2_PLACEMENT_3D ( 'NONE', #220, #218, #147 ) ;
#83 = CARTESIAN_POINT ( 'NONE',  ( 0.1874999999999997780, -1.356173001359023691E-15, -0.02000000000000007327 ) ) ;
#84 = CC_DESIGN_APPROVAL ( #231, ( #364 ) ) ;
#85 = ADVANCED_FACE ( 'NONE', ( #221 ), #311, .T. ) ;
#86 = FACE_OUTER_BOUND ( 'NONE', #205, .T. ) ;
#87 = MANIFOLD_SOLID_BREP ( 'Body-Move/Copy2[2]', #291 ) ;
#88 = DIRECTION ( 'NONE',  ( 1.000000000000000000, -6.982962677686266711E-15, 4.875370901645447354E-29 ) ) ;
#89 = EDGE_CURVE ( 'NONE', #51, #297, #183, .T. ) ;
#90 = EDGE_CURVE ( 'NONE', #179, #51, #113, .T. ) ;
#91 = CYLINDRICAL_SURFACE ( 'NONE', #195, 0.1874999999999998890 ) ;
#92 = EDGE_CURVE ( 'NONE', #102, #297, #306, .T. ) ;
#93 = CARTESIAN_POINT ( 'NONE',  ( 4.890937612370290675E-31, -6.982962677686316261E-17, -0.02000000000000007327 ) ) ;
#94 = DIRECTION ( 'NONE',  ( -2.445468806185136597E-29, 3.491481338843145583E-15, 1.000000000000000000 ) ) ;
#95 = DIRECTION ( 'NONE',  ( -2.445468806185136597E-29, 3.491481338843145583E-15, 1.000000000000000000 ) ) ;
#96 = AXIS2_PLACEMENT_3D ( 'NONE', #361, #277, #334 ) ;
#97 = ADVANCED_FACE ( 'NONE', ( #278 ), #160, .F. ) ;
#98 = DIRECTION ( 'NONE',  ( -1.000000000000000000, 6.982962677686265133E-15, 0.000000000000000000 ) ) ;
#99 = APPROVAL_STATUS ( 'not_yet_approved' ) ;
#100 = PERSON_AND_ORGANIZATION_ROLE ( 'classification_officer' ) ;
#101 = ORIENTED_EDGE ( 'NONE', *, *, #186, .T. ) ;
#102 = VERTEX_POINT ( 'NONE', #23 ) ;
#103 = EDGE_LOOP ( 'NONE', ( #29, #126, #174, #154 ) ) ;
#104 = ORIENTED_EDGE ( 'NONE', *, *, #165, .T. ) ;
#105 = CC_DESIGN_PERSON_AND_ORGANIZATION_ASSIGNMENT ( #176, #258, ( #55 ) ) ;
#106 = CARTESIAN_POINT ( 'NONE',  ( 9.394662729016977403E-46, -1.341308853342402453E-31, -3.841661241090370459E-17 ) ) ;
#107 = DIRECTION ( 'NONE',  ( -2.445468806185136597E-29, 3.491481338843145583E-15, 1.000000000000000000 ) ) ;
#108 = EDGE_CURVE ( 'NONE', #182, #51, #249, .T. ) ;
#109 = CARTESIAN_POINT ( 'NONE',  ( 0.000000000000000000, 0.000000000000000000, 0.000000000000000000 ) ) ;
#110 = VECTOR ( 'NONE', #149, 39.37007874015748143 ) ;
#111 = LINE ( 'NONE', #337, #189 ) ;
#112 = LOCAL_TIME ( 9, 40, 58.00000000000000000, #48 ) ;
#113 = LINE ( 'NONE', #54, #228 ) ;
#114 = CARTESIAN_POINT ( 'NONE',  ( -0.1864999999999999714, -4.784930140782917831E-15, -1.750000000000000222 ) ) ;
#115 = ADVANCED_FACE ( 'NONE', ( #86 ), #56, .F. ) ;
#116 = DIRECTION ( 'NONE',  ( 1.000000000000000000, -6.982962677686265922E-15, 4.876176775795935793E-29 ) ) ;
#117 = AXIS2_PLACEMENT_3D ( 'NONE', #109, #217, #187 ) ;
#118 = CIRCLE ( 'NONE', #3, 0.1874999999999999722 ) ;
#119 = CARTESIAN_POINT ( 'NONE',  ( 0.1874999999999997780, -1.356173001359023691E-15, -0.02000000000000007327 ) ) ;
#120 = CARTESIAN_POINT ( 'NONE',  ( 0.000000000000000000, 0.000000000000000000, 0.000000000000000000 ) ) ;
#121 = EDGE_CURVE ( 'NONE', #177, #259, #265, .T. ) ;
#122 = DIRECTION ( 'NONE',  ( -1.000000000000000000, 6.982962677686265922E-15, -4.876176775795935793E-29 ) ) ;
#123 = VECTOR ( 'NONE', #305, 39.37007874015748143 ) ;
#124 = CALENDAR_DATE ( 2024, 27, 2 ) ;
#125 = APPLICATION_CONTEXT ( 'configuration controlled 3d designs of mechanical parts and assemblies' ) ;
#126 = ORIENTED_EDGE ( 'NONE', *, *, #293, .T. ) ;
#127 = CALENDAR_DATE ( 2024, 27, 2 ) ;
#128 = VERTEX_POINT ( 'NONE', #365 ) ;
#129 = AXIS2_PLACEMENT_3D ( 'NONE', #20, #107, #191 ) ;
#130 = LOCAL_TIME ( 9, 40, 58.00000000000000000, #245 ) ;
#131 =( NAMED_UNIT ( * ) SI_UNIT ( $, .STERADIAN. ) SOLID_ANGLE_UNIT ( ) );
#132 = ORIENTED_EDGE ( 'NONE', *, *, #366, .T. ) ;
#133 =( NAMED_UNIT ( * ) PLANE_ANGLE_UNIT ( ) SI_UNIT ( $, .RADIAN. ) );
#134 = ORIENTED_EDGE ( 'NONE', *, *, #293, .F. ) ;
#135 = PRODUCT_DEFINITION ( 'UNKNOWN', '', #55, #76 ) ;
#136 = APPLICATION_CONTEXT ( 'configuration controlled 3d designs of mechanical parts and assemblies' ) ;
#137 = ADVANCED_BREP_SHAPE_REPRESENTATION ( '32057', ( #331, #87, #70 ), #272 ) ;
#138 = ORIENTED_EDGE ( 'NONE', *, *, #89, .F. ) ;
#139 = VECTOR ( 'NONE', #315, 39.37007874015748854 ) ;
#140 = PERSON_AND_ORGANIZATION ( #329, #35 ) ;
#141 = DIRECTION ( 'NONE',  ( -2.445468806185136597E-29, 3.491481338843145583E-15, 1.000000000000000000 ) ) ;
#142 = CARTESIAN_POINT ( 'NONE',  ( -0.1874999999999997780, 1.239475875289310330E-15, -0.02000000000000007327 ) ) ;
#143 = DIRECTION ( 'NONE',  ( -2.438088387897960049E-29, 3.491481338843145188E-15, 1.000000000000000000 ) ) ;
#144 = APPROVAL_ROLE ( '' ) ;
#145 = AXIS2_PLACEMENT_3D ( 'NONE', #120, #30, #198 ) ;
#146 = DIRECTION ( 'NONE',  ( 1.000000000000000000, -6.982962677686269077E-15, 0.000000000000000000 ) ) ;
#147 = DIRECTION ( 'NONE',  ( 1.000000000000000000, -6.982962677686269077E-15, 0.000000000000000000 ) ) ;
#148 = CARTESIAN_POINT ( 'NONE',  ( -0.1874999999999999722, -6.087130215491496564E-15, -1.750000000000000222 ) ) ;
#149 = DIRECTION ( 'NONE',  ( -2.445468806185136877E-29, 3.491481338843145188E-15, 1.000000000000000000 ) ) ;
#150 = FACE_OUTER_BOUND ( 'NONE', #73, .T. ) ;
#151 = DIRECTION ( 'NONE',  ( 2.445468806185136597E-29, -3.491481338843145583E-15, -1.000000000000000000 ) ) ;
#152 = CARTESIAN_POINT ( 'NONE',  ( 4.279570410823989044E-29, -6.110092342975505460E-15, -1.750000000000000222 ) ) ;
#153 = SECURITY_CLASSIFICATION_LEVEL ( 'unclassified' ) ;
#154 = ORIENTED_EDGE ( 'NONE', *, *, #45, .F. ) ;
#155 = COORDINATED_UNIVERSAL_TIME_OFFSET ( 5, 0, .BEHIND. ) ;
#156 = ORIENTED_EDGE ( 'NONE', *, *, #89, .T. ) ;
#157 = APPLICATION_PROTOCOL_DEFINITION ( 'international standard', 'config_control_design', 1994, #136 ) ;
#158 = ORIENTED_EDGE ( 'NONE', *, *, #121, .T. ) ;
#159 = ORIENTED_EDGE ( 'NONE', *, *, #355, .F. ) ;
#160 = PLANE ( 'NONE',  #300 ) ;
#161 = CARTESIAN_POINT ( 'NONE',  ( 1.169646248512448215E-15, 0.1674999999999997879, -6.040314304616779996E-16 ) ) ;
#162 = CALENDAR_DATE ( 2024, 27, 2 ) ;
#163 = CARTESIAN_POINT ( 'NONE',  ( 4.279570410823989044E-29, -6.110092342975505460E-15, -1.750000000000000222 ) ) ;
#164 = CARTESIAN_POINT ( 'NONE',  ( 6.113672015462842613E-29, -8.728703347107864943E-15, -2.500000000000000000 ) ) ;
#165 = EDGE_CURVE ( 'NONE', #177, #268, #342, .T. ) ;
#166 = FACE_OUTER_BOUND ( 'NONE', #211, .T. ) ;
#167 = CARTESIAN_POINT ( 'NONE',  ( 0.000000000000000000, 0.000000000000000000, 0.000000000000000000 ) ) ;
#168 = CARTESIAN_POINT ( 'NONE',  ( 0.1874999999999999722, -7.415906363702837461E-15, -1.749000000000000110 ) ) ;
#169 = CARTESIAN_POINT ( 'NONE',  ( 6.113672015462842613E-29, -8.728703347107864943E-15, -2.500000000000000000 ) ) ;
#170 = CARTESIAN_POINT ( 'NONE',  ( 1.309305502066217410E-15, 0.1874999999999938660, -1.750000000000000666 ) ) ;
#171 = CYLINDRICAL_SURFACE ( 'NONE', #145, 0.1874999999999998890 ) ;
#172 = DATE_AND_TIME ( #321, #112 ) ;
#173 = APPROVAL ( #298, 'UNSPECIFIED' ) ;
#174 = ORIENTED_EDGE ( 'NONE', *, *, #206, .T. ) ;
#175 = AXIS2_PLACEMENT_3D ( 'NONE', #93, #151, #98 ) ;
#176 = PERSON_AND_ORGANIZATION ( #329, #35 ) ;
#177 = VERTEX_POINT ( 'NONE', #348 ) ;
#178 = PERSON_AND_ORGANIZATION ( #329, #35 ) ;
#179 = VERTEX_POINT ( 'NONE', #343 ) ;
#180 = ADVANCED_FACE ( 'NONE', ( #6 ), #323, .T. ) ;
#181 = DIRECTION ( 'NONE',  ( -2.445468806185136597E-29, 3.491481338843145583E-15, 1.000000000000000000 ) ) ;
#182 = VERTEX_POINT ( 'NONE', #200 ) ;
#183 = CIRCLE ( 'NONE', #63, 0.1874999999999997780 ) ;
#184 = CIRCLE ( 'NONE', #326, 0.1874999999999997780 ) ;
#185 = ORIENTED_EDGE ( 'NONE', *, *, #186, .F. ) ;
#186 = EDGE_CURVE ( 'NONE', #13, #268, #118, .T. ) ;
#187 = DIRECTION ( 'NONE',  ( 1.000000000000000000, -6.982962677686266711E-15, 4.876176775795935793E-29 ) ) ;
#188 = DIRECTION ( 'NONE',  ( -2.445468806185136877E-29, 3.491481338843145188E-15, 1.000000000000000000 ) ) ;
#189 = VECTOR ( 'NONE', #280, 39.37007874015748143 ) ;
#190 = DATE_TIME_ROLE ( 'classification_date' ) ;
#191 = DIRECTION ( 'NONE',  ( 1.000000000000000000, -6.982962677686269077E-15, 0.000000000000000000 ) ) ;
#192 = DIRECTION ( 'NONE',  ( -0.7071067811865467956, 2.468850131082249172E-15, -0.7071067811865482389 ) ) ;
#193 = ADVANCED_FACE ( 'NONE', ( #253 ), #171, .T. ) ;
#194 = EDGE_LOOP ( 'NONE', ( #101, #264 ) ) ;
#195 = AXIS2_PLACEMENT_3D ( 'NONE', #167, #94, #116 ) ;
#196 = DIRECTION ( 'NONE',  ( -1.000000000000000000, 6.982962677686265922E-15, -4.876176775795935793E-29 ) ) ;
#197 = CIRCLE ( 'NONE', #64, 0.1874999999999999722 ) ;
#198 = DIRECTION ( 'NONE',  ( 1.000000000000000000, -6.982962677686265922E-15, 4.876176775795935793E-29 ) ) ;
#199 = CC_DESIGN_PERSON_AND_ORGANIZATION_ASSIGNMENT ( #178, #302, ( #303 ) ) ;
#200 = CARTESIAN_POINT ( 'NONE',  ( -0.1674999999999997879, 1.204561061900879075E-15, -3.841661241091200612E-17 ) ) ;
#201 = LINE ( 'NONE', #114, #139 ) ;
#202 = CLOSED_SHELL ( 'NONE', ( #356, #339, #347, #85 ) ) ;
#203 = DIRECTION ( 'NONE',  ( -2.445468806185136597E-29, 3.491481338843145583E-15, 1.000000000000000000 ) ) ;
#204 = APPROVAL_ROLE ( '' ) ;
#205 = EDGE_LOOP ( 'NONE', ( #47, #134 ) ) ;
#206 = EDGE_CURVE ( 'NONE', #128, #267, #62, .T. ) ;
#207 = APPLICATION_PROTOCOL_DEFINITION ( 'international standard', 'config_control_design', 1994, #125 ) ;
#208 = ORIENTED_EDGE ( 'NONE', *, *, #229, .F. ) ;
#209 = VECTOR ( 'NONE', #340, 39.37007874015748854 ) ;
#210 = COORDINATED_UNIVERSAL_TIME_OFFSET ( 5, 0, .BEHIND. ) ;
#211 = EDGE_LOOP ( 'NONE', ( #208, #362, #233, #299 ) ) ;
#212 = EDGE_LOOP ( 'NONE', ( #237, #104, #185, #352 ) ) ;
#213 = ORIENTED_EDGE ( 'NONE', *, *, #90, .F. ) ;
#214 = CIRCLE ( 'NONE', #82, 0.1874999999999999722 ) ;
#215 = CARTESIAN_POINT ( 'NONE',  ( 4.890937612370290675E-31, -6.982962677686316261E-17, -0.02000000000000007327 ) ) ;
#216 = EDGE_CURVE ( 'NONE', #259, #177, #271, .T. ) ;
#217 = DIRECTION ( 'NONE',  ( -2.445468806185136597E-29, 3.491481338843145583E-15, 1.000000000000000000 ) ) ;
#218 = DIRECTION ( 'NONE',  ( -2.445468806185136597E-29, 3.491481338843145583E-15, 1.000000000000000000 ) ) ;
#219 = VECTOR ( 'NONE', #52, 39.37007874015748143 ) ;
#220 = CARTESIAN_POINT ( 'NONE',  ( 4.277124942017804562E-29, -6.106600861636661664E-15, -1.749000000000000110 ) ) ;
#221 = FACE_OUTER_BOUND ( 'NONE', #44, .T. ) ;
#222 = CARTESIAN_POINT ( 'NONE',  ( 0.000000000000000000, 0.000000000000000000, 0.000000000000000000 ) ) ;
#223 = ADVANCED_FACE ( 'NONE', ( #314 ), #91, .T. ) ;
#224 = DIRECTION ( 'NONE',  ( -2.445468806185136597E-29, 3.491481338843145583E-15, 1.000000000000000000 ) ) ;
#225 = FACE_OUTER_BOUND ( 'NONE', #332, .T. ) ;
#226 = DIRECTION ( 'NONE',  ( 1.000000000000000000, -6.982962677686263555E-15, 0.000000000000000000 ) ) ;
#227 = CYLINDRICAL_SURFACE ( 'NONE', #21, 0.1874999999999999722 ) ;
#228 = VECTOR ( 'NONE', #188, 39.37007874015748143 ) ;
#229 = EDGE_CURVE ( 'NONE', #102, #182, #39, .T. ) ;
#230 = DATE_TIME_ROLE ( 'creation_date' ) ;
#231 = APPROVAL ( #310, 'UNSPECIFIED' ) ;
#232 =( CONVERSION_BASED_UNIT ( 'INCH', #236 ) LENGTH_UNIT ( ) NAMED_UNIT ( #260 ) );
#233 = ORIENTED_EDGE ( 'NONE', *, *, #355, .T. ) ;
#234 = CIRCLE ( 'NONE', #34, 0.1874999999999999722 ) ;
#235 = CC_DESIGN_APPROVAL ( #173, ( #55 ) ) ;
#236 = LENGTH_MEASURE_WITH_UNIT ( LENGTH_MEASURE( 0.02539999999999999897 ), #8 );
#237 = ORIENTED_EDGE ( 'NONE', *, *, #216, .T. ) ;
#238 = APPROVAL_ROLE ( '' ) ;
#239 = ORIENTED_EDGE ( 'NONE', *, *, #216, .F. ) ;
#240 = ORIENTED_EDGE ( 'NONE', *, *, #165, .F. ) ;
#241 = CIRCLE ( 'NONE', #252, 0.1864999999999999714 ) ;
#242 = CC_DESIGN_PERSON_AND_ORGANIZATION_ASSIGNMENT ( #256, #351, ( #135 ) ) ;
#243 = FACE_OUTER_BOUND ( 'NONE', #103, .T. ) ;
#244 = ORIENTED_EDGE ( 'NONE', *, *, #108, .T. ) ;
#245 = COORDINATED_UNIVERSAL_TIME_OFFSET ( 5, 0, .BEHIND. ) ;
#246 = CARTESIAN_POINT ( 'NONE',  ( 0.1874999999999998890, -1.309305502066174022E-15, 9.142831454617374006E-30 ) ) ;
#247 = CIRCLE ( 'NONE', #129, 0.1864999999999999714 ) ;
#248 = LOCAL_TIME ( 9, 40, 58.00000000000000000, #155 ) ;
#249 = LINE ( 'NONE', #142, #27 ) ;
#250 = DIRECTION ( 'NONE',  ( 2.445468806185136597E-29, -3.491481338843145583E-15, -1.000000000000000000 ) ) ;
#251 = CARTESIAN_POINT ( 'NONE',  ( 4.279570410823989044E-29, -6.110092342975505460E-15, -1.750000000000000222 ) ) ;
#252 = AXIS2_PLACEMENT_3D ( 'NONE', #251, #2, #36 ) ;
#253 = FACE_OUTER_BOUND ( 'NONE', #49, .T. ) ;
#254 = CARTESIAN_POINT ( 'NONE',  ( -0.1864999999999999714, -4.779631686434696217E-15, -1.750000000000000222 ) ) ;
#255 = DIRECTION ( 'NONE',  ( 1.000000000000000000, -6.982962677686265133E-15, 0.000000000000000000 ) ) ;
#256 = PERSON_AND_ORGANIZATION ( #329, #35 ) ;
#257 = AXIS2_PLACEMENT_3D ( 'NONE', #215, #250, #312 ) ;
#258 = PERSON_AND_ORGANIZATION_ROLE ( 'design_supplier' ) ;
#259 = VERTEX_POINT ( 'NONE', #320 ) ;
#260 = DIMENSIONAL_EXPONENTS ( 1.000000000000000000, 0.000000000000000000, 0.000000000000000000, 0.000000000000000000, 0.000000000000000000, 0.000000000000000000, 0.000000000000000000 ) ;
#261 = PERSON_AND_ORGANIZATION ( #329, #35 ) ;
#262 = ORIENTED_EDGE ( 'NONE', *, *, #229, .T. ) ;
#263 = CARTESIAN_POINT ( 'NONE',  ( 0.000000000000000000, 0.000000000000000000, 0.000000000000000000 ) ) ;
#264 = ORIENTED_EDGE ( 'NONE', *, *, #72, .T. ) ;
#265 = CIRCLE ( 'NONE', #333, 0.1874999999999999722 ) ;
#266 = AXIS2_PLACEMENT_3D ( 'NONE', #170, #288, #196 ) ;
#267 = VERTEX_POINT ( 'NONE', #168 ) ;
#268 = VERTEX_POINT ( 'NONE', #148 ) ;
#269 = PRODUCT_DEFINITION_SHAPE ( 'NONE', 'NONE',  #135 ) ;
#270 = DIRECTION ( 'NONE',  ( 1.000000000000000000, -6.982962677686263555E-15, 0.000000000000000000 ) ) ;
#271 = CIRCLE ( 'NONE', #318, 0.1874999999999999722 ) ;
#272 =( GEOMETRIC_REPRESENTATION_CONTEXT ( 3 ) GLOBAL_UNCERTAINTY_ASSIGNED_CONTEXT ( ( #275 ) ) GLOBAL_UNIT_ASSIGNED_CONTEXT ( ( #232, #133, #131 ) ) REPRESENTATION_CONTEXT ( 'NONE', 'WORKASPACE' ) );
#273 = APPROVAL_DATE_TIME ( #24, #231 ) ;
#274 = DIRECTION ( 'NONE',  ( -1.000000000000000000, 6.982962677686265922E-15, -4.876176775795935793E-29 ) ) ;
#275 = UNCERTAINTY_MEASURE_WITH_UNIT (LENGTH_MEASURE( 1.000000000000000082E-05 ), #232, 'distance_accuracy_value', 'NONE');
#276 = SHAPE_DEFINITION_REPRESENTATION ( #269, #137 ) ;
#277 = DIRECTION ( 'NONE',  ( -2.445468806185136597E-29, 3.491481338843145583E-15, 1.000000000000000000 ) ) ;
#278 = FACE_OUTER_BOUND ( 'NONE', #68, .T. ) ;
#279 = LOCAL_TIME ( 9, 40, 58.00000000000000000, #74 ) ;
#280 = DIRECTION ( 'NONE',  ( -2.445468806185136877E-29, 3.491481338843145188E-15, 1.000000000000000000 ) ) ;
#281 = CARTESIAN_POINT ( 'NONE',  ( -0.1874999999999999722, 1.332267629550187651E-15, -9.223003294227946589E-30 ) ) ;
#282 = CC_DESIGN_DATE_AND_TIME_ASSIGNMENT ( #296, #190, ( #364 ) ) ;
#283 = CARTESIAN_POINT ( 'NONE',  ( 0.1864999999999999714, -7.412414882363994454E-15, -1.750000000000000222 ) ) ;
#284 = AXIS2_PLACEMENT_3D ( 'NONE', #106, #335, #88 ) ;
#285 = APPROVAL_PERSON_ORGANIZATION ( #67, #287, #238 ) ;
#286 = DIRECTION ( 'NONE',  ( 1.000000000000000000, -6.982962677686266711E-15, 4.875370901645447354E-29 ) ) ;
#287 = APPROVAL ( #99, 'UNSPECIFIED' ) ;
#288 = DIRECTION ( 'NONE',  ( 2.438088387897960049E-29, -3.491481338843145188E-15, -1.000000000000000000 ) ) ;
#289 = DIRECTION ( 'NONE',  ( 1.000000000000000000, -6.982962677686269077E-15, 0.000000000000000000 ) ) ;
#290 = PERSON_AND_ORGANIZATION ( #329, #35 ) ;
#291 = CLOSED_SHELL ( 'NONE', ( #308, #223, #14, #180, #193, #31, #115, #97 ) ) ;
#292 = ORIENTED_EDGE ( 'NONE', *, *, #45, .T. ) ;
#293 = EDGE_CURVE ( 'NONE', #330, #128, #241, .T. ) ;
#294 = DIRECTION ( 'NONE',  ( 1.000000000000000000, 0.000000000000000000, 0.000000000000000000 ) ) ;
#295 = ORIENTED_EDGE ( 'NONE', *, *, #72, .F. ) ;
#296 = DATE_AND_TIME ( #127, #248 ) ;
#297 = VERTEX_POINT ( 'NONE', #119 ) ;
#298 = APPROVAL_STATUS ( 'not_yet_approved' ) ;
#299 = ORIENTED_EDGE ( 'NONE', *, *, #108, .F. ) ;
#300 = AXIS2_PLACEMENT_3D ( 'NONE', #161, #309, #274 ) ;
#301 = EDGE_CURVE ( 'NONE', #330, #179, #201, .T. ) ;
#302 = PERSON_AND_ORGANIZATION_ROLE ( 'design_owner' ) ;
#303 = PRODUCT ( '32057', '32057', '', ( #353 ) ) ;
#304 = ORIENTED_EDGE ( 'NONE', *, *, #92, .F. ) ;
#305 = DIRECTION ( 'NONE',  ( 0.7071067811865467956, -7.319954787623254468E-15, -0.7071067811865482389 ) ) ;
#306 = LINE ( 'NONE', #83, #123 ) ;
#307 = CONICAL_SURFACE ( 'NONE', #96, 0.1864999999999999714, 0.7853981633974141952 ) ;
#308 = ADVANCED_FACE ( 'NONE', ( #150 ), #28, .T. ) ;
#309 = DIRECTION ( 'NONE',  ( 2.438088387897960049E-29, -3.491481338843145188E-15, -1.000000000000000000 ) ) ;
#310 = APPROVAL_STATUS ( 'not_yet_approved' ) ;
#311 = CYLINDRICAL_SURFACE ( 'NONE', #117, 0.1874999999999999722 ) ;
#312 = DIRECTION ( 'NONE',  ( -1.000000000000000000, 6.982962677686265133E-15, 0.000000000000000000 ) ) ;
#313 = CC_DESIGN_SECURITY_CLASSIFICATION ( #364, ( #55 ) ) ;
#314 = FACE_OUTER_BOUND ( 'NONE', #354, .T. ) ;
#315 = DIRECTION ( 'NONE',  ( -0.7071067811865232589, 7.493145998870265808E-15, 0.7071067811865715536 ) ) ;
#316 = CARTESIAN_POINT ( 'NONE',  ( 1.309305502066235948E-15, 0.1874999999999912292, -2.500000000000000444 ) ) ;
#317 = CC_DESIGN_PERSON_AND_ORGANIZATION_ASSIGNMENT ( #290, #41, ( #55 ) ) ;
#318 = AXIS2_PLACEMENT_3D ( 'NONE', #169, #224, #289 ) ;
#319 = DIRECTION ( 'NONE',  ( 2.438088387897960049E-29, -3.491481338843145188E-15, -1.000000000000000000 ) ) ;
#320 = CARTESIAN_POINT ( 'NONE',  ( 0.1874999999999999722, -1.003800884917403995E-14, -2.500000000000000000 ) ) ;
#321 = CALENDAR_DATE ( 2024, 27, 2 ) ;
#322 = ORIENTED_EDGE ( 'NONE', *, *, #22, .T. ) ;
#323 = CONICAL_SURFACE ( 'NONE', #175, 0.1874999999999997780, 0.7853981633974472798 ) ;
#324 = APPROVAL_DATE_TIME ( #71, #287 ) ;
#325 = LOCAL_TIME ( 9, 40, 58.00000000000000000, #210 ) ;
#326 = AXIS2_PLACEMENT_3D ( 'NONE', #37, #38, #255 ) ;
#327 = ORIENTED_EDGE ( 'NONE', *, *, #53, .T. ) ;
#328 = ORIENTED_EDGE ( 'NONE', *, *, #90, .T. ) ;
#329 = PERSON ( 'UNSPECIFIED', 'UNSPECIFIED', 'UNSPECIFIED', ('UNSPECIFIED'), ('UNSPECIFIED'), ('UNSPECIFIED') ) ;
#330 = VERTEX_POINT ( 'NONE', #254 ) ;
#331 = MANIFOLD_SOLID_BREP ( 'Body-Move/Copy2[1]', #202 ) ;
#332 = EDGE_LOOP ( 'NONE', ( #239, #75 ) ) ;
#333 = AXIS2_PLACEMENT_3D ( 'NONE', #164, #26, #146 ) ;
#334 = DIRECTION ( 'NONE',  ( 1.000000000000000000, -6.982962677686269077E-15, 0.000000000000000000 ) ) ;
#335 = DIRECTION ( 'NONE',  ( -2.445468806185136597E-29, 3.491481338843145583E-15, 1.000000000000000000 ) ) ;
#336 = CARTESIAN_POINT ( 'NONE',  ( 4.890937612370290675E-31, -6.982962677686316261E-17, -0.02000000000000007327 ) ) ;
#337 = CARTESIAN_POINT ( 'NONE',  ( 0.1874999999999999722, -1.309305502066174811E-15, 9.142831454617378210E-30 ) ) ;
#338 = CARTESIAN_POINT ( 'NONE',  ( 0.1874999999999999722, -7.419397845041678890E-15, -1.750000000000000222 ) ) ;
#339 = ADVANCED_FACE ( 'NONE', ( #225 ), #345, .T. ) ;
#340 = DIRECTION ( 'NONE',  ( 0.7071067811865232589, -2.468850131082003836E-15, 0.7071067811865715536 ) ) ;
#341 = CC_DESIGN_APPROVAL ( #287, ( #135 ) ) ;
#342 = LINE ( 'NONE', #281, #110 ) ;
#343 = CARTESIAN_POINT ( 'NONE',  ( -0.1874999999999999445, -1.755947614656573252E-15, -1.749000000000000110 ) ) ;
#344 = CC_DESIGN_PERSON_AND_ORGANIZATION_ASSIGNMENT ( #10, #100, ( #364 ) ) ;
#345 = PLANE ( 'NONE',  #360 ) ;
#346 = CONICAL_SURFACE ( 'NONE', #257, 0.1874999999999997780, 0.7853981633974472798 ) ;
#347 = ADVANCED_FACE ( 'NONE', ( #7 ), #65, .F. ) ;
#348 = CARTESIAN_POINT ( 'NONE',  ( -0.1874999999999999722, -6.087130215491496564E-15, -2.500000000000000000 ) ) ;
#349 = CARTESIAN_POINT ( 'NONE',  ( 4.277124942017804562E-29, -6.106600861636661664E-15, -1.749000000000000110 ) ) ;
#350 = CC_DESIGN_DATE_AND_TIME_ASSIGNMENT ( #43, #230, ( #135 ) ) ;
#351 = PERSON_AND_ORGANIZATION_ROLE ( 'creator' ) ;
#352 = ORIENTED_EDGE ( 'NONE', *, *, #32, .F. ) ;
#353 = MECHANICAL_CONTEXT ( 'NONE', #136, 'mechanical' ) ;
#354 = EDGE_LOOP ( 'NONE', ( #132, #328, #159, #358 ) ) ;
#355 = EDGE_CURVE ( 'NONE', #297, #51, #184, .T. ) ;
#356 = ADVANCED_FACE ( 'NONE', ( #1 ), #227, .T. ) ;
#357 = ORIENTED_EDGE ( 'NONE', *, *, #53, .F. ) ;
#358 = ORIENTED_EDGE ( 'NONE', *, *, #22, .F. ) ;
#359 = AXIS2_PLACEMENT_3D ( 'NONE', #33, #95, #286 ) ;
#360 = AXIS2_PLACEMENT_3D ( 'NONE', #316, #319, #122 ) ;
#361 = CARTESIAN_POINT ( 'NONE',  ( 4.279570410823989044E-29, -6.110092342975505460E-15, -1.750000000000000222 ) ) ;
#362 = ORIENTED_EDGE ( 'NONE', *, *, #92, .T. ) ;
#363 = CARTESIAN_POINT ( 'NONE',  ( 4.279570410823989044E-29, -6.110092342975505460E-15, -1.750000000000000222 ) ) ;
#364 = SECURITY_CLASSIFICATION ( '', '', #153 ) ;
#365 = CARTESIAN_POINT ( 'NONE',  ( 0.1864999999999999714, -7.412414882363994454E-15, -1.750000000000000222 ) ) ;
#366 = EDGE_CURVE ( 'NONE', #267, #179, #197, .T. ) ;
ENDSEC;
END-ISO-10303-21;
