ISO-10303-21;
HEADER;
FILE_DESCRIPTION (( 'STEP AP203' ),
    '1' );
FILE_NAME ('32062.STEP',
    '2024-02-27T14:44:35',
    ( '' ),
    ( '' ),
    'SwSTEP 2.0',
    'SolidWorks 2023',
    '' );
FILE_SCHEMA (( 'CONFIG_CONTROL_DESIGN' ));
ENDSEC;

DATA;
#1 = ORIENTED_EDGE ( 'NONE', *, *, #48, .T. ) ;
#2 = PERSON_AND_ORGANIZATION_ROLE ( 'design_supplier' ) ;
#3 = CONICAL_SURFACE ( 'NONE', #306, 0.2489999999999999991, 0.7853981633974141952 ) ;
#4 = AXIS2_PLACEMENT_3D ( 'NONE', #130, #242, #31 ) ;
#5 = VERTEX_POINT ( 'NONE', #247 ) ;
#6 = CC_DESIGN_PERSON_AND_ORGANIZATION_ASSIGNMENT ( #27, #2, ( #35 ) ) ;
#7 = PERSON_AND_ORGANIZATION_ROLE ( 'creator' ) ;
#8 = VERTEX_POINT ( 'NONE', #291 ) ;
#9 = DIRECTION ( 'NONE',  ( -2.445468806185136597E-29, 3.491481338843145583E-15, 1.000000000000000000 ) ) ;
#10 = APPROVAL_STATUS ( 'not_yet_approved' ) ;
#11 = DIRECTION ( 'NONE',  ( -1.000000000000000000, 6.982962677686266711E-15, 0.000000000000000000 ) ) ;
#12 = APPROVAL_PERSON_ORGANIZATION ( #298, #111, #328 ) ;
#13 = DIRECTION ( 'NONE',  ( -2.445468806185136597E-29, 3.491481338843145583E-15, 1.000000000000000000 ) ) ;
#14 = CARTESIAN_POINT ( 'NONE',  ( -0.2500000000000000000, -1.748293572161903489E-15, -1.998999999999999888 ) ) ;
#15 = LINE ( 'NONE', #245, #253 ) ;
#16 = EDGE_CURVE ( 'NONE', #21, #160, #356, .T. ) ;
#17 = ORGANIZATION ( 'UNSPECIFIED', 'UNSPECIFIED', '' ) ;
#18 = LINE ( 'NONE', #137, #225 ) ;
#19 = DIRECTION ( 'NONE',  ( -2.445468806185136877E-29, 3.491481338843145188E-15, 1.000000000000000000 ) ) ;
#20 = DIRECTION ( 'NONE',  ( -0.7071067811865232589, 7.493145998870265808E-15, 0.7071067811865715536 ) ) ;
#21 = VERTEX_POINT ( 'NONE', #68 ) ;
#22 = AXIS2_PLACEMENT_3D ( 'NONE', #128, #159, #265 ) ;
#23 = DIRECTION ( 'NONE',  ( 1.000000000000000000, -6.982962677686265922E-15, 4.876176775795935793E-29 ) ) ;
#24 = VERTEX_POINT ( 'NONE', #14 ) ;
#25 = DIRECTION ( 'NONE',  ( 1.000000000000000000, -6.982962677686266711E-15, 4.876176775795935793E-29 ) ) ;
#26 = VERTEX_POINT ( 'NONE', #209 ) ;
#27 = PERSON_AND_ORGANIZATION ( #63, #17 ) ;
#28 = ORIENTED_EDGE ( 'NONE', *, *, #192, .F. ) ;
#29 =( CONVERSION_BASED_UNIT ( 'INCH', #85 ) LENGTH_UNIT ( ) NAMED_UNIT ( #251 ) );
#30 = AXIS2_PLACEMENT_3D ( 'NONE', #197, #49, #364 ) ;
#31 = DIRECTION ( 'NONE',  ( 1.000000000000000000, -6.982962677686266711E-15, 0.000000000000000000 ) ) ;
#32 = ADVANCED_FACE ( 'NONE', ( #58 ), #287, .T. ) ;
#33 = APPROVAL_ROLE ( '' ) ;
#34 = AXIS2_PLACEMENT_3D ( 'NONE', #311, #165, #108 ) ;
#35 = PRODUCT_DEFINITION_FORMATION_WITH_SPECIFIED_SOURCE ( 'ANY', '', #222, .NOT_KNOWN. ) ;
#36 = CARTESIAN_POINT ( 'NONE',  ( 0.000000000000000000, 0.000000000000000000, 0.000000000000000000 ) ) ;
#37 = CC_DESIGN_PERSON_AND_ORGANIZATION_ASSIGNMENT ( #151, #234, ( #222 ) ) ;
#38 = ORIENTED_EDGE ( 'NONE', *, *, #59, .F. ) ;
#39 = DIRECTION ( 'NONE',  ( -2.445468806185136877E-29, 3.491481338843145188E-15, 1.000000000000000000 ) ) ;
#40 = EDGE_CURVE ( 'NONE', #78, #167, #195, .T. ) ;
#41 = DIRECTION ( 'NONE',  ( -1.000000000000000000, 6.982962677686266711E-15, 0.000000000000000000 ) ) ;
#42 = CYLINDRICAL_SURFACE ( 'NONE', #346, 0.2500000000000000000 ) ;
#43 = CLOSED_SHELL ( 'NONE', ( #32, #211, #92, #54, #97, #132, #354, #104 ) ) ;
#44 = APPROVAL_PERSON_ORGANIZATION ( #322, #67, #33 ) ;
#45 = LINE ( 'NONE', #332, #179 ) ;
#46 = DIRECTION ( 'NONE',  ( -2.445468806185136597E-29, 3.491481338843145583E-15, 1.000000000000000000 ) ) ;
#47 = ORIENTED_EDGE ( 'NONE', *, *, #120, .T. ) ;
#48 = EDGE_CURVE ( 'NONE', #21, #24, #213, .T. ) ;
#49 = DIRECTION ( 'NONE',  ( 2.438088387897960049E-29, -3.491481338843145188E-15, -1.000000000000000000 ) ) ;
#50 = ORIENTED_EDGE ( 'NONE', *, *, #206, .F. ) ;
#51 = AXIS2_PLACEMENT_3D ( 'NONE', #267, #302, #11 ) ;
#52 = CARTESIAN_POINT ( 'NONE',  ( 4.890937612370288047E-31, -6.982962677686311331E-17, -0.02000000000000005940 ) ) ;
#53 = PERSON_AND_ORGANIZATION ( #63, #17 ) ;
#54 = ADVANCED_FACE ( 'NONE', ( #93 ), #164, .T. ) ;
#55 = EDGE_LOOP ( 'NONE', ( #84, #80 ) ) ;
#56 = APPLICATION_PROTOCOL_DEFINITION ( 'international standard', 'config_control_design', 1994, #296 ) ;
#57 = CC_DESIGN_APPROVAL ( #111, ( #342 ) ) ;
#58 = FACE_OUTER_BOUND ( 'NONE', #204, .T. ) ;
#59 = EDGE_CURVE ( 'NONE', #5, #160, #15, .T. ) ;
#60 = APPROVAL_STATUS ( 'not_yet_approved' ) ;
#61 = APPLICATION_CONTEXT ( 'configuration controlled 3d designs of mechanical parts and assemblies' ) ;
#62 = APPROVAL_DATE_TIME ( #208, #246 ) ;
#63 = PERSON ( 'UNSPECIFIED', 'UNSPECIFIED', 'UNSPECIFIED', ('UNSPECIFIED'), ('UNSPECIFIED'), ('UNSPECIFIED') ) ;
#64 = SHAPE_DEFINITION_REPRESENTATION ( #317, #98 ) ;
#65 = AXIS2_PLACEMENT_3D ( 'NONE', #102, #46, #226 ) ;
#66 = DIRECTION ( 'NONE',  ( 1.000000000000000000, -6.982962677686266711E-15, 0.000000000000000000 ) ) ;
#67 = APPROVAL ( #10, 'UNSPECIFIED' ) ;
#68 = CARTESIAN_POINT ( 'NONE',  ( 0.2500000000000000000, -8.725211865769014047E-15, -1.998999999999999888 ) ) ;
#69 = DIRECTION ( 'NONE',  ( 0.7071067811865469066, -7.319954787623254468E-15, -0.7071067811865482389 ) ) ;
#70 = CIRCLE ( 'NONE', #4, 0.2489999999999999991 ) ;
#71 = CC_DESIGN_DATE_AND_TIME_ASSIGNMENT ( #83, #286, ( #295 ) ) ;
#72 = CARTESIAN_POINT ( 'NONE',  ( 4.890937612370288047E-31, -6.982962677686311331E-17, -0.02000000000000005940 ) ) ;
#73 = CARTESIAN_POINT ( 'NONE',  ( -0.2500000000000000000, 1.776356839400250465E-15, -1.229733772563726445E-29 ) ) ;
#74 = DIRECTION ( 'NONE',  ( 1.000000000000000000, -6.982962677686266711E-15, 0.000000000000000000 ) ) ;
#75 = AXIS2_PLACEMENT_3D ( 'NONE', #282, #334, #134 ) ;
#76 = DIRECTION ( 'NONE',  ( 1.000000000000000000, -6.982962677686267499E-15, 4.876225828469313926E-29 ) ) ;
#77 = CARTESIAN_POINT ( 'NONE',  ( -0.2499999999999998057, 1.675911042644702196E-15, -0.02000000000000005940 ) ) ;
#78 = VERTEX_POINT ( 'NONE', #185 ) ;
#79 = DIRECTION ( 'NONE',  ( 1.000000000000000000, -6.982962677686266711E-15, 0.000000000000000000 ) ) ;
#80 = ORIENTED_EDGE ( 'NONE', *, *, #216, .F. ) ;
#81 = EDGE_CURVE ( 'NONE', #207, #21, #153, .T. ) ;
#82 = AXIS2_PLACEMENT_3D ( 'NONE', #110, #229, #79 ) ;
#83 = DATE_AND_TIME ( #290, #301 ) ;
#84 = ORIENTED_EDGE ( 'NONE', *, *, #40, .F. ) ;
#85 = LENGTH_MEASURE_WITH_UNIT ( LENGTH_MEASURE( 0.02539999999999999897 ), #212 );
#86 = ORIENTED_EDGE ( 'NONE', *, *, #158, .F. ) ;
#87 = DIRECTION ( 'NONE',  ( 1.000000000000000000, 0.000000000000000000, 0.000000000000000000 ) ) ;
#88 = ORIENTED_EDGE ( 'NONE', *, *, #187, .F. ) ;
#89 = CARTESIAN_POINT ( 'NONE',  ( -0.2499999999999998057, 1.675911042644702196E-15, -0.02000000000000005940 ) ) ;
#90 = EDGE_CURVE ( 'NONE', #231, #207, #70, .T. ) ;
#91 = COORDINATED_UNIVERSAL_TIME_OFFSET ( 5, 0, .BEHIND. ) ;
#92 = ADVANCED_FACE ( 'NONE', ( #129 ), #280, .T. ) ;
#93 = FACE_OUTER_BOUND ( 'NONE', #324, .T. ) ;
#94 = VECTOR ( 'NONE', #297, 39.37007874015748854 ) ;
#95 = CARTESIAN_POINT ( 'NONE',  ( 1.606081415867839490E-15, 0.2299999999999997602, -8.009064516888724897E-16 ) ) ;
#96 = CARTESIAN_POINT ( 'NONE',  ( 1.222734403092568523E-28, -1.745740669421572989E-14, -5.000000000000000000 ) ) ;
#97 = ADVANCED_FACE ( 'NONE', ( #121 ), #191, .T. ) ;
#98 = ADVANCED_BREP_SHAPE_REPRESENTATION ( '32062', ( #351, #347, #341 ), #115 ) ;
#99 = DATE_TIME_ROLE ( 'classification_date' ) ;
#100 = CYLINDRICAL_SURFACE ( 'NONE', #327, 0.2500000000000000000 ) ;
#101 = CIRCLE ( 'NONE', #314, 0.2299999999999997602 ) ;
#102 = CARTESIAN_POINT ( 'NONE',  ( 1.222734403092568523E-28, -1.745740669421572989E-14, -5.000000000000000000 ) ) ;
#103 = DIRECTION ( 'NONE',  ( 1.000000000000000000, -6.982962677686266711E-15, 4.876176775795935793E-29 ) ) ;
#104 = ADVANCED_FACE ( 'NONE', ( #147 ), #186, .F. ) ;
#105 = FACE_OUTER_BOUND ( 'NONE', #337, .T. ) ;
#106 = VECTOR ( 'NONE', #19, 39.37007874015748143 ) ;
#107 = APPROVAL_PERSON_ORGANIZATION ( #119, #246, #142 ) ;
#108 = DIRECTION ( 'NONE',  ( 1.000000000000000000, -6.982962677686266711E-15, 0.000000000000000000 ) ) ;
#109 = ORIENTED_EDGE ( 'NONE', *, *, #59, .T. ) ;
#110 = CARTESIAN_POINT ( 'NONE',  ( 4.890937612370273194E-29, -6.982962677686291165E-15, -2.000000000000000000 ) ) ;
#111 = APPROVAL ( #218, 'UNSPECIFIED' ) ;
#112 = ORIENTED_EDGE ( 'NONE', *, *, #276, .F. ) ;
#113 = APPROVAL_DATE_TIME ( #340, #67 ) ;
#114 = ORIENTED_EDGE ( 'NONE', *, *, #40, .T. ) ;
#115 =( GEOMETRIC_REPRESENTATION_CONTEXT ( 3 ) GLOBAL_UNCERTAINTY_ASSIGNED_CONTEXT ( ( #148 ) ) GLOBAL_UNIT_ASSIGNED_CONTEXT ( ( #29, #284, #366 ) ) REPRESENTATION_CONTEXT ( 'NONE', 'WORKASPACE' ) );
#116 = ORIENTED_EDGE ( 'NONE', *, *, #90, .F. ) ;
#117 = COORDINATED_UNIVERSAL_TIME_OFFSET ( 5, 0, .BEHIND. ) ;
#118 = ORIENTED_EDGE ( 'NONE', *, *, #187, .T. ) ;
#119 = PERSON_AND_ORGANIZATION ( #63, #17 ) ;
#120 = EDGE_CURVE ( 'NONE', #160, #365, #163, .T. ) ;
#121 = FACE_OUTER_BOUND ( 'NONE', #339, .T. ) ;
#122 = DATE_AND_TIME ( #266, #157 ) ;
#123 = APPROVAL_DATE_TIME ( #244, #111 ) ;
#124 = ADVANCED_FACE ( 'NONE', ( #217 ), #243, .F. ) ;
#125 = AXIS2_PLACEMENT_3D ( 'NONE', #353, #320, #299 ) ;
#126 = DIRECTION ( 'NONE',  ( 1.000000000000000000, -6.982962677686266711E-15, 0.000000000000000000 ) ) ;
#127 = CIRCLE ( 'NONE', #82, 0.2500000000000000000 ) ;
#128 = CARTESIAN_POINT ( 'NONE',  ( 4.890937612370288047E-31, -6.982962677686311331E-17, -0.02000000000000005940 ) ) ;
#129 = FACE_OUTER_BOUND ( 'NONE', #289, .T. ) ;
#130 = CARTESIAN_POINT ( 'NONE',  ( 4.890937612370273194E-29, -6.982962677686291165E-15, -2.000000000000000000 ) ) ;
#131 = CARTESIAN_POINT ( 'NONE',  ( 0.000000000000000000, 0.000000000000000000, 0.000000000000000000 ) ) ;
#132 = ADVANCED_FACE ( 'NONE', ( #270 ), #3, .T. ) ;
#133 = PLANE ( 'NONE',  #248 ) ;
#134 = DIRECTION ( 'NONE',  ( 1.000000000000000000, -6.982962677686267499E-15, 4.876225828469313926E-29 ) ) ;
#135 = ORIENTED_EDGE ( 'NONE', *, *, #158, .T. ) ;
#136 = CIRCLE ( 'NONE', #171, 0.2499999999999998057 ) ;
#137 = CARTESIAN_POINT ( 'NONE',  ( 0.2500000000000000000, -1.745740669421566678E-15, 1.219044193948983948E-29 ) ) ;
#138 = ADVANCED_FACE ( 'NONE', ( #188 ), #100, .T. ) ;
#139 = ORIENTED_EDGE ( 'NONE', *, *, #362, .F. ) ;
#140 = DIRECTION ( 'NONE',  ( -2.445468806185136597E-29, 3.491481338843145583E-15, 1.000000000000000000 ) ) ;
#141 = EDGE_LOOP ( 'NONE', ( #264, #236 ) ) ;
#142 = APPROVAL_ROLE ( '' ) ;
#143 = ORIENTED_EDGE ( 'NONE', *, *, #48, .F. ) ;
#144 = VECTOR ( 'NONE', #166, 39.37007874015748143 ) ;
#145 = MECHANICAL_CONTEXT ( 'NONE', #296, 'mechanical' ) ;
#146 = ORIENTED_EDGE ( 'NONE', *, *, #168, .F. ) ;
#147 = FACE_OUTER_BOUND ( 'NONE', #235, .T. ) ;
#148 = UNCERTAINTY_MEASURE_WITH_UNIT (LENGTH_MEASURE( 1.000000000000000082E-05 ), #29, 'distance_accuracy_value', 'NONE');
#149 = PERSON_AND_ORGANIZATION_ROLE ( 'creator' ) ;
#150 = VECTOR ( 'NONE', #39, 39.37007874015748143 ) ;
#151 = PERSON_AND_ORGANIZATION ( #63, #17 ) ;
#152 = CIRCLE ( 'NONE', #288, 0.2500000000000000000 ) ;
#153 = LINE ( 'NONE', #219, #94 ) ;
#154 = CALENDAR_DATE ( 2024, 27, 2 ) ;
#155 = DIRECTION ( 'NONE',  ( -1.000000000000000000, 6.982962677686265922E-15, -4.876176775795935793E-29 ) ) ;
#156 = AXIS2_PLACEMENT_3D ( 'NONE', #131, #309, #25 ) ;
#157 = LOCAL_TIME ( 9, 44, 35.00000000000000000, #117 ) ;
#158 = EDGE_CURVE ( 'NONE', #256, #5, #360, .T. ) ;
#159 = DIRECTION ( 'NONE',  ( -2.445468806185136597E-29, 3.491481338843145583E-15, 1.000000000000000000 ) ) ;
#160 = VERTEX_POINT ( 'NONE', #331 ) ;
#161 = CARTESIAN_POINT ( 'NONE',  ( -0.2500000000000000000, -1.044382784655076046E-14, -5.000000000000000000 ) ) ;
#162 = PRODUCT_RELATED_PRODUCT_CATEGORY ( 'detail', '', ( #222 ) ) ;
#163 = CIRCLE ( 'NONE', #22, 0.2499999999999998057 ) ;
#164 = CONICAL_SURFACE ( 'NONE', #300, 0.2499999999999998057, 0.7853981633974473908 ) ;
#165 = DIRECTION ( 'NONE',  ( -2.445468806185136597E-29, 3.491481338843145583E-15, 1.000000000000000000 ) ) ;
#166 = DIRECTION ( 'NONE',  ( -0.7071067811865469066, 2.468850131082249961E-15, -0.7071067811865482389 ) ) ;
#167 = VERTEX_POINT ( 'NONE', #161 ) ;
#168 = EDGE_CURVE ( 'NONE', #365, #160, #136, .T. ) ;
#169 = CARTESIAN_POINT ( 'NONE',  ( 4.890937612370273194E-29, -6.982962677686291165E-15, -2.000000000000000000 ) ) ;
#170 = ORIENTED_EDGE ( 'NONE', *, *, #308, .F. ) ;
#171 = AXIS2_PLACEMENT_3D ( 'NONE', #52, #172, #74 ) ;
#172 = DIRECTION ( 'NONE',  ( -2.445468806185136597E-29, 3.491481338843145583E-15, 1.000000000000000000 ) ) ;
#173 = ORIENTED_EDGE ( 'NONE', *, *, #362, .T. ) ;
#174 = DIRECTION ( 'NONE',  ( 0.000000000000000000, 0.000000000000000000, 1.000000000000000000 ) ) ;
#175 = EDGE_LOOP ( 'NONE', ( #114, #315, #177, #28 ) ) ;
#176 = CARTESIAN_POINT ( 'NONE',  ( 4.890937612370273194E-29, -6.982962677686291165E-15, -2.000000000000000000 ) ) ;
#177 = ORIENTED_EDGE ( 'NONE', *, *, #357, .F. ) ;
#178 = AXIS2_PLACEMENT_3D ( 'NONE', #96, #13, #271 ) ;
#179 = VECTOR ( 'NONE', #361, 39.37007874015748143 ) ;
#180 = APPLICATION_PROTOCOL_DEFINITION ( 'international standard', 'config_control_design', 1994, #61 ) ;
#181 = CARTESIAN_POINT ( 'NONE',  ( 4.888492143564087591E-29, -6.979471196347447369E-15, -1.998999999999999888 ) ) ;
#182 = PERSON_AND_ORGANIZATION ( #63, #17 ) ;
#183 = CC_DESIGN_DATE_AND_TIME_ASSIGNMENT ( #122, #99, ( #342 ) ) ;
#184 = CARTESIAN_POINT ( 'NONE',  ( 0.000000000000000000, 0.000000000000000000, 0.000000000000000000 ) ) ;
#185 = CARTESIAN_POINT ( 'NONE',  ( 0.2500000000000000000, -1.920314736363729656E-14, -5.000000000000000000 ) ) ;
#186 = PLANE ( 'NONE',  #189 ) ;
#187 = EDGE_CURVE ( 'NONE', #256, #365, #272, .T. ) ;
#188 = FACE_OUTER_BOUND ( 'NONE', #175, .T. ) ;
#189 = AXIS2_PLACEMENT_3D ( 'NONE', #95, #330, #155 ) ;
#190 = LOCAL_TIME ( 9, 44, 35.00000000000000000, #210 ) ;
#191 = CYLINDRICAL_SURFACE ( 'NONE', #260, 0.2499999999999998890 ) ;
#192 = EDGE_CURVE ( 'NONE', #78, #8, #18, .T. ) ;
#193 = LINE ( 'NONE', #73, #106 ) ;
#194 = CARTESIAN_POINT ( 'NONE',  ( 0.000000000000000000, 0.000000000000000000, 0.000000000000000000 ) ) ;
#195 = CIRCLE ( 'NONE', #178, 0.2500000000000000000 ) ;
#196 = AXIS2_PLACEMENT_3D ( 'NONE', #325, #303, #348 ) ;
#197 = CARTESIAN_POINT ( 'NONE',  ( 1.745740669421688754E-15, 0.2499999999999825417, -5.000000000000000888 ) ) ;
#198 = FACE_OUTER_BOUND ( 'NONE', #319, .T. ) ;
#199 = ORIENTED_EDGE ( 'NONE', *, *, #326, .T. ) ;
#200 = DIRECTION ( 'NONE',  ( -2.445468806185136597E-29, 3.491481338843145583E-15, 1.000000000000000000 ) ) ;
#201 = ORIENTED_EDGE ( 'NONE', *, *, #216, .T. ) ;
#202 = CIRCLE ( 'NONE', #34, 0.2500000000000000000 ) ;
#203 = CALENDAR_DATE ( 2024, 27, 2 ) ;
#204 = EDGE_LOOP ( 'NONE', ( #173, #230, #143, #261 ) ) ;
#205 = CALENDAR_DATE ( 2024, 27, 2 ) ;
#206 = EDGE_CURVE ( 'NONE', #167, #26, #193, .T. ) ;
#207 = VERTEX_POINT ( 'NONE', #255 ) ;
#208 = DATE_AND_TIME ( #203, #232 ) ;
#209 = CARTESIAN_POINT ( 'NONE',  ( -0.2500000000000000000, -1.044382784655076046E-14, -2.000000000000000000 ) ) ;
#210 = COORDINATED_UNIVERSAL_TIME_OFFSET ( 5, 0, .BEHIND. ) ;
#211 = ADVANCED_FACE ( 'NONE', ( #105 ), #304, .T. ) ;
#212 =( LENGTH_UNIT ( ) NAMED_UNIT ( * ) SI_UNIT ( $, .METRE. ) );
#213 = CIRCLE ( 'NONE', #268, 0.2500000000000000000 ) ;
#214 = DIRECTION ( 'NONE',  ( 2.445468806185136597E-29, -3.491481338843145583E-15, -1.000000000000000000 ) ) ;
#215 = ORIENTED_EDGE ( 'NONE', *, *, #81, .T. ) ;
#216 = EDGE_CURVE ( 'NONE', #167, #78, #349, .T. ) ;
#217 = FACE_OUTER_BOUND ( 'NONE', #141, .T. ) ;
#218 = APPROVAL_STATUS ( 'not_yet_approved' ) ;
#219 = CARTESIAN_POINT ( 'NONE',  ( 0.2489999999999999991, -8.721720384430171040E-15, -2.000000000000000000 ) ) ;
#220 = ADVANCED_FACE ( 'NONE', ( #359 ), #42, .T. ) ;
#221 = DIRECTION ( 'NONE',  ( -2.445468806185136597E-29, 3.491481338843145583E-15, 1.000000000000000000 ) ) ;
#222 = PRODUCT ( '32062', '32062', '', ( #145 ) ) ;
#223 = CARTESIAN_POINT ( 'NONE',  ( -1.043851414335219820E-46, 1.490343170380447200E-32, 4.268512490100411279E-18 ) ) ;
#224 = CARTESIAN_POINT ( 'NONE',  ( -0.2299999999999997602, 1.640996229256270941E-15, 4.268512490089056766E-18 ) ) ;
#225 = VECTOR ( 'NONE', #358, 39.37007874015748143 ) ;
#226 = DIRECTION ( 'NONE',  ( 1.000000000000000000, -6.982962677686270655E-15, 0.000000000000000000 ) ) ;
#227 = EDGE_CURVE ( 'NONE', #5, #256, #101, .T. ) ;
#228 = ORIENTED_EDGE ( 'NONE', *, *, #168, .T. ) ;
#229 = DIRECTION ( 'NONE',  ( -2.445468806185136597E-29, 3.491481338843145583E-15, 1.000000000000000000 ) ) ;
#230 = ORIENTED_EDGE ( 'NONE', *, *, #292, .T. ) ;
#231 = VERTEX_POINT ( 'NONE', #257 ) ;
#232 = LOCAL_TIME ( 9, 44, 35.00000000000000000, #237 ) ;
#233 = CC_DESIGN_PERSON_AND_ORGANIZATION_ASSIGNMENT ( #182, #263, ( #342 ) ) ;
#234 = PERSON_AND_ORGANIZATION_ROLE ( 'design_owner' ) ;
#235 = EDGE_LOOP ( 'NONE', ( #135, #343 ) ) ;
#236 = ORIENTED_EDGE ( 'NONE', *, *, #276, .T. ) ;
#237 = COORDINATED_UNIVERSAL_TIME_OFFSET ( 5, 0, .BEHIND. ) ;
#238 = DIRECTION ( 'NONE',  ( -2.445468806185136597E-29, 3.491481338843145583E-15, 1.000000000000000000 ) ) ;
#239 = PERSON_AND_ORGANIZATION ( #63, #17 ) ;
#240 = COORDINATED_UNIVERSAL_TIME_OFFSET ( 5, 0, .BEHIND. ) ;
#241 = ADVANCED_FACE ( 'NONE', ( #307 ), #335, .T. ) ;
#242 = DIRECTION ( 'NONE',  ( -2.445468806185136597E-29, 3.491481338843145583E-15, 1.000000000000000000 ) ) ;
#243 = PLANE ( 'NONE',  #196 ) ;
#244 = DATE_AND_TIME ( #154, #329 ) ;
#245 = CARTESIAN_POINT ( 'NONE',  ( 0.2499999999999998057, -1.784954126219744611E-15, -0.02000000000000005940 ) ) ;
#246 = APPROVAL ( #60, 'UNSPECIFIED' ) ;
#247 = CARTESIAN_POINT ( 'NONE',  ( 0.2299999999999997602, -1.681434332853597631E-15, 4.268512490111905999E-18 ) ) ;
#248 = AXIS2_PLACEMENT_3D ( 'NONE', #169, #279, #23 ) ;
#249 = DIRECTION ( 'NONE',  ( -2.445468806185136597E-29, 3.491481338843145583E-15, 1.000000000000000000 ) ) ;
#250 = CARTESIAN_POINT ( 'NONE',  ( 4.890937612370273194E-29, -6.982962677686291165E-15, -2.000000000000000000 ) ) ;
#251 = DIMENSIONAL_EXPONENTS ( 1.000000000000000000, 0.000000000000000000, 0.000000000000000000, 0.000000000000000000, 0.000000000000000000, 0.000000000000000000, 0.000000000000000000 ) ;
#252 = DIRECTION ( 'NONE',  ( 1.000000000000000000, -6.982962677686266711E-15, 0.000000000000000000 ) ) ;
#253 = VECTOR ( 'NONE', #69, 39.37007874015748143 ) ;
#254 = ORIENTED_EDGE ( 'NONE', *, *, #120, .F. ) ;
#255 = CARTESIAN_POINT ( 'NONE',  ( 0.2489999999999999991, -8.721720384430171040E-15, -2.000000000000000000 ) ) ;
#256 = VERTEX_POINT ( 'NONE', #224 ) ;
#257 = CARTESIAN_POINT ( 'NONE',  ( -0.2489999999999999991, -5.208412811295418518E-15, -2.000000000000000000 ) ) ;
#258 = ORIENTED_EDGE ( 'NONE', *, *, #16, .T. ) ;
#259 = DIRECTION ( 'NONE',  ( -2.445468806185136597E-29, 3.491481338843145583E-15, 1.000000000000000000 ) ) ;
#260 = AXIS2_PLACEMENT_3D ( 'NONE', #36, #9, #352 ) ;
#261 = ORIENTED_EDGE ( 'NONE', *, *, #81, .F. ) ;
#262 = CC_DESIGN_APPROVAL ( #246, ( #35 ) ) ;
#263 = PERSON_AND_ORGANIZATION_ROLE ( 'classification_officer' ) ;
#264 = ORIENTED_EDGE ( 'NONE', *, *, #357, .T. ) ;
#265 = DIRECTION ( 'NONE',  ( 1.000000000000000000, -6.982962677686266711E-15, 0.000000000000000000 ) ) ;
#266 = CALENDAR_DATE ( 2024, 27, 2 ) ;
#267 = CARTESIAN_POINT ( 'NONE',  ( 4.890937612370288047E-31, -6.982962677686311331E-17, -0.02000000000000005940 ) ) ;
#268 = AXIS2_PLACEMENT_3D ( 'NONE', #181, #238, #126 ) ;
#269 = CARTESIAN_POINT ( 'NONE',  ( 0.2499999999999998890, -1.745740669421565889E-15, 1.219044193948983388E-29 ) ) ;
#270 = FACE_OUTER_BOUND ( 'NONE', #363, .T. ) ;
#271 = DIRECTION ( 'NONE',  ( 1.000000000000000000, -6.982962677686270655E-15, 0.000000000000000000 ) ) ;
#272 = LINE ( 'NONE', #77, #144 ) ;
#273 = VECTOR ( 'NONE', #20, 39.37007874015748854 ) ;
#274 = CC_DESIGN_APPROVAL ( #67, ( #295 ) ) ;
#275 = DIRECTION ( 'NONE',  ( 1.000000000000000000, -6.982962677686266711E-15, 4.876176775795935793E-29 ) ) ;
#276 = EDGE_CURVE ( 'NONE', #26, #8, #152, .T. ) ;
#277 = CARTESIAN_POINT ( 'NONE',  ( -0.2489999999999999991, -5.213711265643641709E-15, -2.000000000000000000 ) ) ;
#278 = ORIENTED_EDGE ( 'NONE', *, *, #192, .T. ) ;
#279 = DIRECTION ( 'NONE',  ( -2.438088387897960049E-29, 3.491481338843145188E-15, 1.000000000000000000 ) ) ;
#280 = CONICAL_SURFACE ( 'NONE', #51, 0.2499999999999998057, 0.7853981633974473908 ) ;
#281 = EDGE_LOOP ( 'NONE', ( #50, #201, #278, #112 ) ) ;
#282 = CARTESIAN_POINT ( 'NONE',  ( -1.043851414335219820E-46, 1.490343170380447200E-32, 4.268512490100411279E-18 ) ) ;
#283 = ORIENTED_EDGE ( 'NONE', *, *, #227, .F. ) ;
#284 =( NAMED_UNIT ( * ) PLANE_ANGLE_UNIT ( ) SI_UNIT ( $, .RADIAN. ) );
#285 = ORIENTED_EDGE ( 'NONE', *, *, #292, .F. ) ;
#286 = DATE_TIME_ROLE ( 'creation_date' ) ;
#287 = CONICAL_SURFACE ( 'NONE', #125, 0.2489999999999999991, 0.7853981633974141952 ) ;
#288 = AXIS2_PLACEMENT_3D ( 'NONE', #250, #200, #252 ) ;
#289 = EDGE_LOOP ( 'NONE', ( #283, #109, #47, #88 ) ) ;
#290 = CALENDAR_DATE ( 2024, 27, 2 ) ;
#291 = CARTESIAN_POINT ( 'NONE',  ( 0.2500000000000000000, -8.728703347107857054E-15, -2.000000000000000000 ) ) ;
#292 = EDGE_CURVE ( 'NONE', #231, #24, #338, .T. ) ;
#293 = DIRECTION ( 'NONE',  ( 1.000000000000000000, -6.982962677686266711E-15, 0.000000000000000000 ) ) ;
#294 = CIRCLE ( 'NONE', #333, 0.2489999999999999991 ) ;
#295 = PRODUCT_DEFINITION ( 'UNKNOWN', '', #35, #350 ) ;
#296 = APPLICATION_CONTEXT ( 'configuration controlled 3d designs of mechanical parts and assemblies' ) ;
#297 = DIRECTION ( 'NONE',  ( 0.7071067811865232589, -2.468850131082003836E-15, 0.7071067811865715536 ) ) ;
#298 = PERSON_AND_ORGANIZATION ( #63, #17 ) ;
#299 = DIRECTION ( 'NONE',  ( 1.000000000000000000, -6.982962677686266711E-15, 0.000000000000000000 ) ) ;
#300 = AXIS2_PLACEMENT_3D ( 'NONE', #72, #214, #41 ) ;
#301 = LOCAL_TIME ( 9, 44, 35.00000000000000000, #91 ) ;
#302 = DIRECTION ( 'NONE',  ( 2.445468806185136597E-29, -3.491481338843145583E-15, -1.000000000000000000 ) ) ;
#303 = DIRECTION ( 'NONE',  ( 2.438088387897960049E-29, -3.491481338843145188E-15, -1.000000000000000000 ) ) ;
#304 = CYLINDRICAL_SURFACE ( 'NONE', #156, 0.2499999999999998890 ) ;
#305 = CLOSED_SHELL ( 'NONE', ( #138, #241, #124, #220 ) ) ;
#306 = AXIS2_PLACEMENT_3D ( 'NONE', #355, #323, #66 ) ;
#307 = FACE_OUTER_BOUND ( 'NONE', #55, .T. ) ;
#308 = EDGE_CURVE ( 'NONE', #24, #365, #45, .T. ) ;
#309 = DIRECTION ( 'NONE',  ( -2.445468806185136597E-29, 3.491481338843145583E-15, 1.000000000000000000 ) ) ;
#310 = ORIENTED_EDGE ( 'NONE', *, *, #16, .F. ) ;
#311 = CARTESIAN_POINT ( 'NONE',  ( 4.888492143564087591E-29, -6.979471196347447369E-15, -1.998999999999999888 ) ) ;
#312 = ORIENTED_EDGE ( 'NONE', *, *, #308, .T. ) ;
#313 = CARTESIAN_POINT ( 'NONE',  ( 0.000000000000000000, 0.000000000000000000, 0.000000000000000000 ) ) ;
#314 = AXIS2_PLACEMENT_3D ( 'NONE', #223, #140, #76 ) ;
#315 = ORIENTED_EDGE ( 'NONE', *, *, #206, .T. ) ;
#316 = ORIENTED_EDGE ( 'NONE', *, *, #90, .T. ) ;
#317 = PRODUCT_DEFINITION_SHAPE ( 'NONE', 'NONE',  #295 ) ;
#318 = SECURITY_CLASSIFICATION_LEVEL ( 'unclassified' ) ;
#319 = EDGE_LOOP ( 'NONE', ( #139, #116 ) ) ;
#320 = DIRECTION ( 'NONE',  ( -2.445468806185136597E-29, 3.491481338843145583E-15, 1.000000000000000000 ) ) ;
#321 = CC_DESIGN_SECURITY_CLASSIFICATION ( #342, ( #35 ) ) ;
#322 = PERSON_AND_ORGANIZATION ( #63, #17 ) ;
#323 = DIRECTION ( 'NONE',  ( -2.445468806185136597E-29, 3.491481338843145583E-15, 1.000000000000000000 ) ) ;
#324 = EDGE_LOOP ( 'NONE', ( #38, #86, #118, #228 ) ) ;
#325 = CARTESIAN_POINT ( 'NONE',  ( 1.745740669421615390E-15, 0.2499999999999930334, -2.000000000000000888 ) ) ;
#326 = EDGE_CURVE ( 'NONE', #24, #21, #202, .T. ) ;
#327 = AXIS2_PLACEMENT_3D ( 'NONE', #313, #221, #275 ) ;
#328 = APPROVAL_ROLE ( '' ) ;
#329 = LOCAL_TIME ( 9, 44, 35.00000000000000000, #240 ) ;
#330 = DIRECTION ( 'NONE',  ( 2.438088387897960049E-29, -3.491481338843145188E-15, -1.000000000000000000 ) ) ;
#331 = CARTESIAN_POINT ( 'NONE',  ( 0.2499999999999998057, -1.784954126219744611E-15, -0.02000000000000005940 ) ) ;
#332 = CARTESIAN_POINT ( 'NONE',  ( -0.2499999999999998890, 1.776356839400249676E-15, -1.229733772563726025E-29 ) ) ;
#333 = AXIS2_PLACEMENT_3D ( 'NONE', #176, #259, #293 ) ;
#334 = DIRECTION ( 'NONE',  ( -2.445468806185136597E-29, 3.491481338843145583E-15, 1.000000000000000000 ) ) ;
#335 = PLANE ( 'NONE',  #30 ) ;
#336 = CC_DESIGN_PERSON_AND_ORGANIZATION_ASSIGNMENT ( #239, #7, ( #295 ) ) ;
#337 = EDGE_LOOP ( 'NONE', ( #1, #312, #254, #310 ) ) ;
#338 = LINE ( 'NONE', #277, #273 ) ;
#339 = EDGE_LOOP ( 'NONE', ( #170, #199, #258, #146 ) ) ;
#340 = DATE_AND_TIME ( #205, #190 ) ;
#341 = AXIS2_PLACEMENT_3D ( 'NONE', #184, #174, #87 ) ;
#342 = SECURITY_CLASSIFICATION ( '', '', #318 ) ;
#343 = ORIENTED_EDGE ( 'NONE', *, *, #227, .T. ) ;
#344 = ORIENTED_EDGE ( 'NONE', *, *, #326, .F. ) ;
#345 = CC_DESIGN_PERSON_AND_ORGANIZATION_ASSIGNMENT ( #53, #149, ( #35 ) ) ;
#346 = AXIS2_PLACEMENT_3D ( 'NONE', #194, #249, #103 ) ;
#347 = MANIFOLD_SOLID_BREP ( 'Body-Move/Copy2[2]', #43 ) ;
#348 = DIRECTION ( 'NONE',  ( -1.000000000000000000, 6.982962677686265922E-15, -4.876176775795935793E-29 ) ) ;
#349 = CIRCLE ( 'NONE', #65, 0.2500000000000000000 ) ;
#350 = DESIGN_CONTEXT ( 'detailed design', #61, 'design' ) ;
#351 = MANIFOLD_SOLID_BREP ( 'Body-Move/Copy2[1]', #305 ) ;
#352 = DIRECTION ( 'NONE',  ( 1.000000000000000000, -6.982962677686266711E-15, 4.876176775795935793E-29 ) ) ;
#353 = CARTESIAN_POINT ( 'NONE',  ( 4.890937612370273194E-29, -6.982962677686291165E-15, -2.000000000000000000 ) ) ;
#354 = ADVANCED_FACE ( 'NONE', ( #198 ), #133, .F. ) ;
#355 = CARTESIAN_POINT ( 'NONE',  ( 4.890937612370273194E-29, -6.982962677686291165E-15, -2.000000000000000000 ) ) ;
#356 = LINE ( 'NONE', #269, #150 ) ;
#357 = EDGE_CURVE ( 'NONE', #8, #26, #127, .T. ) ;
#358 = DIRECTION ( 'NONE',  ( -2.445468806185136877E-29, 3.491481338843145188E-15, 1.000000000000000000 ) ) ;
#359 = FACE_OUTER_BOUND ( 'NONE', #281, .T. ) ;
#360 = CIRCLE ( 'NONE', #75, 0.2299999999999997602 ) ;
#361 = DIRECTION ( 'NONE',  ( -2.445468806185136877E-29, 3.491481338843145188E-15, 1.000000000000000000 ) ) ;
#362 = EDGE_CURVE ( 'NONE', #207, #231, #294, .T. ) ;
#363 = EDGE_LOOP ( 'NONE', ( #285, #316, #215, #344 ) ) ;
#364 = DIRECTION ( 'NONE',  ( -1.000000000000000000, 6.982962677686265922E-15, -4.876176775795935793E-29 ) ) ;
#365 = VERTEX_POINT ( 'NONE', #89 ) ;
#366 =( NAMED_UNIT ( * ) SI_UNIT ( $, .STERADIAN. ) SOLID_ANGLE_UNIT ( ) );
ENDSEC;
END-ISO-10303-21;
