ISO-10303-21;
HEADER;
FILE_DESCRIPTION (( 'STEP AP203' ),
    '1' );
FILE_NAME ('32207.STEP',
    '2024-02-21T17:36:50',
    ( '' ),
    ( '' ),
    'SwSTEP 2.0',
    'SolidWorks 2023',
    '' );
FILE_SCHEMA (( 'CONFIG_CONTROL_DESIGN' ));
ENDSEC;

DATA;
#1 = ORIENTED_EDGE ( 'NONE', *, *, #300, .T. ) ;
#2 = DIRECTION ( 'NONE',  ( 2.445875065811801312E-29, -3.490899551934899952E-15, -1.000000000000000000 ) ) ;
#3 = CARTESIAN_POINT ( 'NONE',  ( 0.000000000000000000, 0.000000000000000000, 0.000000000000000000 ) ) ;
#4 = CARTESIAN_POINT ( 'NONE',  ( -2.572686749164324336E-15, -0.3750000000000001665, -0.01999999999999877570 ) ) ;
#5 = DIRECTION ( 'NONE',  ( 0.000000000000000000, 0.000000000000000000, 1.000000000000000000 ) ) ;
#6 = EDGE_CURVE ( 'NONE', #407, #154, #224, .T. ) ;
#7 = AXIS2_PLACEMENT_3D ( 'NONE', #74, #201, #197 ) ;
#8 = PERSON_AND_ORGANIZATION ( #93, #250 ) ;
#9 = AXIS2_PLACEMENT_3D ( 'NONE', #370, #61, #94 ) ;
#10 = APPROVAL_ROLE ( '' ) ;
#11 = PERSON_AND_ORGANIZATION ( #93, #250 ) ;
#12 = ORIENTED_EDGE ( 'NONE', *, *, #30, .F. ) ;
#13 =( GEOMETRIC_REPRESENTATION_CONTEXT ( 3 ) GLOBAL_UNCERTAINTY_ASSIGNED_CONTEXT ( ( #45 ) ) GLOBAL_UNIT_ASSIGNED_CONTEXT ( ( #210, #360, #206 ) ) REPRESENTATION_CONTEXT ( 'NONE', 'WORKASPACE' ) );
#14 = PERSON_AND_ORGANIZATION_ROLE ( 'design_supplier' ) ;
#15 = CC_DESIGN_PERSON_AND_ORGANIZATION_ASSIGNMENT ( #11, #208, ( #108 ) ) ;
#16 = AXIS2_PLACEMENT_3D ( 'NONE', #347, #349, #65 ) ;
#17 = DIRECTION ( 'NONE',  ( -4.937700262166233838E-15, -0.7071067811867864927, 0.7071067811863085417 ) ) ;
#18 = DIRECTION ( 'NONE',  ( -2.445875065811801312E-29, 3.490899551934899952E-15, 1.000000000000000000 ) ) ;
#19 = CARTESIAN_POINT ( 'NONE',  ( 9.477765880020728404E-29, -1.352723576374773702E-14, -3.875000000000000000 ) ) ;
#20 = ADVANCED_FACE ( 'NONE', ( #243 ), #265, .T. ) ;
#21 = VERTEX_POINT ( 'NONE', #271 ) ;
#22 = SECURITY_CLASSIFICATION ( '', '', #268 ) ;
#23 = CYLINDRICAL_SURFACE ( 'NONE', #298, 0.3750000000000001110 ) ;
#24 = ORIENTED_EDGE ( 'NONE', *, *, #155, .T. ) ;
#25 = ORIENTED_EDGE ( 'NONE', *, *, #149, .F. ) ;
#26 = CARTESIAN_POINT ( 'NONE',  ( 9.476191623967404313E-29, -1.352949018801718908E-14, -3.875000000000000000 ) ) ;
#27 = CARTESIAN_POINT ( 'NONE',  ( 9.477765880020728404E-29, -1.352723576374773702E-14, -3.875000000000000000 ) ) ;
#28 = DIRECTION ( 'NONE',  ( -6.982962677686266711E-15, -1.000000000000000000, 2.921762560068730595E-15 ) ) ;
#29 = AXIS2_PLACEMENT_3D ( 'NONE', #131, #260, #125 ) ;
#30 = EDGE_CURVE ( 'NONE', #282, #62, #317, .T. ) ;
#31 = DIRECTION ( 'NONE',  ( 2.445875065811800752E-29, -3.490899551934899952E-15, -1.000000000000000000 ) ) ;
#32 = AXIS2_PLACEMENT_3D ( 'NONE', #157, #216, #59 ) ;
#33 = MANIFOLD_SOLID_BREP ( 'Body-Move/Copy2[1]', #161 ) ;
#34 = DIRECTION ( 'NONE',  ( -2.445875065811801312E-29, 3.490899551934899952E-15, 1.000000000000000000 ) ) ;
#35 = CARTESIAN_POINT ( 'NONE',  ( 4.891750131623623714E-31, -6.981799103869829190E-17, -0.02000000000000008715 ) ) ;
#36 = VERTEX_POINT ( 'NONE', #330 ) ;
#37 = EDGE_CURVE ( 'NONE', #407, #292, #178, .T. ) ;
#38 = DIRECTION ( 'NONE',  ( -2.445875065811801312E-29, 3.490899551934899952E-15, 1.000000000000000000 ) ) ;
#39 = ADVANCED_BREP_SHAPE_REPRESENTATION ( '32207', ( #33, #170, #116 ), #13 ) ;
#40 = ORIENTED_EDGE ( 'NONE', *, *, #306, .F. ) ;
#41 = AXIS2_PLACEMENT_3D ( 'NONE', #35, #164, #69 ) ;
#42 = CC_DESIGN_DATE_AND_TIME_ASSIGNMENT ( #174, #44, ( #22 ) ) ;
#43 = DIRECTION ( 'NONE',  ( -2.445875065811801593E-29, 3.490899551934899952E-15, 1.000000000000000000 ) ) ;
#44 = DATE_TIME_ROLE ( 'classification_date' ) ;
#45 = UNCERTAINTY_MEASURE_WITH_UNIT (LENGTH_MEASURE( 1.000000000000000082E-05 ), #210, 'distance_accuracy_value', 'NONE');
#46 = ADVANCED_FACE ( 'NONE', ( #240 ), #302, .T. ) ;
#47 = CC_DESIGN_SECURITY_CLASSIFICATION ( #22, ( #159 ) ) ;
#48 = APPROVAL_STATUS ( 'not_yet_approved' ) ;
#49 = VECTOR ( 'NONE', #380, 39.37007874015748143 ) ;
#50 = APPROVAL_DATE_TIME ( #331, #142 ) ;
#51 = PLANE ( 'NONE',  #115 ) ;
#52 = DATE_AND_TIME ( #79, #351 ) ;
#53 = DIRECTION ( 'NONE',  ( -1.000000000000000000, 6.982962677686265922E-15, -4.883557194083112340E-29 ) ) ;
#54 = CARTESIAN_POINT ( 'NONE',  ( 2.657429831742868958E-15, 0.3739999999999865099, -3.875000000000001332 ) ) ;
#55 = AXIS2_PLACEMENT_3D ( 'NONE', #276, #348, #80 ) ;
#56 = CARTESIAN_POINT ( 'NONE',  ( 9.477765880020728404E-29, -1.352723576374773702E-14, -3.875000000000000000 ) ) ;
#57 = CARTESIAN_POINT ( 'NONE',  ( 1.159054065223865578E-28, -1.749515389500038536E-14, -4.875000000000000000 ) ) ;
#58 = EDGE_CURVE ( 'NONE', #290, #411, #399, .T. ) ;
#59 = DIRECTION ( 'NONE',  ( 1.000000000000000000, -6.982962677686260400E-15, 0.000000000000000000 ) ) ;
#60 = ORIENTED_EDGE ( 'NONE', *, *, #77, .T. ) ;
#61 = DIRECTION ( 'NONE',  ( -1.000000000000000000, 6.982962677686265922E-15, -4.883557194083112340E-29 ) ) ;
#62 = VERTEX_POINT ( 'NONE', #398 ) ;
#63 = DIRECTION ( 'NONE',  ( -1.000000000000000000, 7.105427357601001070E-15, -4.926315508542082329E-29 ) ) ;
#64 = ORIENTED_EDGE ( 'NONE', *, *, #185, .F. ) ;
#65 = DIRECTION ( 'NONE',  ( -6.982962677686266711E-15, -1.000000000000000000, 3.490899551934900346E-15 ) ) ;
#66 = EDGE_LOOP ( 'NONE', ( #385, #284, #405, #342, #309 ) ) ;
#67 = DIRECTION ( 'NONE',  ( -2.445875065811801593E-29, 3.490899551934899952E-15, 1.000000000000000000 ) ) ;
#68 = PRODUCT_RELATED_PRODUCT_CATEGORY ( 'detail', '', ( #108 ) ) ;
#69 = DIRECTION ( 'NONE',  ( -6.982962677686265922E-15, -1.000000000000000000, 3.494488891895535640E-15 ) ) ;
#70 = ADVANCED_FACE ( 'NONE', ( #315 ), #51, .F. ) ;
#71 = ORIENTED_EDGE ( 'NONE', *, *, #376, .F. ) ;
#72 = DIRECTION ( 'NONE',  ( 4.937700262164538576E-15, 0.7071067811865437980, -0.7071067811865512365 ) ) ;
#73 = EDGE_LOOP ( 'NONE', ( #78, #252, #60, #40 ) ) ;
#74 = CARTESIAN_POINT ( 'NONE',  ( 9.475320004954918096E-29, -1.352374486419580269E-14, -3.874000000000000110 ) ) ;
#75 = DIRECTION ( 'NONE',  ( 1.000000000000000000, 0.000000000000000000, 0.000000000000000000 ) ) ;
#76 = COORDINATED_UNIVERSAL_TIME_OFFSET ( 5, 0, .BEHIND. ) ;
#77 = EDGE_CURVE ( 'NONE', #130, #86, #334, .T. ) ;
#78 = ORIENTED_EDGE ( 'NONE', *, *, #258, .F. ) ;
#79 = CALENDAR_DATE ( 2024, 21, 2 ) ;
#80 = DIRECTION ( 'NONE',  ( -6.982962677686266711E-15, -1.000000000000000000, 2.921762560068730595E-15 ) ) ;
#81 = ORIENTED_EDGE ( 'NONE', *, *, #155, .F. ) ;
#82 = LINE ( 'NONE', #54, #49 ) ;
#83 = CIRCLE ( 'NONE', #162, 0.3750000000000000555 ) ;
#84 = DIRECTION ( 'NONE',  ( 2.445875065811801312E-29, -3.490899551934899952E-15, -1.000000000000000000 ) ) ;
#85 = DIRECTION ( 'NONE',  ( -6.982962677686266711E-15, -1.000000000000000000, 2.921762560068730595E-15 ) ) ;
#86 = VERTEX_POINT ( 'NONE', #109 ) ;
#87 = DIRECTION ( 'NONE',  ( -2.445468806185136597E-29, 3.491481338843145583E-15, 1.000000000000000000 ) ) ;
#88 = EDGE_LOOP ( 'NONE', ( #274, #307 ) ) ;
#89 = CC_DESIGN_APPROVAL ( #373, ( #22 ) ) ;
#90 = CARTESIAN_POINT ( 'NONE',  ( -4.484255182858067622E-45, 6.400197879038148108E-31, 1.833395027218904533E-16 ) ) ;
#91 = VECTOR ( 'NONE', #67, 39.37007874015748143 ) ;
#92 = ADVANCED_FACE ( 'NONE', ( #369 ), #335, .F. ) ;
#93 = PERSON ( 'UNSPECIFIED', 'UNSPECIFIED', 'UNSPECIFIED', ('UNSPECIFIED'), ('UNSPECIFIED'), ('UNSPECIFIED') ) ;
#94 = DIRECTION ( 'NONE',  ( 6.982962677686265922E-15, 1.000000000000000000, -2.913971193241879977E-15 ) ) ;
#95 = ORIENTED_EDGE ( 'NONE', *, *, #149, .T. ) ;
#96 = DIRECTION ( 'NONE',  ( -1.000000000000000000, 6.982962677686265922E-15, -4.876176775795935793E-29 ) ) ;
#97 = CARTESIAN_POINT ( 'NONE',  ( 2.618611004132444680E-15, 0.3749999999999865108, -3.875000000000001332 ) ) ;
#98 = ORIENTED_EDGE ( 'NONE', *, *, #300, .F. ) ;
#99 = FACE_OUTER_BOUND ( 'NONE', #66, .T. ) ;
#100 = ORIENTED_EDGE ( 'NONE', *, *, #242, .F. ) ;
#101 = DIRECTION ( 'NONE',  ( -6.982962677686265922E-15, -1.000000000000000000, 3.490899551934899557E-15 ) ) ;
#102 = LENGTH_MEASURE_WITH_UNIT ( LENGTH_MEASURE( 0.02539999999999999897 ), #387 );
#103 = CYLINDRICAL_SURFACE ( 'NONE', #386, 0.3750000000000002776 ) ;
#104 = ADVANCED_FACE ( 'NONE', ( #246 ), #202, .T. ) ;
#105 = CIRCLE ( 'NONE', #123, 0.3750000000000004996 ) ;
#106 = MECHANICAL_CONTEXT ( 'NONE', #356, 'mechanical' ) ;
#107 = PERSON_AND_ORGANIZATION ( #93, #250 ) ;
#108 = PRODUCT ( '32207', '32207', '', ( #106 ) ) ;
#109 = CARTESIAN_POINT ( 'NONE',  ( 2.618611004132351200E-15, 0.3750000000000000555, -0.02000000000000139513 ) ) ;
#110 = PERSON_AND_ORGANIZATION ( #93, #250 ) ;
#111 = CARTESIAN_POINT ( 'NONE',  ( -2.611628041454568944E-15, -0.3740000000000135438, -3.874999999999999112 ) ) ;
#112 = APPROVAL_DATE_TIME ( #151, #373 ) ;
#113 = DIRECTION ( 'NONE',  ( -6.982962677686265922E-15, -1.000000000000000000, 3.494488891895535640E-15 ) ) ;
#114 = DIRECTION ( 'NONE',  ( -2.445468806185136597E-29, 3.491481338843145583E-15, 1.000000000000000000 ) ) ;
#115 = AXIS2_PLACEMENT_3D ( 'NONE', #338, #31, #396 ) ;
#116 = AXIS2_PLACEMENT_3D ( 'NONE', #169, #5, #75 ) ;
#117 = CARTESIAN_POINT ( 'NONE',  ( -0.3750000000000001110, 2.664535259100376486E-15, -1.844600658845590159E-29 ) ) ;
#118 = AXIS2_PLACEMENT_3D ( 'NONE', #166, #293, #233 ) ;
#119 = ORIENTED_EDGE ( 'NONE', *, *, #306, .T. ) ;
#120 = ORIENTED_EDGE ( 'NONE', *, *, #6, .F. ) ;
#121 = DIRECTION ( 'NONE',  ( 1.000000000000000000, -6.982962677686266711E-15, 0.000000000000000000 ) ) ;
#122 = CARTESIAN_POINT ( 'NONE',  ( -2.572686749164324336E-15, -0.3750000000000001665, -0.01999999999999877570 ) ) ;
#123 = AXIS2_PLACEMENT_3D ( 'NONE', #314, #389, #167 ) ;
#124 = ORIENTED_EDGE ( 'NONE', *, *, #328, .T. ) ;
#125 = DIRECTION ( 'NONE',  ( 1.000000000000000000, -6.982962677686265922E-15, 4.876176775795935793E-29 ) ) ;
#126 = ADVANCED_FACE ( 'NONE', ( #289 ), #103, .T. ) ;
#127 = DIRECTION ( 'NONE',  ( 1.000000000000000000, -6.982962677686265922E-15, 4.883557194083112340E-29 ) ) ;
#128 = ORIENTED_EDGE ( 'NONE', *, *, #242, .T. ) ;
#129 = DIRECTION ( 'NONE',  ( 2.438088387897960049E-29, -3.491481338843145188E-15, -1.000000000000000000 ) ) ;
#130 = VERTEX_POINT ( 'NONE', #122 ) ;
#131 = CARTESIAN_POINT ( 'NONE',  ( 0.000000000000000000, 0.000000000000000000, 0.000000000000000000 ) ) ;
#132 = DIRECTION ( 'NONE',  ( -4.851104656540954809E-15, -0.7071067811865486830, -0.7071067811865463515 ) ) ;
#133 = DIRECTION ( 'NONE',  ( 6.982962677686265922E-15, 1.000000000000000000, -3.494488891895535640E-15 ) ) ;
#134 = EDGE_CURVE ( 'NONE', #282, #313, #214, .T. ) ;
#135 = VECTOR ( 'NONE', #72, 39.37007874015748143 ) ;
#136 = LOCAL_TIME ( 12, 36, 50.00000000000000000, #238 ) ;
#137 = AXIS2_PLACEMENT_3D ( 'NONE', #27, #18, #212 ) ;
#138 = CIRCLE ( 'NONE', #32, 0.3750000000000001110 ) ;
#139 = PERSON_AND_ORGANIZATION ( #93, #250 ) ;
#140 = ADVANCED_FACE ( 'NONE', ( #343 ), #378, .T. ) ;
#141 = COORDINATED_UNIVERSAL_TIME_OFFSET ( 5, 0, .BEHIND. ) ;
#142 = APPROVAL ( #146, 'UNSPECIFIED' ) ;
#143 = PRODUCT_DEFINITION_SHAPE ( 'NONE', 'NONE',  #158 ) ;
#144 = EDGE_LOOP ( 'NONE', ( #388, #191, #119, #345 ) ) ;
#145 = CIRCLE ( 'NONE', #350, 0.3750000000000000555 ) ;
#146 = APPROVAL_STATUS ( 'not_yet_approved' ) ;
#147 = CARTESIAN_POINT ( 'NONE',  ( 0.3750000000000001110, -2.618611004132350411E-15, 1.828566290923476483E-29 ) ) ;
#148 = DIRECTION ( 'NONE',  ( -2.445468806185136597E-29, 3.491481338843145583E-15, 1.000000000000000000 ) ) ;
#149 = EDGE_CURVE ( 'NONE', #292, #21, #82, .T. ) ;
#150 = ORIENTED_EDGE ( 'NONE', *, *, #6, .T. ) ;
#151 = DATE_AND_TIME ( #270, #172 ) ;
#152 = ORIENTED_EDGE ( 'NONE', *, *, #328, .F. ) ;
#153 = CIRCLE ( 'NONE', #118, 0.3750000000000001110 ) ;
#154 = VERTEX_POINT ( 'NONE', #188 ) ;
#155 = EDGE_CURVE ( 'NONE', #313, #411, #83, .T. ) ;
#156 = ORIENTED_EDGE ( 'NONE', *, *, #30, .T. ) ;
#157 = CARTESIAN_POINT ( 'NONE',  ( 1.192166043015254091E-28, -1.702097152686033664E-14, -4.875000000000000000 ) ) ;
#158 = PRODUCT_DEFINITION ( 'UNKNOWN', '', #159, #395 ) ;
#159 = PRODUCT_DEFINITION_FORMATION_WITH_SPECIFIED_SOURCE ( 'ANY', '', #108, .NOT_KNOWN. ) ;
#160 = CARTESIAN_POINT ( 'NONE',  ( -2.611628041454568944E-15, -0.3740000000000135438, -3.874999999999999112 ) ) ;
#161 = CLOSED_SHELL ( 'NONE', ( #291, #46, #140, #311, #253 ) ) ;
#162 = AXIS2_PLACEMENT_3D ( 'NONE', #336, #406, #121 ) ;
#163 = CC_DESIGN_PERSON_AND_ORGANIZATION_ASSIGNMENT ( #8, #176, ( #159 ) ) ;
#164 = DIRECTION ( 'NONE',  ( -2.445875065811801312E-29, 3.490899551934899952E-15, 1.000000000000000000 ) ) ;
#165 = VERTEX_POINT ( 'NONE', #190 ) ;
#166 = CARTESIAN_POINT ( 'NONE',  ( 1.192166043015254091E-28, -1.702097152686033664E-14, -4.875000000000000000 ) ) ;
#167 = DIRECTION ( 'NONE',  ( -6.982962677686266711E-15, -1.000000000000000000, 2.913971193241876822E-15 ) ) ;
#168 = DIRECTION ( 'NONE',  ( -2.445875065811801312E-29, 3.490899551934899952E-15, 1.000000000000000000 ) ) ;
#169 = CARTESIAN_POINT ( 'NONE',  ( 0.000000000000000000, 0.000000000000000000, 0.000000000000000000 ) ) ;
#170 = MANIFOLD_SOLID_BREP ( 'Body-Move/Copy2[2]', #379 ) ;
#171 = AXIS2_PLACEMENT_3D ( 'NONE', #19, #283, #85 ) ;
#172 = LOCAL_TIME ( 12, 36, 50.00000000000000000, #141 ) ;
#173 = CIRCLE ( 'NONE', #264, 0.3750000000000001110 ) ;
#174 = DATE_AND_TIME ( #275, #344 ) ;
#175 = DIRECTION ( 'NONE',  ( -2.445875065811801312E-29, 3.490899551934899952E-15, 1.000000000000000000 ) ) ;
#176 = PERSON_AND_ORGANIZATION_ROLE ( 'creator' ) ;
#177 = CARTESIAN_POINT ( 'NONE',  ( 1.159054065223865578E-28, -1.749515389500038536E-14, -4.875000000000000000 ) ) ;
#178 = CIRCLE ( 'NONE', #55, 0.3739999999999999991 ) ;
#179 = DIRECTION ( 'NONE',  ( -2.445468806185136597E-29, 3.491481338843145583E-15, 1.000000000000000000 ) ) ;
#180 = EDGE_CURVE ( 'NONE', #215, #332, #392, .T. ) ;
#181 = DIRECTION ( 'NONE',  ( -2.445875065811800752E-29, 3.490899551934899952E-15, 1.000000000000000000 ) ) ;
#182 = DIRECTION ( 'NONE',  ( 1.000000000000000000, -6.982962677686266711E-15, 0.000000000000000000 ) ) ;
#183 = APPROVAL ( #48, 'UNSPECIFIED' ) ;
#184 = FACE_OUTER_BOUND ( 'NONE', #232, .T. ) ;
#185 = EDGE_CURVE ( 'NONE', #36, #282, #213, .T. ) ;
#186 = APPROVAL_PERSON_ORGANIZATION ( #107, #373, #10 ) ;
#187 = ORIENTED_EDGE ( 'NONE', *, *, #217, .T. ) ;
#188 = CARTESIAN_POINT ( 'NONE',  ( -2.618611004132258903E-15, -0.3750000000000140443, -3.873999999999999222 ) ) ;
#189 = ORIENTED_EDGE ( 'NONE', *, *, #393, .F. ) ;
#190 = CARTESIAN_POINT ( 'NONE',  ( 1.252362582248019568E-28, -1.878149726958255384E-14, -5.250000000000000000 ) ) ;
#191 = ORIENTED_EDGE ( 'NONE', *, *, #180, .F. ) ;
#192 = CARTESIAN_POINT ( 'NONE',  ( -2.618611004132351989E-15, -0.3750000000000002776, 1.309087331975588567E-15 ) ) ;
#193 = DIRECTION ( 'NONE',  ( -2.445468806185136877E-29, 3.491481338843145188E-15, 1.000000000000000000 ) ) ;
#194 = AXIS2_PLACEMENT_3D ( 'NONE', #97, #129, #96 ) ;
#195 = CARTESIAN_POINT ( 'NONE',  ( 9.477765880020728404E-29, -1.352723576374773702E-14, -3.875000000000000000 ) ) ;
#196 = VECTOR ( 'NONE', #346, 39.37007874015748143 ) ;
#197 = DIRECTION ( 'NONE',  ( -6.982962677686266711E-15, -1.000000000000000000, 2.913971193241876822E-15 ) ) ;
#198 = EDGE_LOOP ( 'NONE', ( #279, #124, #256, #189 ) ) ;
#199 = CARTESIAN_POINT ( 'NONE',  ( -2.504081769186608216E-15, -0.3549999999999999267, 1.422608843658779545E-15 ) ) ;
#200 = ORIENTED_EDGE ( 'NONE', *, *, #37, .F. ) ;
#201 = DIRECTION ( 'NONE',  ( -2.445875065811801312E-29, 3.490899551934899952E-15, 1.000000000000000000 ) ) ;
#202 = CONICAL_SURFACE ( 'NONE', #235, 0.3750000000000001110, 0.7853981633974465026 ) ;
#203 = CALENDAR_DATE ( 2024, 21, 2 ) ;
#204 = APPROVAL_DATE_TIME ( #52, #183 ) ;
#205 = EDGE_CURVE ( 'NONE', #165, #62, #266, .T. ) ;
#206 =( NAMED_UNIT ( * ) SI_UNIT ( $, .STERADIAN. ) SOLID_ANGLE_UNIT ( ) );
#207 = CONICAL_SURFACE ( 'NONE', #401, 0.3750000000000001110, 0.7853981633974465026 ) ;
#208 = PERSON_AND_ORGANIZATION_ROLE ( 'design_owner' ) ;
#209 = CARTESIAN_POINT ( 'NONE',  ( 1.192166043015254091E-28, -1.702097152686033664E-14, -4.875000000000000000 ) ) ;
#210 =( CONVERSION_BASED_UNIT ( 'INCH', #102 ) LENGTH_UNIT ( ) NAMED_UNIT ( #223 ) );
#211 = DIRECTION ( 'NONE',  ( 1.000000000000000000, -6.982962677686260400E-15, 0.000000000000000000 ) ) ;
#212 = DIRECTION ( 'NONE',  ( -6.982962677686266711E-15, -1.000000000000000000, 2.921762560068730595E-15 ) ) ;
#213 = CIRCLE ( 'NONE', #247, 0.3750000000000001110 ) ;
#214 = LINE ( 'NONE', #117, #196 ) ;
#215 = VERTEX_POINT ( 'NONE', #312 ) ;
#216 = DIRECTION ( 'NONE',  ( -2.445468806185136597E-29, 3.491481338843145583E-15, 1.000000000000000000 ) ) ;
#217 = EDGE_CURVE ( 'NONE', #411, #313, #145, .T. ) ;
#218 = ORIENTED_EDGE ( 'NONE', *, *, #267, .F. ) ;
#219 = CC_DESIGN_APPROVAL ( #142, ( #158 ) ) ;
#220 = EDGE_LOOP ( 'NONE', ( #249, #1, #218, #100 ) ) ;
#221 = CARTESIAN_POINT ( 'NONE',  ( 1.192166043015254091E-28, -1.702097152686033664E-14, -4.875000000000000000 ) ) ;
#222 = CYLINDRICAL_SURFACE ( 'NONE', #29, 0.3750000000000001110 ) ;
#223 = DIMENSIONAL_EXPONENTS ( 1.000000000000000000, 0.000000000000000000, 0.000000000000000000, 0.000000000000000000, 0.000000000000000000, 0.000000000000000000, 0.000000000000000000 ) ;
#224 = LINE ( 'NONE', #111, #391 ) ;
#225 = CARTESIAN_POINT ( 'NONE',  ( -0.3750000000000000555, -1.261069559833838480E-14, -3.875000000000000000 ) ) ;
#226 = CIRCLE ( 'NONE', #7, 0.3750000000000004996 ) ;
#227 = LINE ( 'NONE', #357, #245 ) ;
#228 = AXIS2_PLACEMENT_3D ( 'NONE', #285, #175, #113 ) ;
#229 = ORIENTED_EDGE ( 'NONE', *, *, #295, .F. ) ;
#230 = FACE_OUTER_BOUND ( 'NONE', #374, .T. ) ;
#231 = ADVANCED_FACE ( 'NONE', ( #305 ), #316, .T. ) ;
#232 = EDGE_LOOP ( 'NONE', ( #322, #156, #128, #381, #81 ) ) ;
#233 = DIRECTION ( 'NONE',  ( 1.000000000000000000, -6.982962677686260400E-15, 0.000000000000000000 ) ) ;
#234 = PERSON_AND_ORGANIZATION ( #93, #250 ) ;
#235 = AXIS2_PLACEMENT_3D ( 'NONE', #372, #84, #133 ) ;
#236 = CALENDAR_DATE ( 2024, 21, 2 ) ;
#237 = PERSON_AND_ORGANIZATION ( #93, #250 ) ;
#238 = COORDINATED_UNIVERSAL_TIME_OFFSET ( 5, 0, .BEHIND. ) ;
#239 = APPROVAL_PERSON_ORGANIZATION ( #110, #142, #367 ) ;
#240 = FACE_OUTER_BOUND ( 'NONE', #244, .T. ) ;
#241 = DATE_TIME_ROLE ( 'creation_date' ) ;
#242 = EDGE_CURVE ( 'NONE', #62, #290, #138, .T. ) ;
#243 = FACE_OUTER_BOUND ( 'NONE', #358, .T. ) ;
#244 = EDGE_LOOP ( 'NONE', ( #98, #366, #12, #64 ) ) ;
#245 = VECTOR ( 'NONE', #43, 39.37007874015748143 ) ;
#246 = FACE_OUTER_BOUND ( 'NONE', #73, .T. ) ;
#247 = AXIS2_PLACEMENT_3D ( 'NONE', #221, #179, #375 ) ;
#248 = ORIENTED_EDGE ( 'NONE', *, *, #403, .F. ) ;
#249 = ORIENTED_EDGE ( 'NONE', *, *, #205, .F. ) ;
#250 = ORGANIZATION ( 'UNSPECIFIED', 'UNSPECIFIED', '' ) ;
#251 = AXIS2_PLACEMENT_3D ( 'NONE', #57, #63, #303 ) ;
#252 = ORIENTED_EDGE ( 'NONE', *, *, #337, .T. ) ;
#253 = ADVANCED_FACE ( 'NONE', ( #184 ), #23, .T. ) ;
#254 = CARTESIAN_POINT ( 'NONE',  ( -0.3750000000000001110, -1.261069559833838637E-14, -4.875000000000000000 ) ) ;
#255 = CARTESIAN_POINT ( 'NONE',  ( 2.660982545421671434E-15, 0.3739999999999865099, -3.875000000000001332 ) ) ;
#256 = ORIENTED_EDGE ( 'NONE', *, *, #77, .F. ) ;
#257 = LINE ( 'NONE', #192, #91 ) ;
#258 = EDGE_CURVE ( 'NONE', #332, #215, #281, .T. ) ;
#259 = ORIENTED_EDGE ( 'NONE', *, *, #320, .F. ) ;
#260 = DIRECTION ( 'NONE',  ( -2.445468806185136597E-29, 3.491481338843145583E-15, 1.000000000000000000 ) ) ;
#261 = CC_DESIGN_PERSON_AND_ORGANIZATION_ASSIGNMENT ( #139, #14, ( #159 ) ) ;
#262 = CYLINDRICAL_SURFACE ( 'NONE', #16, 0.3750000000000002776 ) ;
#263 = APPLICATION_CONTEXT ( 'configuration controlled 3d designs of mechanical parts and assemblies' ) ;
#264 = AXIS2_PLACEMENT_3D ( 'NONE', #383, #127, #410 ) ;
#265 = CONICAL_SURFACE ( 'NONE', #137, 0.3739999999999999991, 0.7853981633977896726 ) ;
#266 = CIRCLE ( 'NONE', #251, 0.3750000000000001110 ) ;
#267 = EDGE_CURVE ( 'NONE', #290, #36, #153, .T. ) ;
#268 = SECURITY_CLASSIFICATION_LEVEL ( 'unclassified' ) ;
#269 = CC_DESIGN_PERSON_AND_ORGANIZATION_ASSIGNMENT ( #237, #272, ( #158 ) ) ;
#270 = CALENDAR_DATE ( 2024, 21, 2 ) ;
#271 = CARTESIAN_POINT ( 'NONE',  ( 2.664535259100425790E-15, 0.3749999999999870104, -3.874000000000001442 ) ) ;
#272 = PERSON_AND_ORGANIZATION_ROLE ( 'creator' ) ;
#273 = LOCAL_TIME ( 12, 36, 50.00000000000000000, #394 ) ;
#274 = ORIENTED_EDGE ( 'NONE', *, *, #180, .T. ) ;
#275 = CALENDAR_DATE ( 2024, 21, 2 ) ;
#276 = CARTESIAN_POINT ( 'NONE',  ( 9.477765880020728404E-29, -1.352723576374773702E-14, -3.875000000000000000 ) ) ;
#277 = DIRECTION ( 'NONE',  ( 6.982962677686265922E-15, 1.000000000000000000, -2.913971193241879977E-15 ) ) ;
#278 = ADVANCED_FACE ( 'NONE', ( #325 ), #207, .T. ) ;
#279 = ORIENTED_EDGE ( 'NONE', *, *, #320, .T. ) ;
#280 = CIRCLE ( 'NONE', #41, 0.3750000000000001110 ) ;
#281 = CIRCLE ( 'NONE', #371, 0.3549999999999999267 ) ;
#282 = VERTEX_POINT ( 'NONE', #254 ) ;
#283 = DIRECTION ( 'NONE',  ( -2.445875065811801312E-29, 3.490899551934899952E-15, 1.000000000000000000 ) ) ;
#284 = ORIENTED_EDGE ( 'NONE', *, *, #134, .T. ) ;
#285 = CARTESIAN_POINT ( 'NONE',  ( 4.891750131623623714E-31, -6.981799103869829190E-17, -0.02000000000000008715 ) ) ;
#286 = APPROVAL_PERSON_ORGANIZATION ( #361, #183, #362 ) ;
#287 = CARTESIAN_POINT ( 'NONE',  ( 0.3750000000000000555, -1.614810119214954068E-14, -3.875000000000000000 ) ) ;
#288 = CC_DESIGN_PERSON_AND_ORGANIZATION_ASSIGNMENT ( #234, #365, ( #22 ) ) ;
#289 = FACE_OUTER_BOUND ( 'NONE', #377, .T. ) ;
#290 = VERTEX_POINT ( 'NONE', #359 ) ;
#291 = ADVANCED_FACE ( 'NONE', ( #99 ), #222, .T. ) ;
#292 = VERTEX_POINT ( 'NONE', #255 ) ;
#293 = DIRECTION ( 'NONE',  ( -2.445468806185136597E-29, 3.491481338843145583E-15, 1.000000000000000000 ) ) ;
#294 = DIRECTION ( 'NONE',  ( 6.982962677686265922E-15, 1.000000000000000000, -3.494488891895535640E-15 ) ) ;
#295 = EDGE_CURVE ( 'NONE', #21, #154, #105, .T. ) ;
#296 = VECTOR ( 'NONE', #132, 39.37007874015748143 ) ;
#297 = APPLICATION_PROTOCOL_DEFINITION ( 'international standard', 'config_control_design', 1994, #263 ) ;
#298 = AXIS2_PLACEMENT_3D ( 'NONE', #404, #87, #390 ) ;
#299 = APPROVAL_STATUS ( 'not_yet_approved' ) ;
#300 = EDGE_CURVE ( 'NONE', #165, #36, #173, .T. ) ;
#301 = EDGE_LOOP ( 'NONE', ( #200, #248 ) ) ;
#302 = SPHERICAL_SURFACE ( 'NONE', #408, 0.3750000000000001110 ) ;
#303 = DIRECTION ( 'NONE',  ( -7.105427357601001070E-15, -1.000000000000000000, 0.000000000000000000 ) ) ;
#304 = DIRECTION ( 'NONE',  ( -6.982962677686265922E-15, -1.000000000000000000, 3.490899551934899952E-15 ) ) ;
#305 = FACE_OUTER_BOUND ( 'NONE', #402, .T. ) ;
#306 = EDGE_CURVE ( 'NONE', #215, #86, #409, .T. ) ;
#307 = ORIENTED_EDGE ( 'NONE', *, *, #258, .T. ) ;
#308 = DIRECTION ( 'NONE',  ( -6.982962677686266711E-15, -1.000000000000000000, 3.490899551934900346E-15 ) ) ;
#309 = ORIENTED_EDGE ( 'NONE', *, *, #267, .T. ) ;
#310 = ORIENTED_EDGE ( 'NONE', *, *, #295, .T. ) ;
#311 = ADVANCED_FACE ( 'NONE', ( #230 ), #319, .F. ) ;
#312 = CARTESIAN_POINT ( 'NONE',  ( 2.548781377355487113E-15, 0.3549999999999999267, -1.055929838214998687E-15 ) ) ;
#313 = VERTEX_POINT ( 'NONE', #225 ) ;
#314 = CARTESIAN_POINT ( 'NONE',  ( 9.475320004954918096E-29, -1.352374486419580269E-14, -3.874000000000000110 ) ) ;
#315 = FACE_OUTER_BOUND ( 'NONE', #88, .T. ) ;
#316 = CONICAL_SURFACE ( 'NONE', #171, 0.3739999999999999991, 0.7853981633977896726 ) ;
#317 = CIRCLE ( 'NONE', #352, 0.3750000000000001110 ) ;
#318 = AXIS2_PLACEMENT_3D ( 'NONE', #56, #181, #304 ) ;
#319 = PLANE ( 'NONE',  #194 ) ;
#320 = EDGE_CURVE ( 'NONE', #154, #21, #226, .T. ) ;
#321 = LINE ( 'NONE', #4, #296 ) ;
#322 = ORIENTED_EDGE ( 'NONE', *, *, #134, .F. ) ;
#323 = CARTESIAN_POINT ( 'NONE',  ( -4.484255182858067622E-45, 6.400197879038148108E-31, 1.833395027218904533E-16 ) ) ;
#324 = ORIENTED_EDGE ( 'NONE', *, *, #393, .T. ) ;
#325 = FACE_OUTER_BOUND ( 'NONE', #144, .T. ) ;
#326 = CIRCLE ( 'NONE', #384, 0.3739999999999999991 ) ;
#327 = COORDINATED_UNIVERSAL_TIME_OFFSET ( 5, 0, .BEHIND. ) ;
#328 = EDGE_CURVE ( 'NONE', #21, #86, #227, .T. ) ;
#329 = APPLICATION_PROTOCOL_DEFINITION ( 'international standard', 'config_control_design', 1994, #356 ) ;
#330 = CARTESIAN_POINT ( 'NONE',  ( 2.618611004132467951E-15, 0.3749999999999829026, -4.875000000000001776 ) ) ;
#331 = DATE_AND_TIME ( #203, #136 ) ;
#332 = VERTEX_POINT ( 'NONE', #199 ) ;
#333 = DIRECTION ( 'NONE',  ( -6.982962677686265922E-15, -1.000000000000000000, 3.490899551934899557E-15 ) ) ;
#334 = CIRCLE ( 'NONE', #228, 0.3750000000000001110 ) ;
#335 = PLANE ( 'NONE',  #318 ) ;
#336 = CARTESIAN_POINT ( 'NONE',  ( 9.476191623967404313E-29, -1.352949018801718908E-14, -3.875000000000000000 ) ) ;
#337 = EDGE_CURVE ( 'NONE', #332, #130, #321, .T. ) ;
#338 = CARTESIAN_POINT ( 'NONE',  ( 2.478951750578623815E-15, 0.3549999999999999267, -1.147599589575943902E-15 ) ) ;
#339 = DIRECTION ( 'NONE',  ( -2.445875065811801312E-29, 3.490899551934899952E-15, 1.000000000000000000 ) ) ;
#340 = CC_DESIGN_DATE_AND_TIME_ASSIGNMENT ( #397, #241, ( #158 ) ) ;
#341 = SHAPE_DEFINITION_REPRESENTATION ( #143, #39 ) ;
#342 = ORIENTED_EDGE ( 'NONE', *, *, #58, .F. ) ;
#343 = FACE_OUTER_BOUND ( 'NONE', #220, .T. ) ;
#344 = LOCAL_TIME ( 12, 36, 50.00000000000000000, #327 ) ;
#345 = ORIENTED_EDGE ( 'NONE', *, *, #376, .T. ) ;
#346 = DIRECTION ( 'NONE',  ( -2.445468806185136877E-29, 3.491481338843145188E-15, 1.000000000000000000 ) ) ;
#347 = CARTESIAN_POINT ( 'NONE',  ( 0.000000000000000000, 0.000000000000000000, 0.000000000000000000 ) ) ;
#348 = DIRECTION ( 'NONE',  ( -2.445875065811801312E-29, 3.490899551934899952E-15, 1.000000000000000000 ) ) ;
#349 = DIRECTION ( 'NONE',  ( -2.445875065811801312E-29, 3.490899551934899952E-15, 1.000000000000000000 ) ) ;
#350 = AXIS2_PLACEMENT_3D ( 'NONE', #26, #148, #182 ) ;
#351 = LOCAL_TIME ( 12, 36, 50.00000000000000000, #76 ) ;
#352 = AXIS2_PLACEMENT_3D ( 'NONE', #209, #114, #211 ) ;
#353 = VECTOR ( 'NONE', #193, 39.37007874015748143 ) ;
#354 = FACE_OUTER_BOUND ( 'NONE', #198, .T. ) ;
#355 = ORIENTED_EDGE ( 'NONE', *, *, #403, .T. ) ;
#356 = APPLICATION_CONTEXT ( 'configuration controlled 3d designs of mechanical parts and assemblies' ) ;
#357 = CARTESIAN_POINT ( 'NONE',  ( 2.664535259100377275E-15, 0.3750000000000002776, -1.309087331975588567E-15 ) ) ;
#358 = EDGE_LOOP ( 'NONE', ( #25, #355, #150, #229 ) ) ;
#359 = CARTESIAN_POINT ( 'NONE',  ( 0.3750000000000001110, -1.789384186157111051E-14, -4.875000000000000000 ) ) ;
#360 =( NAMED_UNIT ( * ) PLANE_ANGLE_UNIT ( ) SI_UNIT ( $, .RADIAN. ) );
#361 = PERSON_AND_ORGANIZATION ( #93, #250 ) ;
#362 = APPROVAL_ROLE ( '' ) ;
#363 = ADVANCED_FACE ( 'NONE', ( #354 ), #262, .T. ) ;
#364 = CC_DESIGN_APPROVAL ( #183, ( #159 ) ) ;
#365 = PERSON_AND_ORGANIZATION_ROLE ( 'classification_officer' ) ;
#366 = ORIENTED_EDGE ( 'NONE', *, *, #205, .T. ) ;
#367 = APPROVAL_ROLE ( '' ) ;
#368 = ORIENTED_EDGE ( 'NONE', *, *, #37, .T. ) ;
#369 = FACE_OUTER_BOUND ( 'NONE', #301, .T. ) ;
#370 = CARTESIAN_POINT ( 'NONE',  ( 1.159054065223865578E-28, -1.749515389500038536E-14, -4.875000000000000000 ) ) ;
#371 = AXIS2_PLACEMENT_3D ( 'NONE', #323, #38, #101 ) ;
#372 = CARTESIAN_POINT ( 'NONE',  ( 4.891750131623623714E-31, -6.981799103869829190E-17, -0.02000000000000008715 ) ) ;
#373 = APPROVAL ( #299, 'UNSPECIFIED' ) ;
#374 = EDGE_LOOP ( 'NONE', ( #187, #24 ) ) ;
#375 = DIRECTION ( 'NONE',  ( 1.000000000000000000, -6.982962677686260400E-15, 0.000000000000000000 ) ) ;
#376 = EDGE_CURVE ( 'NONE', #86, #130, #280, .T. ) ;
#377 = EDGE_LOOP ( 'NONE', ( #152, #310, #324, #71 ) ) ;
#378 = SPHERICAL_SURFACE ( 'NONE', #9, 0.3750000000000001110 ) ;
#379 = CLOSED_SHELL ( 'NONE', ( #231, #363, #104, #278, #126, #20, #92, #70 ) ) ;
#380 = DIRECTION ( 'NONE',  ( 5.024295867789777373E-15, 0.7071067811867913777, 0.7071067811863036567 ) ) ;
#381 = ORIENTED_EDGE ( 'NONE', *, *, #58, .T. ) ;
#382 = CARTESIAN_POINT ( 'NONE',  ( 2.618611004132351200E-15, 0.3750000000000000555, -0.02000000000000139513 ) ) ;
#383 = CARTESIAN_POINT ( 'NONE',  ( 1.159054065223865578E-28, -1.749515389500038536E-14, -4.875000000000000000 ) ) ;
#384 = AXIS2_PLACEMENT_3D ( 'NONE', #195, #34, #28 ) ;
#385 = ORIENTED_EDGE ( 'NONE', *, *, #185, .T. ) ;
#386 = AXIS2_PLACEMENT_3D ( 'NONE', #3, #168, #308 ) ;
#387 =( LENGTH_UNIT ( ) NAMED_UNIT ( * ) SI_UNIT ( $, .METRE. ) );
#388 = ORIENTED_EDGE ( 'NONE', *, *, #337, .F. ) ;
#389 = DIRECTION ( 'NONE',  ( -2.445875065811801312E-29, 3.490899551934899952E-15, 1.000000000000000000 ) ) ;
#390 = DIRECTION ( 'NONE',  ( 1.000000000000000000, -6.982962677686265922E-15, 4.876176775795935793E-29 ) ) ;
#391 = VECTOR ( 'NONE', #17, 39.37007874015748143 ) ;
#392 = CIRCLE ( 'NONE', #400, 0.3549999999999999267 ) ;
#393 = EDGE_CURVE ( 'NONE', #154, #130, #257, .T. ) ;
#394 = COORDINATED_UNIVERSAL_TIME_OFFSET ( 5, 0, .BEHIND. ) ;
#395 = DESIGN_CONTEXT ( 'detailed design', #263, 'design' ) ;
#396 = DIRECTION ( 'NONE',  ( 6.982962677686265922E-15, 1.000000000000000000, -3.490899551934899952E-15 ) ) ;
#397 = DATE_AND_TIME ( #236, #273 ) ;
#398 = CARTESIAN_POINT ( 'NONE',  ( -2.664535259100258157E-15, -0.3750000000000173195, -4.874999999999999112 ) ) ;
#399 = LINE ( 'NONE', #147, #353 ) ;
#400 = AXIS2_PLACEMENT_3D ( 'NONE', #90, #339, #333 ) ;
#401 = AXIS2_PLACEMENT_3D ( 'NONE', #412, #2, #294 ) ;
#402 = EDGE_LOOP ( 'NONE', ( #368, #95, #259, #120 ) ) ;
#403 = EDGE_CURVE ( 'NONE', #292, #407, #326, .T. ) ;
#404 = CARTESIAN_POINT ( 'NONE',  ( 0.000000000000000000, 0.000000000000000000, 0.000000000000000000 ) ) ;
#405 = ORIENTED_EDGE ( 'NONE', *, *, #217, .F. ) ;
#406 = DIRECTION ( 'NONE',  ( -2.445468806185136597E-29, 3.491481338843145583E-15, 1.000000000000000000 ) ) ;
#407 = VERTEX_POINT ( 'NONE', #160 ) ;
#408 = AXIS2_PLACEMENT_3D ( 'NONE', #177, #53, #277 ) ;
#409 = LINE ( 'NONE', #382, #135 ) ;
#410 = DIRECTION ( 'NONE',  ( 6.982962677686265922E-15, 1.000000000000000000, 0.000000000000000000 ) ) ;
#411 = VERTEX_POINT ( 'NONE', #287 ) ;
#412 = CARTESIAN_POINT ( 'NONE',  ( 4.891750131623623714E-31, -6.981799103869829190E-17, -0.02000000000000008715 ) ) ;
ENDSEC;
END-ISO-10303-21;
