ISO-10303-21;
HEADER;
FILE_DESCRIPTION (( 'STEP AP203' ),
    '1' );
FILE_NAME ('32275.STEP',
    '2024-02-27T14:57:23',
    ( '' ),
    ( '' ),
    'SwSTEP 2.0',
    'SolidWorks 2023',
    '' );
FILE_SCHEMA (( 'CONFIG_CONTROL_DESIGN' ));
ENDSEC;

DATA;
#1 = DIRECTION ( 'NONE',  ( 1.000000000000000000, -6.982962677686267499E-15, 4.876225828469319531E-29 ) ) ;
#2 = PLANE ( 'NONE',  #154 ) ;
#3 = APPLICATION_CONTEXT ( 'configuration controlled 3d designs of mechanical parts and assemblies' ) ;
#4 = CYLINDRICAL_SURFACE ( 'NONE', #10, 0.2499999999999997502 ) ;
#5 = APPROVAL_PERSON_ORGANIZATION ( #362, #348, #287 ) ;
#6 = ORIENTED_EDGE ( 'NONE', *, *, #98, .F. ) ;
#7 = EDGE_LOOP ( 'NONE', ( #168, #263, #221, #365 ) ) ;
#8 = EDGE_LOOP ( 'NONE', ( #276, #108 ) ) ;
#9 = CARTESIAN_POINT ( 'NONE',  ( 1.745740669421652072E-15, 0.2499999999999877598, -3.500000000000001332 ) ) ;
#10 = AXIS2_PLACEMENT_3D ( 'NONE', #33, #95, #325 ) ;
#11 = ORIENTED_EDGE ( 'NONE', *, *, #242, .T. ) ;
#12 = AXIS2_PLACEMENT_3D ( 'NONE', #302, #42, #185 ) ;
#13 = AXIS2_PLACEMENT_3D ( 'NONE', #283, #160, #63 ) ;
#14 = CC_DESIGN_PERSON_AND_ORGANIZATION_ASSIGNMENT ( #357, #111, ( #88 ) ) ;
#15 = EDGE_CURVE ( 'NONE', #151, #25, #83, .T. ) ;
#16 = ORIENTED_EDGE ( 'NONE', *, *, #194, .T. ) ;
#17 = CARTESIAN_POINT ( 'NONE',  ( -0.2499999999999995282, 1.675911042644700224E-15, -0.02000000000000006981 ) ) ;
#18 = LOCAL_TIME ( 9, 57, 23.00000000000000000, #144 ) ;
#19 = COORDINATED_UNIVERSAL_TIME_OFFSET ( 5, 0, .BEHIND. ) ;
#20 = DIRECTION ( 'NONE',  ( -2.445468806185136597E-29, 3.491481338843145583E-15, 1.000000000000000000 ) ) ;
#21 = DIRECTION ( 'NONE',  ( -1.000000000000000000, 6.982962677686265922E-15, -4.876176775795935793E-29 ) ) ;
#22 = ORIENTED_EDGE ( 'NONE', *, *, #297, .F. ) ;
#23 = CARTESIAN_POINT ( 'NONE',  ( 4.890937612370289799E-31, -6.982962677686315028E-17, -0.02000000000000006981 ) ) ;
#24 = CARTESIAN_POINT ( 'NONE',  ( 0.2489999999999999991, -1.395894239269489158E-14, -3.500000000000000444 ) ) ;
#25 = VERTEX_POINT ( 'NONE', #223 ) ;
#26 = DIRECTION ( 'NONE',  ( 2.445468806185136597E-29, -3.491481338843145583E-15, -1.000000000000000000 ) ) ;
#27 = APPROVAL_STATUS ( 'not_yet_approved' ) ;
#28 = CIRCLE ( 'NONE', #245, 0.2299999999999994826 ) ;
#29 = DIRECTION ( 'NONE',  ( 1.000000000000000000, -6.982962677686267499E-15, 4.876225828469319531E-29 ) ) ;
#30 = CARTESIAN_POINT ( 'NONE',  ( 8.559140821647978089E-29, -1.222018468595101092E-14, -3.500000000000000444 ) ) ;
#31 = ORIENTED_EDGE ( 'NONE', *, *, #339, .F. ) ;
#32 = ADVANCED_FACE ( 'NONE', ( #133 ), #189, .T. ) ;
#33 = CARTESIAN_POINT ( 'NONE',  ( 0.000000000000000000, 0.000000000000000000, 0.000000000000000000 ) ) ;
#34 = ORIENTED_EDGE ( 'NONE', *, *, #121, .F. ) ;
#35 = VECTOR ( 'NONE', #72, 39.37007874015748143 ) ;
#36 = CARTESIAN_POINT ( 'NONE',  ( 8.559140821647978089E-29, -1.222018468595101092E-14, -3.500000000000000444 ) ) ;
#37 = EDGE_CURVE ( 'NONE', #99, #50, #239, .T. ) ;
#38 = PRODUCT_DEFINITION_FORMATION_WITH_SPECIFIED_SOURCE ( 'ANY', '', #67, .NOT_KNOWN. ) ;
#39 = PERSON_AND_ORGANIZATION ( #68, #102 ) ;
#40 = AXIS2_PLACEMENT_3D ( 'NONE', #30, #225, #78 ) ;
#41 = ADVANCED_FACE ( 'NONE', ( #143 ), #153, .T. ) ;
#42 = DIRECTION ( 'NONE',  ( -2.445468806185136597E-29, 3.491481338843145583E-15, 1.000000000000000000 ) ) ;
#43 = ORIENTED_EDGE ( 'NONE', *, *, #15, .F. ) ;
#44 = PRODUCT_DEFINITION ( 'UNKNOWN', '', #38, #139 ) ;
#45 = CC_DESIGN_APPROVAL ( #161, ( #88 ) ) ;
#46 = PERSON_AND_ORGANIZATION ( #68, #102 ) ;
#47 = ADVANCED_BREP_SHAPE_REPRESENTATION ( '32275', ( #234, #103, #272 ), #350 ) ;
#48 = DIRECTION ( 'NONE',  ( -2.445468806185136597E-29, 3.491481338843145583E-15, 1.000000000000000000 ) ) ;
#49 = FACE_OUTER_BOUND ( 'NONE', #117, .T. ) ;
#50 = VERTEX_POINT ( 'NONE', #17 ) ;
#51 = APPROVAL_STATUS ( 'not_yet_approved' ) ;
#52 = FACE_OUTER_BOUND ( 'NONE', #193, .T. ) ;
#53 = ORIENTED_EDGE ( 'NONE', *, *, #332, .F. ) ;
#54 = DATE_AND_TIME ( #105, #296 ) ;
#55 = CARTESIAN_POINT ( 'NONE',  ( -0.2500000000000000000, -4.366904576294259619E-15, -3.499000000000000554 ) ) ;
#56 = ORIENTED_EDGE ( 'NONE', *, *, #59, .F. ) ;
#57 = ORIENTED_EDGE ( 'NONE', *, *, #121, .T. ) ;
#58 = FACE_OUTER_BOUND ( 'NONE', #184, .T. ) ;
#59 = EDGE_CURVE ( 'NONE', #183, #251, #70, .T. ) ;
#60 =( NAMED_UNIT ( * ) PLANE_ANGLE_UNIT ( ) SI_UNIT ( $, .RADIAN. ) );
#61 = CIRCLE ( 'NONE', #246, 0.2500000000000000000 ) ;
#62 = DIRECTION ( 'NONE',  ( 1.000000000000000000, -6.982962677686270655E-15, 0.000000000000000000 ) ) ;
#63 = DIRECTION ( 'NONE',  ( 1.000000000000000000, -6.982962677686270655E-15, 0.000000000000000000 ) ) ;
#64 = APPROVAL_PERSON_ORGANIZATION ( #309, #161, #340 ) ;
#65 = CLOSED_SHELL ( 'NONE', ( #41, #288, #32, #113, #360, #188, #218, #201 ) ) ;
#66 = DIMENSIONAL_EXPONENTS ( 1.000000000000000000, 0.000000000000000000, 0.000000000000000000, 0.000000000000000000, 0.000000000000000000, 0.000000000000000000, 0.000000000000000000 ) ;
#67 = PRODUCT ( '32275', '32275', '', ( #129 ) ) ;
#68 = PERSON ( 'UNSPECIFIED', 'UNSPECIFIED', 'UNSPECIFIED', ('UNSPECIFIED'), ('UNSPECIFIED'), ('UNSPECIFIED') ) ;
#69 = CONICAL_SURFACE ( 'NONE', #298, 0.2489999999999999991, 0.7853981633975507526 ) ;
#70 = LINE ( 'NONE', #301, #199 ) ;
#71 = CARTESIAN_POINT ( 'NONE',  ( -0.2499999999999995282, 1.675911042644700224E-15, -0.02000000000000006981 ) ) ;
#72 = DIRECTION ( 'NONE',  ( -0.7071067811865466846, 2.468850131082247989E-15, -0.7071067811865483499 ) ) ;
#73 = CALENDAR_DATE ( 2024, 27, 2 ) ;
#74 = DIRECTION ( 'NONE',  ( -1.000000000000000000, 6.982962677686265922E-15, -4.876176775795935793E-29 ) ) ;
#75 = CARTESIAN_POINT ( 'NONE',  ( 4.890937612370289799E-31, -6.982962677686315028E-17, -0.02000000000000006981 ) ) ;
#76 = CIRCLE ( 'NONE', #12, 0.2500000000000000000 ) ;
#77 = CIRCLE ( 'NONE', #13, 0.2500000000000000000 ) ;
#78 = DIRECTION ( 'NONE',  ( 1.000000000000000000, -6.982962677686266711E-15, 0.000000000000000000 ) ) ;
#79 = ORIENTED_EDGE ( 'NONE', *, *, #213, .T. ) ;
#80 = CC_DESIGN_PERSON_AND_ORGANIZATION_ASSIGNMENT ( #366, #305, ( #44 ) ) ;
#81 = CALENDAR_DATE ( 2024, 27, 2 ) ;
#82 = CYLINDRICAL_SURFACE ( 'NONE', #257, 0.2500000000000000000 ) ;
#83 = LINE ( 'NONE', #316, #326 ) ;
#84 = DIRECTION ( 'NONE',  ( 1.000000000000000000, -6.982962677686262766E-15, 0.000000000000000000 ) ) ;
#85 = EDGE_LOOP ( 'NONE', ( #57, #138, #90, #284 ) ) ;
#86 = DIRECTION ( 'NONE',  ( 1.000000000000000000, -6.982962677686266711E-15, 4.876176775795935793E-29 ) ) ;
#87 = FACE_OUTER_BOUND ( 'NONE', #8, .T. ) ;
#88 = SECURITY_CLASSIFICATION ( '', '', #335 ) ;
#89 = CARTESIAN_POINT ( 'NONE',  ( -0.2489999999999999991, -1.044563481956013985E-14, -3.500000000000000444 ) ) ;
#90 = ORIENTED_EDGE ( 'NONE', *, *, #126, .F. ) ;
#91 = ORIENTED_EDGE ( 'NONE', *, *, #349, .T. ) ;
#92 = DIRECTION ( 'NONE',  ( -2.445468806185136597E-29, 3.491481338843145583E-15, 1.000000000000000000 ) ) ;
#93 = EDGE_LOOP ( 'NONE', ( #22, #268, #101, #132 ) ) ;
#94 = EDGE_CURVE ( 'NONE', #122, #50, #247, .T. ) ;
#95 = DIRECTION ( 'NONE',  ( -2.445468806185136597E-29, 3.491481338843145583E-15, 1.000000000000000000 ) ) ;
#96 =( NAMED_UNIT ( * ) SI_UNIT ( $, .STERADIAN. ) SOLID_ANGLE_UNIT ( ) );
#97 = AXIS2_PLACEMENT_3D ( 'NONE', #259, #48, #198 ) ;
#98 = EDGE_CURVE ( 'NONE', #100, #99, #282, .T. ) ;
#99 = VERTEX_POINT ( 'NONE', #220 ) ;
#100 = VERTEX_POINT ( 'NONE', #196 ) ;
#101 = ORIENTED_EDGE ( 'NONE', *, *, #37, .T. ) ;
#102 = ORGANIZATION ( 'UNSPECIFIED', 'UNSPECIFIED', '' ) ;
#103 = MANIFOLD_SOLID_BREP ( 'Body-Move/Copy2[2]', #65 ) ;
#104 = DIRECTION ( 'NONE',  ( -0.7071067811866199593, 7.493145998870616062E-15, 0.7071067811864750752 ) ) ;
#105 = CALENDAR_DATE ( 2024, 27, 2 ) ;
#106 = PLANE ( 'NONE',  #214 ) ;
#107 = DIRECTION ( 'NONE',  ( 2.438088387897960049E-29, -3.491481338843145188E-15, -1.000000000000000000 ) ) ;
#108 = ORIENTED_EDGE ( 'NONE', *, *, #128, .T. ) ;
#109 = PRODUCT_RELATED_PRODUCT_CATEGORY ( 'detail', '', ( #67 ) ) ;
#110 = CIRCLE ( 'NONE', #135, 0.2500000000000000000 ) ;
#111 = PERSON_AND_ORGANIZATION_ROLE ( 'classification_officer' ) ;
#112 = DIRECTION ( 'NONE',  ( -2.445468806185136877E-29, 3.491481338843145188E-15, 1.000000000000000000 ) ) ;
#113 = ADVANCED_FACE ( 'NONE', ( #252 ), #295, .T. ) ;
#114 = CARTESIAN_POINT ( 'NONE',  ( -0.2299999999999994826, 1.640996229256268969E-15, 4.268512490089056766E-18 ) ) ;
#115 = DATE_TIME_ROLE ( 'classification_date' ) ;
#116 = CARTESIAN_POINT ( 'NONE',  ( 4.890937612370289799E-31, -6.982962677686315028E-17, -0.02000000000000006981 ) ) ;
#117 = EDGE_LOOP ( 'NONE', ( #152, #191 ) ) ;
#118 = PERSON_AND_ORGANIZATION_ROLE ( 'creator' ) ;
#119 = CARTESIAN_POINT ( 'NONE',  ( 8.559140821647978089E-29, -1.222018468595101092E-14, -3.500000000000000444 ) ) ;
#120 = AXIS2_PLACEMENT_3D ( 'NONE', #322, #170, #86 ) ;
#121 = EDGE_CURVE ( 'NONE', #187, #151, #76, .T. ) ;
#122 = VERTEX_POINT ( 'NONE', #114 ) ;
#123 = VERTEX_POINT ( 'NONE', #264 ) ;
#124 = DIRECTION ( 'NONE',  ( 2.438088387897960049E-29, -3.491481338843145188E-15, -1.000000000000000000 ) ) ;
#125 = CARTESIAN_POINT ( 'NONE',  ( 8.556695352841794728E-29, -1.221669320461216791E-14, -3.499000000000000554 ) ) ;
#126 = EDGE_CURVE ( 'NONE', #123, #25, #110, .T. ) ;
#127 = DIRECTION ( 'NONE',  ( 1.000000000000000000, -6.982962677686266711E-15, 0.000000000000000000 ) ) ;
#128 = EDGE_CURVE ( 'NONE', #25, #123, #165, .T. ) ;
#129 = MECHANICAL_CONTEXT ( 'NONE', #3, 'mechanical' ) ;
#130 = AXIS2_PLACEMENT_3D ( 'NONE', #75, #331, #136 ) ;
#131 = AXIS2_PLACEMENT_3D ( 'NONE', #233, #342, #84 ) ;
#132 = ORIENTED_EDGE ( 'NONE', *, *, #94, .F. ) ;
#133 = FACE_OUTER_BOUND ( 'NONE', #93, .T. ) ;
#134 = ORIENTED_EDGE ( 'NONE', *, *, #37, .F. ) ;
#135 = AXIS2_PLACEMENT_3D ( 'NONE', #269, #181, #222 ) ;
#136 = DIRECTION ( 'NONE',  ( -1.000000000000000000, 6.982962677686266711E-15, 0.000000000000000000 ) ) ;
#137 = CARTESIAN_POINT ( 'NONE',  ( -0.2499999999999997502, 1.776356839400248690E-15, -1.229733772563725324E-29 ) ) ;
#138 = ORIENTED_EDGE ( 'NONE', *, *, #15, .T. ) ;
#139 = DESIGN_CONTEXT ( 'detailed design', #163, 'design' ) ;
#140 = CARTESIAN_POINT ( 'NONE',  ( 0.2499999999999997502, -1.745740669421565100E-15, 1.219044193948982687E-29 ) ) ;
#141 = APPROVAL_STATUS ( 'not_yet_approved' ) ;
#142 = DIRECTION ( 'NONE',  ( -2.445468806185136597E-29, 3.491481338843145583E-15, 1.000000000000000000 ) ) ;
#143 = FACE_OUTER_BOUND ( 'NONE', #7, .T. ) ;
#144 = COORDINATED_UNIVERSAL_TIME_OFFSET ( 5, 0, .BEHIND. ) ;
#145 = CARTESIAN_POINT ( 'NONE',  ( 8.559140821647978089E-29, -1.222018468595101092E-14, -3.500000000000000444 ) ) ;
#146 = DIRECTION ( 'NONE',  ( 1.000000000000000000, -6.982962677686266711E-15, 0.000000000000000000 ) ) ;
#147 = DATE_AND_TIME ( #81, #215 ) ;
#148 = DIRECTION ( 'NONE',  ( -2.445468806185136597E-29, 3.491481338843145583E-15, 1.000000000000000000 ) ) ;
#149 = ORIENTED_EDGE ( 'NONE', *, *, #332, .T. ) ;
#150 = DIRECTION ( 'NONE',  ( 1.000000000000000000, -6.982962677686266711E-15, 0.000000000000000000 ) ) ;
#151 = VERTEX_POINT ( 'NONE', #207 ) ;
#152 = ORIENTED_EDGE ( 'NONE', *, *, #299, .T. ) ;
#153 = CONICAL_SURFACE ( 'NONE', #352, 0.2489999999999999991, 0.7853981633975507526 ) ;
#154 = AXIS2_PLACEMENT_3D ( 'NONE', #119, #250, #307 ) ;
#155 =( CONVERSION_BASED_UNIT ( 'INCH', #347 ) LENGTH_UNIT ( ) NAMED_UNIT ( #66 ) );
#156 = FACE_OUTER_BOUND ( 'NONE', #328, .T. ) ;
#157 = CC_DESIGN_PERSON_AND_ORGANIZATION_ASSIGNMENT ( #39, #164, ( #67 ) ) ;
#158 = EDGE_CURVE ( 'NONE', #187, #123, #317, .T. ) ;
#159 = CC_DESIGN_APPROVAL ( #351, ( #44 ) ) ;
#160 = DIRECTION ( 'NONE',  ( -2.445468806185136597E-29, 3.491481338843145583E-15, 1.000000000000000000 ) ) ;
#161 = APPROVAL ( #27, 'UNSPECIFIED' ) ;
#162 = DIRECTION ( 'NONE',  ( 0.000000000000000000, 0.000000000000000000, 1.000000000000000000 ) ) ;
#163 = APPLICATION_CONTEXT ( 'configuration controlled 3d designs of mechanical parts and assemblies' ) ;
#164 = PERSON_AND_ORGANIZATION_ROLE ( 'design_owner' ) ;
#165 = CIRCLE ( 'NONE', #131, 0.2500000000000000000 ) ;
#166 = ADVANCED_FACE ( 'NONE', ( #87 ), #293, .F. ) ;
#167 = AXIS2_PLACEMENT_3D ( 'NONE', #226, #285, #278 ) ;
#168 = ORIENTED_EDGE ( 'NONE', *, *, #339, .T. ) ;
#169 = CC_DESIGN_APPROVAL ( #348, ( #38 ) ) ;
#170 = DIRECTION ( 'NONE',  ( -2.445468806185136597E-29, 3.491481338843145583E-15, 1.000000000000000000 ) ) ;
#171 = CALENDAR_DATE ( 2024, 27, 2 ) ;
#172 = CARTESIAN_POINT ( 'NONE',  ( 0.2499999999999995282, -1.784954126219742639E-15, -0.02000000000000006981 ) ) ;
#173 = VERTEX_POINT ( 'NONE', #364 ) ;
#174 = EDGE_LOOP ( 'NONE', ( #43, #149, #232, #311 ) ) ;
#175 = DATE_TIME_ROLE ( 'creation_date' ) ;
#176 = LINE ( 'NONE', #24, #290 ) ;
#177 = DIRECTION ( 'NONE',  ( -2.445468806185136877E-29, 3.491481338843145188E-15, 1.000000000000000000 ) ) ;
#178 = CARTESIAN_POINT ( 'NONE',  ( 0.2500000000000000000, -1.745740669421566678E-15, 1.219044193948983948E-29 ) ) ;
#179 = AXIS2_PLACEMENT_3D ( 'NONE', #36, #265, #127 ) ;
#180 = DIRECTION ( 'NONE',  ( 2.438088387897960049E-29, -3.491481338843145188E-15, -1.000000000000000000 ) ) ;
#181 = DIRECTION ( 'NONE',  ( -2.445468806185136597E-29, 3.491481338843145583E-15, 1.000000000000000000 ) ) ;
#182 = LINE ( 'NONE', #172, #353 ) ;
#183 = VERTEX_POINT ( 'NONE', #89 ) ;
#184 = EDGE_LOOP ( 'NONE', ( #34, #53 ) ) ;
#185 = DIRECTION ( 'NONE',  ( 1.000000000000000000, -6.982962677686270655E-15, 0.000000000000000000 ) ) ;
#186 = CLOSED_SHELL ( 'NONE', ( #274, #273, #166, #313 ) ) ;
#187 = VERTEX_POINT ( 'NONE', #262 ) ;
#188 = ADVANCED_FACE ( 'NONE', ( #211 ), #69, .T. ) ;
#189 = CONICAL_SURFACE ( 'NONE', #267, 0.2499999999999995282, 0.7853981633974471688 ) ;
#190 = CARTESIAN_POINT ( 'NONE',  ( 0.000000000000000000, 0.000000000000000000, 0.000000000000000000 ) ) ;
#191 = ORIENTED_EDGE ( 'NONE', *, *, #297, .T. ) ;
#192 = APPROVAL_PERSON_ORGANIZATION ( #46, #351, #227 ) ;
#193 = EDGE_LOOP ( 'NONE', ( #343, #16, #134, #6 ) ) ;
#194 = EDGE_CURVE ( 'NONE', #251, #50, #203, .T. ) ;
#195 = CALENDAR_DATE ( 2024, 27, 2 ) ;
#196 = CARTESIAN_POINT ( 'NONE',  ( 0.2500000000000000000, -1.396243387403373617E-14, -3.499000000000000554 ) ) ;
#197 = PERSON_AND_ORGANIZATION ( #68, #102 ) ;
#198 = DIRECTION ( 'NONE',  ( 1.000000000000000000, -6.982962677686267499E-15, 4.876176775795935793E-29 ) ) ;
#199 = VECTOR ( 'NONE', #104, 39.37007874015748143 ) ;
#200 = AXIS2_PLACEMENT_3D ( 'NONE', #320, #180, #74 ) ;
#201 = ADVANCED_FACE ( 'NONE', ( #49 ), #106, .F. ) ;
#202 = PERSON_AND_ORGANIZATION_ROLE ( 'design_supplier' ) ;
#203 = LINE ( 'NONE', #137, #244 ) ;
#204 = PERSON_AND_ORGANIZATION ( #68, #102 ) ;
#205 = DIRECTION ( 'NONE',  ( -2.445468806185136597E-29, 3.491481338843145583E-15, 1.000000000000000000 ) ) ;
#206 = ORIENTED_EDGE ( 'NONE', *, *, #194, .F. ) ;
#207 = CARTESIAN_POINT ( 'NONE',  ( -0.2500000000000000000, -1.218956851597233187E-14, -4.500000000000000000 ) ) ;
#208 = CARTESIAN_POINT ( 'NONE',  ( 8.556695352841794728E-29, -1.221669320461216791E-14, -3.499000000000000554 ) ) ;
#209 = LOCAL_TIME ( 9, 57, 23.00000000000000000, #19 ) ;
#210 = EDGE_CURVE ( 'NONE', #100, #251, #61, .T. ) ;
#211 = FACE_OUTER_BOUND ( 'NONE', #266, .T. ) ;
#212 = ORIENTED_EDGE ( 'NONE', *, *, #243, .T. ) ;
#213 = EDGE_CURVE ( 'NONE', #183, #338, #356, .T. ) ;
#214 = AXIS2_PLACEMENT_3D ( 'NONE', #361, #107, #228 ) ;
#215 = LOCAL_TIME ( 9, 57, 23.00000000000000000, #230 ) ;
#216 = CC_DESIGN_PERSON_AND_ORGANIZATION_ASSIGNMENT ( #197, #118, ( #38 ) ) ;
#217 = ORIENTED_EDGE ( 'NONE', *, *, #236, .F. ) ;
#218 = ADVANCED_FACE ( 'NONE', ( #310 ), #2, .F. ) ;
#219 = APPLICATION_PROTOCOL_DEFINITION ( 'international standard', 'config_control_design', 1994, #3 ) ;
#220 = CARTESIAN_POINT ( 'NONE',  ( 0.2499999999999995282, -1.784954126219742639E-15, -0.02000000000000006981 ) ) ;
#221 = ORIENTED_EDGE ( 'NONE', *, *, #210, .F. ) ;
#222 = DIRECTION ( 'NONE',  ( 1.000000000000000000, -6.982962677686262766E-15, 0.000000000000000000 ) ) ;
#223 = CARTESIAN_POINT ( 'NONE',  ( -0.2500000000000000000, -1.218956851597233187E-14, -3.500000000000000444 ) ) ;
#224 = COORDINATED_UNIVERSAL_TIME_OFFSET ( 5, 0, .BEHIND. ) ;
#225 = DIRECTION ( 'NONE',  ( -2.445468806185136597E-29, 3.491481338843145583E-15, 1.000000000000000000 ) ) ;
#226 = CARTESIAN_POINT ( 'NONE',  ( 4.890937612370289799E-31, -6.982962677686315028E-17, -0.02000000000000006981 ) ) ;
#227 = APPROVAL_ROLE ( '' ) ;
#228 = DIRECTION ( 'NONE',  ( -1.000000000000000000, 6.982962677686265922E-15, -4.876176775795935793E-29 ) ) ;
#229 = ORIENTED_EDGE ( 'NONE', *, *, #98, .T. ) ;
#230 = COORDINATED_UNIVERSAL_TIME_OFFSET ( 5, 0, .BEHIND. ) ;
#231 = DIRECTION ( 'NONE',  ( 1.000000000000000000, -6.982962677686266711E-15, 0.000000000000000000 ) ) ;
#232 = ORIENTED_EDGE ( 'NONE', *, *, #158, .T. ) ;
#233 = CARTESIAN_POINT ( 'NONE',  ( 8.559140821647978089E-29, -1.222018468595101092E-14, -3.500000000000000444 ) ) ;
#234 = MANIFOLD_SOLID_BREP ( 'Body-Move/Copy2[1]', #186 ) ;
#235 = FACE_OUTER_BOUND ( 'NONE', #174, .T. ) ;
#236 = EDGE_CURVE ( 'NONE', #173, #99, #182, .T. ) ;
#237 = DIRECTION ( 'NONE',  ( -2.445468806185136597E-29, 3.491481338843145583E-15, 1.000000000000000000 ) ) ;
#238 = CIRCLE ( 'NONE', #330, 0.2499999999999995282 ) ;
#239 = CIRCLE ( 'NONE', #167, 0.2499999999999995282 ) ;
#240 =( LENGTH_UNIT ( ) NAMED_UNIT ( * ) SI_UNIT ( $, .METRE. ) );
#241 = ORIENTED_EDGE ( 'NONE', *, *, #349, .F. ) ;
#242 = EDGE_CURVE ( 'NONE', #338, #100, #176, .T. ) ;
#243 = EDGE_CURVE ( 'NONE', #50, #99, #238, .T. ) ;
#244 = VECTOR ( 'NONE', #112, 39.37007874015748143 ) ;
#245 = AXIS2_PLACEMENT_3D ( 'NONE', #345, #291, #1 ) ;
#246 = AXIS2_PLACEMENT_3D ( 'NONE', #208, #142, #341 ) ;
#247 = LINE ( 'NONE', #71, #35 ) ;
#248 = AXIS2_PLACEMENT_3D ( 'NONE', #289, #237, #29 ) ;
#249 = DATE_AND_TIME ( #73, #209 ) ;
#250 = DIRECTION ( 'NONE',  ( -2.438088387897960049E-29, 3.491481338843145188E-15, 1.000000000000000000 ) ) ;
#251 = VERTEX_POINT ( 'NONE', #55 ) ;
#252 = FACE_OUTER_BOUND ( 'NONE', #292, .T. ) ;
#253 = APPROVAL_DATE_TIME ( #303, #351 ) ;
#254 = FACE_OUTER_BOUND ( 'NONE', #85, .T. ) ;
#255 = DATE_AND_TIME ( #195, #18 ) ;
#256 = DIRECTION ( 'NONE',  ( -2.445468806185136597E-29, 3.491481338843145583E-15, 1.000000000000000000 ) ) ;
#257 = AXIS2_PLACEMENT_3D ( 'NONE', #337, #205, #315 ) ;
#258 = APPROVAL_DATE_TIME ( #147, #161 ) ;
#259 = CARTESIAN_POINT ( 'NONE',  ( 0.000000000000000000, 0.000000000000000000, 0.000000000000000000 ) ) ;
#260 = ORIENTED_EDGE ( 'NONE', *, *, #94, .T. ) ;
#261 = DIRECTION ( 'NONE',  ( -2.445468806185136877E-29, 3.491481338843145188E-15, 1.000000000000000000 ) ) ;
#262 = CARTESIAN_POINT ( 'NONE',  ( 0.2500000000000000000, -1.745740669421572357E-14, -4.500000000000000000 ) ) ;
#263 = ORIENTED_EDGE ( 'NONE', *, *, #59, .T. ) ;
#264 = CARTESIAN_POINT ( 'NONE',  ( 0.2500000000000000000, -1.396592535537257602E-14, -3.500000000000000444 ) ) ;
#265 = DIRECTION ( 'NONE',  ( -2.445468806185136597E-29, 3.491481338843145583E-15, 1.000000000000000000 ) ) ;
#266 = EDGE_LOOP ( 'NONE', ( #56, #79, #11, #241 ) ) ;
#267 = AXIS2_PLACEMENT_3D ( 'NONE', #23, #26, #304 ) ;
#268 = ORIENTED_EDGE ( 'NONE', *, *, #236, .T. ) ;
#269 = CARTESIAN_POINT ( 'NONE',  ( 8.559140821647978089E-29, -1.222018468595101092E-14, -3.500000000000000444 ) ) ;
#270 = CARTESIAN_POINT ( 'NONE',  ( 0.2489999999999999991, -1.395894239269489158E-14, -3.500000000000000444 ) ) ;
#271 = CC_DESIGN_PERSON_AND_ORGANIZATION_ASSIGNMENT ( #204, #202, ( #38 ) ) ;
#272 = AXIS2_PLACEMENT_3D ( 'NONE', #190, #162, #354 ) ;
#273 = ADVANCED_FACE ( 'NONE', ( #58 ), #334, .T. ) ;
#274 = ADVANCED_FACE ( 'NONE', ( #254 ), #82, .T. ) ;
#275 = CC_DESIGN_DATE_AND_TIME_ASSIGNMENT ( #249, #175, ( #44 ) ) ;
#276 = ORIENTED_EDGE ( 'NONE', *, *, #126, .T. ) ;
#277 = DIRECTION ( 'NONE',  ( -2.445468806185136877E-29, 3.491481338843145188E-15, 1.000000000000000000 ) ) ;
#278 = DIRECTION ( 'NONE',  ( 1.000000000000000000, -6.982962677686266711E-15, 0.000000000000000000 ) ) ;
#279 = APPROVAL_DATE_TIME ( #255, #348 ) ;
#280 = CIRCLE ( 'NONE', #248, 0.2299999999999994826 ) ;
#281 = VECTOR ( 'NONE', #277, 39.37007874015748143 ) ;
#282 = LINE ( 'NONE', #140, #281 ) ;
#283 = CARTESIAN_POINT ( 'NONE',  ( 1.100460962783311469E-28, -1.571166602479415690E-14, -4.500000000000000000 ) ) ;
#284 = ORIENTED_EDGE ( 'NONE', *, *, #158, .F. ) ;
#285 = DIRECTION ( 'NONE',  ( -2.445468806185136597E-29, 3.491481338843145583E-15, 1.000000000000000000 ) ) ;
#286 = DIRECTION ( 'NONE',  ( 0.7071067811865466846, -7.319954787623252890E-15, -0.7071067811865483499 ) ) ;
#287 = APPROVAL_ROLE ( '' ) ;
#288 = ADVANCED_FACE ( 'NONE', ( #52 ), #294, .T. ) ;
#289 = CARTESIAN_POINT ( 'NONE',  ( -1.043851414335219820E-46, 1.490343170380447200E-32, 4.268512490100411279E-18 ) ) ;
#290 = VECTOR ( 'NONE', #358, 39.37007874015748143 ) ;
#291 = DIRECTION ( 'NONE',  ( -2.445468806185136597E-29, 3.491481338843145583E-15, 1.000000000000000000 ) ) ;
#292 = EDGE_LOOP ( 'NONE', ( #217, #308, #260, #212 ) ) ;
#293 = PLANE ( 'NONE',  #363 ) ;
#294 = CYLINDRICAL_SURFACE ( 'NONE', #97, 0.2499999999999997502 ) ;
#295 = CONICAL_SURFACE ( 'NONE', #130, 0.2499999999999995282, 0.7853981633974471688 ) ;
#296 = LOCAL_TIME ( 9, 57, 23.00000000000000000, #314 ) ;
#297 = EDGE_CURVE ( 'NONE', #173, #122, #280, .T. ) ;
#298 = AXIS2_PLACEMENT_3D ( 'NONE', #145, #148, #150 ) ;
#299 = EDGE_CURVE ( 'NONE', #122, #173, #28, .T. ) ;
#300 = AXIS2_PLACEMENT_3D ( 'NONE', #125, #92, #62 ) ;
#301 = CARTESIAN_POINT ( 'NONE',  ( -0.2489999999999999991, -1.045093327390836067E-14, -3.500000000000000444 ) ) ;
#302 = CARTESIAN_POINT ( 'NONE',  ( 1.100460962783311469E-28, -1.571166602479415690E-14, -4.500000000000000000 ) ) ;
#303 = DATE_AND_TIME ( #171, #321 ) ;
#304 = DIRECTION ( 'NONE',  ( -1.000000000000000000, 6.982962677686266711E-15, 0.000000000000000000 ) ) ;
#305 = PERSON_AND_ORGANIZATION_ROLE ( 'creator' ) ;
#306 = CC_DESIGN_SECURITY_CLASSIFICATION ( #88, ( #38 ) ) ;
#307 = DIRECTION ( 'NONE',  ( 1.000000000000000000, -6.982962677686265922E-15, 4.876176775795935793E-29 ) ) ;
#308 = ORIENTED_EDGE ( 'NONE', *, *, #299, .F. ) ;
#309 = PERSON_AND_ORGANIZATION ( #68, #102 ) ;
#310 = FACE_OUTER_BOUND ( 'NONE', #327, .T. ) ;
#311 = ORIENTED_EDGE ( 'NONE', *, *, #128, .F. ) ;
#312 = ORIENTED_EDGE ( 'NONE', *, *, #213, .F. ) ;
#313 = ADVANCED_FACE ( 'NONE', ( #235 ), #344, .T. ) ;
#314 = COORDINATED_UNIVERSAL_TIME_OFFSET ( 5, 0, .BEHIND. ) ;
#315 = DIRECTION ( 'NONE',  ( 1.000000000000000000, -6.982962677686266711E-15, 4.876176775795935793E-29 ) ) ;
#316 = CARTESIAN_POINT ( 'NONE',  ( -0.2500000000000000000, 1.776356839400250465E-15, -1.229733772563726445E-29 ) ) ;
#317 = LINE ( 'NONE', #178, #346 ) ;
#318 = UNCERTAINTY_MEASURE_WITH_UNIT (LENGTH_MEASURE( 1.000000000000000082E-05 ), #155, 'distance_accuracy_value', 'NONE');
#319 = APPLICATION_PROTOCOL_DEFINITION ( 'international standard', 'config_control_design', 1994, #163 ) ;
#320 = CARTESIAN_POINT ( 'NONE',  ( 1.745740669421676527E-15, 0.2499999999999842903, -4.500000000000000888 ) ) ;
#321 = LOCAL_TIME ( 9, 57, 23.00000000000000000, #224 ) ;
#322 = CARTESIAN_POINT ( 'NONE',  ( 0.000000000000000000, 0.000000000000000000, 0.000000000000000000 ) ) ;
#323 = CIRCLE ( 'NONE', #179, 0.2489999999999999991 ) ;
#324 = CC_DESIGN_DATE_AND_TIME_ASSIGNMENT ( #54, #115, ( #88 ) ) ;
#325 = DIRECTION ( 'NONE',  ( 1.000000000000000000, -6.982962677686267499E-15, 4.876176775795935793E-29 ) ) ;
#326 = VECTOR ( 'NONE', #177, 39.37007874015748143 ) ;
#327 = EDGE_LOOP ( 'NONE', ( #31, #312 ) ) ;
#328 = EDGE_LOOP ( 'NONE', ( #206, #91, #229, #333 ) ) ;
#329 = CARTESIAN_POINT ( 'NONE',  ( 8.559140821647978089E-29, -1.222018468595101092E-14, -3.500000000000000444 ) ) ;
#330 = AXIS2_PLACEMENT_3D ( 'NONE', #116, #256, #231 ) ;
#331 = DIRECTION ( 'NONE',  ( 2.445468806185136597E-29, -3.491481338843145583E-15, -1.000000000000000000 ) ) ;
#332 = EDGE_CURVE ( 'NONE', #151, #187, #77, .T. ) ;
#333 = ORIENTED_EDGE ( 'NONE', *, *, #243, .F. ) ;
#334 = PLANE ( 'NONE',  #200 ) ;
#335 = SECURITY_CLASSIFICATION_LEVEL ( 'unclassified' ) ;
#336 = CIRCLE ( 'NONE', #300, 0.2500000000000000000 ) ;
#337 = CARTESIAN_POINT ( 'NONE',  ( 0.000000000000000000, 0.000000000000000000, 0.000000000000000000 ) ) ;
#338 = VERTEX_POINT ( 'NONE', #270 ) ;
#339 = EDGE_CURVE ( 'NONE', #338, #183, #323, .T. ) ;
#340 = APPROVAL_ROLE ( '' ) ;
#341 = DIRECTION ( 'NONE',  ( 1.000000000000000000, -6.982962677686270655E-15, 0.000000000000000000 ) ) ;
#342 = DIRECTION ( 'NONE',  ( -2.445468806185136597E-29, 3.491481338843145583E-15, 1.000000000000000000 ) ) ;
#343 = ORIENTED_EDGE ( 'NONE', *, *, #210, .T. ) ;
#344 = CYLINDRICAL_SURFACE ( 'NONE', #120, 0.2500000000000000000 ) ;
#345 = CARTESIAN_POINT ( 'NONE',  ( -1.043851414335219820E-46, 1.490343170380447200E-32, 4.268512490100411279E-18 ) ) ;
#346 = VECTOR ( 'NONE', #261, 39.37007874015748143 ) ;
#347 = LENGTH_MEASURE_WITH_UNIT ( LENGTH_MEASURE( 0.02539999999999999897 ), #240 );
#348 = APPROVAL ( #141, 'UNSPECIFIED' ) ;
#349 = EDGE_CURVE ( 'NONE', #251, #100, #336, .T. ) ;
#350 =( GEOMETRIC_REPRESENTATION_CONTEXT ( 3 ) GLOBAL_UNCERTAINTY_ASSIGNED_CONTEXT ( ( #318 ) ) GLOBAL_UNIT_ASSIGNED_CONTEXT ( ( #155, #60, #96 ) ) REPRESENTATION_CONTEXT ( 'NONE', 'WORKASPACE' ) );
#351 = APPROVAL ( #51, 'UNSPECIFIED' ) ;
#352 = AXIS2_PLACEMENT_3D ( 'NONE', #329, #20, #146 ) ;
#353 = VECTOR ( 'NONE', #286, 39.37007874015748143 ) ;
#354 = DIRECTION ( 'NONE',  ( 1.000000000000000000, 0.000000000000000000, 0.000000000000000000 ) ) ;
#355 = PRODUCT_DEFINITION_SHAPE ( 'NONE', 'NONE',  #44 ) ;
#356 = CIRCLE ( 'NONE', #40, 0.2489999999999999991 ) ;
#357 = PERSON_AND_ORGANIZATION ( #68, #102 ) ;
#358 = DIRECTION ( 'NONE',  ( 0.7071067811866199593, -2.468850131083015945E-15, 0.7071067811864750752 ) ) ;
#359 = SHAPE_DEFINITION_REPRESENTATION ( #355, #47 ) ;
#360 = ADVANCED_FACE ( 'NONE', ( #156 ), #4, .T. ) ;
#361 = CARTESIAN_POINT ( 'NONE',  ( 1.606081415867837715E-15, 0.2299999999999994826, -8.009064516888715036E-16 ) ) ;
#362 = PERSON_AND_ORGANIZATION ( #68, #102 ) ;
#363 = AXIS2_PLACEMENT_3D ( 'NONE', #9, #124, #21 ) ;
#364 = CARTESIAN_POINT ( 'NONE',  ( 0.2299999999999994826, -1.681434332853595856E-15, 4.268512490111905999E-18 ) ) ;
#365 = ORIENTED_EDGE ( 'NONE', *, *, #242, .F. ) ;
#366 = PERSON_AND_ORGANIZATION ( #68, #102 ) ;
ENDSEC;
END-ISO-10303-21;
