ISO-10303-21;
HEADER;
FILE_DESCRIPTION (( 'STEP AP203' ),
    '1' );
FILE_NAME ('34710.STEP',
    '2024-02-27T16:52:18',
    ( '' ),
    ( '' ),
    'SwSTEP 2.0',
    'SolidWorks 2023',
    '' );
FILE_SCHEMA (( 'CONFIG_CONTROL_DESIGN' ));
ENDSEC;

DATA;
#1 = APPROVAL_PERSON_ORGANIZATION ( #328, #123, #42 ) ;
#2 = DIRECTION ( 'NONE',  ( -2.445468806185136877E-29, 3.491481338843145188E-15, 1.000000000000000000 ) ) ;
#3 = DIRECTION ( 'NONE',  ( 1.000000000000000000, -6.982962677686266711E-15, 0.000000000000000000 ) ) ;
#4 = ORIENTED_EDGE ( 'NONE', *, *, #250, .F. ) ;
#5 = ADVANCED_FACE ( 'NONE', ( #323 ), #268, .F. ) ;
#6 = CARTESIAN_POINT ( 'NONE',  ( 0.000000000000000000, 0.000000000000000000, 0.000000000000000000 ) ) ;
#7 = VECTOR ( 'NONE', #191, 39.37007874015748143 ) ;
#8 = CC_DESIGN_APPROVAL ( #123, ( #363 ) ) ;
#9 = ORIENTED_EDGE ( 'NONE', *, *, #326, .F. ) ;
#10 = COORDINATED_UNIVERSAL_TIME_OFFSET ( 5, 0, .BEHIND. ) ;
#11 = ORIENTED_EDGE ( 'NONE', *, *, #111, .F. ) ;
#12 = ADVANCED_FACE ( 'NONE', ( #43 ), #48, .T. ) ;
#13 = VERTEX_POINT ( 'NONE', #23 ) ;
#14 = EDGE_LOOP ( 'NONE', ( #61, #140, #199, #85 ) ) ;
#15 = PERSON_AND_ORGANIZATION_ROLE ( 'creator' ) ;
#16 = DIRECTION ( 'NONE',  ( 1.000000000000000000, -6.982962677686265922E-15, 4.876176775795935793E-29 ) ) ;
#17 = ORIENTED_EDGE ( 'NONE', *, *, #22, .T. ) ;
#18 = DATE_TIME_ROLE ( 'creation_date' ) ;
#19 = AXIS2_PLACEMENT_3D ( 'NONE', #182, #41, #240 ) ;
#20 = CARTESIAN_POINT ( 'NONE',  ( 3.668203209277704335E-29, -5.237222008264717388E-15, -1.499999999999999778 ) ) ;
#21 = CIRCLE ( 'NONE', #325, 0.1875000000000000278 ) ;
#22 = EDGE_CURVE ( 'NONE', #126, #257, #207, .T. ) ;
#23 = CARTESIAN_POINT ( 'NONE',  ( -0.1674999999999998435, 1.204561061900879864E-15, -8.301862719484106184E-30 ) ) ;
#24 = FACE_OUTER_BOUND ( 'NONE', #36, .T. ) ;
#25 = LINE ( 'NONE', #280, #242 ) ;
#26 = AXIS2_PLACEMENT_3D ( 'NONE', #60, #343, #3 ) ;
#27 = DIRECTION ( 'NONE',  ( -1.000000000000000000, 6.982962677686265922E-15, -4.876176775795935793E-29 ) ) ;
#28 = EDGE_CURVE ( 'NONE', #329, #283, #235, .T. ) ;
#29 = CARTESIAN_POINT ( 'NONE',  ( 0.000000000000000000, 0.000000000000000000, 0.000000000000000000 ) ) ;
#30 = LINE ( 'NONE', #101, #187 ) ;
#31 = ADVANCED_FACE ( 'NONE', ( #360 ), #206, .T. ) ;
#32 = PERSON_AND_ORGANIZATION_ROLE ( 'design_owner' ) ;
#33 = DIRECTION ( 'NONE',  ( -2.445468806185136597E-29, 3.491481338843145583E-15, 1.000000000000000000 ) ) ;
#34 = ORIENTED_EDGE ( 'NONE', *, *, #89, .F. ) ;
#35 = APPROVAL_ROLE ( '' ) ;
#36 = EDGE_LOOP ( 'NONE', ( #90, #17, #44, #204 ) ) ;
#37 = ADVANCED_FACE ( 'NONE', ( #299 ), #308, .T. ) ;
#38 = CALENDAR_DATE ( 2024, 27, 2 ) ;
#39 = LINE ( 'NONE', #147, #7 ) ;
#40 = APPROVAL ( #70, 'UNSPECIFIED' ) ;
#41 = DIRECTION ( 'NONE',  ( 2.445468806185136597E-29, -3.491481338843145583E-15, -1.000000000000000000 ) ) ;
#42 = APPROVAL_ROLE ( '' ) ;
#43 = FACE_OUTER_BOUND ( 'NONE', #92, .T. ) ;
#44 = ORIENTED_EDGE ( 'NONE', *, *, #271, .T. ) ;
#45 = MANIFOLD_SOLID_BREP ( 'Body-Move/Copy2[2]', #232 ) ;
#46 = EDGE_CURVE ( 'NONE', #329, #253, #79, .T. ) ;
#47 = PERSON_AND_ORGANIZATION ( #284, #153 ) ;
#48 = CONICAL_SURFACE ( 'NONE', #59, 0.1864999999999999714, 0.7853981633975678500 ) ;
#49 = DIRECTION ( 'NONE',  ( -2.445468806185136877E-29, 3.491481338843145188E-15, 1.000000000000000000 ) ) ;
#50 = SECURITY_CLASSIFICATION ( '', '', #91 ) ;
#51 = DIRECTION ( 'NONE',  ( 1.000000000000000000, -6.982962677686265922E-15, 0.000000000000000000 ) ) ;
#52 = CARTESIAN_POINT ( 'NONE',  ( 0.1674999999999998435, -1.252653207992877500E-15, 8.469775550109233780E-30 ) ) ;
#53 = DIRECTION ( 'NONE',  ( -2.445468806185136597E-29, 3.491481338843145583E-15, 1.000000000000000000 ) ) ;
#54 = ADVANCED_FACE ( 'NONE', ( #327 ), #154, .T. ) ;
#55 = DIRECTION ( 'NONE',  ( 1.000000000000000000, -6.982962677686266711E-15, 0.000000000000000000 ) ) ;
#56 = DIRECTION ( 'NONE',  ( -2.445468806185136597E-29, 3.491481338843145583E-15, 1.000000000000000000 ) ) ;
#57 = CARTESIAN_POINT ( 'NONE',  ( -0.1875000000000000278, -1.319512447301179413E-15, -1.498999999999999666 ) ) ;
#58 = EDGE_LOOP ( 'NONE', ( #195, #121, #181, #230 ) ) ;
#59 = AXIS2_PLACEMENT_3D ( 'NONE', #324, #234, #176 ) ;
#60 = CARTESIAN_POINT ( 'NONE',  ( 3.668203209277704335E-29, -5.237222008264717388E-15, -1.499999999999999778 ) ) ;
#61 = ORIENTED_EDGE ( 'NONE', *, *, #355, .T. ) ;
#62 = DIRECTION ( 'NONE',  ( 1.000000000000000000, -6.982962677686266711E-15, 4.876176775795936914E-29 ) ) ;
#63 = DIRECTION ( 'NONE',  ( 1.000000000000000000, -6.982962677686266711E-15, 4.876176775795935793E-29 ) ) ;
#64 = DIRECTION ( 'NONE',  ( -2.438088387897960049E-29, 3.491481338843145188E-15, 1.000000000000000000 ) ) ;
#65 = COORDINATED_UNIVERSAL_TIME_OFFSET ( 5, 0, .BEHIND. ) ;
#66 = DIRECTION ( 'NONE',  ( 1.000000000000000000, -6.982962677686266711E-15, 0.000000000000000000 ) ) ;
#67 = DATE_AND_TIME ( #350, #238 ) ;
#68 = ORIENTED_EDGE ( 'NONE', *, *, #320, .F. ) ;
#69 = UNCERTAINTY_MEASURE_WITH_UNIT (LENGTH_MEASURE( 1.000000000000000082E-05 ), #339, 'distance_accuracy_value', 'NONE');
#70 = APPROVAL_STATUS ( 'not_yet_approved' ) ;
#71 = ORIENTED_EDGE ( 'NONE', *, *, #72, .F. ) ;
#72 = EDGE_CURVE ( 'NONE', #13, #119, #317, .T. ) ;
#73 = DIRECTION ( 'NONE',  ( 2.445468806185136597E-29, -3.491481338843145583E-15, -1.000000000000000000 ) ) ;
#74 = VECTOR ( 'NONE', #98, 39.37007874015748143 ) ;
#75 = PLANE ( 'NONE',  #135 ) ;
#76 = APPROVAL ( #192, 'UNSPECIFIED' ) ;
#77 = LINE ( 'NONE', #337, #276 ) ;
#78 = CARTESIAN_POINT ( 'NONE',  ( 0.1875000000000000278, -6.543036028992050178E-15, -1.498999999999999666 ) ) ;
#79 = CIRCLE ( 'NONE', #109, 0.1875000000000000278 ) ;
#80 = CARTESIAN_POINT ( 'NONE',  ( 4.890937612370290675E-31, -6.982962677686316261E-17, -0.02000000000000007327 ) ) ;
#81 = CARTESIAN_POINT ( 'NONE',  ( 3.668203209277703774E-29, -5.237222008264716599E-15, -1.499999999999999556 ) ) ;
#82 = ORIENTED_EDGE ( 'NONE', *, *, #155, .F. ) ;
#83 = AXIS2_PLACEMENT_3D ( 'NONE', #80, #73, #163 ) ;
#84 =( LENGTH_UNIT ( ) NAMED_UNIT ( * ) SI_UNIT ( $, .METRE. ) );
#85 = ORIENTED_EDGE ( 'NONE', *, *, #95, .F. ) ;
#86 = VERTEX_POINT ( 'NONE', #97 ) ;
#87 = CIRCLE ( 'NONE', #302, 0.1874999999999998890 ) ;
#88 = EDGE_LOOP ( 'NONE', ( #82, #71, #319, #115 ) ) ;
#89 = EDGE_CURVE ( 'NONE', #301, #253, #122, .T. ) ;
#90 = ORIENTED_EDGE ( 'NONE', *, *, #305, .F. ) ;
#91 = SECURITY_CLASSIFICATION_LEVEL ( 'unclassified' ) ;
#92 = EDGE_LOOP ( 'NONE', ( #313, #227, #300, #237 ) ) ;
#93 = CC_DESIGN_APPROVAL ( #40, ( #50 ) ) ;
#94 = ORIENTED_EDGE ( 'NONE', *, *, #245, .T. ) ;
#95 = EDGE_CURVE ( 'NONE', #253, #86, #39, .T. ) ;
#96 = CARTESIAN_POINT ( 'NONE',  ( 0.000000000000000000, 0.000000000000000000, 0.000000000000000000 ) ) ;
#97 = CARTESIAN_POINT ( 'NONE',  ( 0.1874999999999998890, -1.356173001359024480E-15, -0.02000000000000007327 ) ) ;
#98 = DIRECTION ( 'NONE',  ( -2.445468806185136877E-29, 3.491481338843145188E-15, 1.000000000000000000 ) ) ;
#99 = LOCAL_TIME ( 11, 52, 18.00000000000000000, #208 ) ;
#100 = CC_DESIGN_PERSON_AND_ORGANIZATION_ASSIGNMENT ( #180, #15, ( #363 ) ) ;
#101 = CARTESIAN_POINT ( 'NONE',  ( -0.1874999999999998890, 1.239475875289310921E-15, -0.02000000000000007327 ) ) ;
#102 = LINE ( 'NONE', #189, #233 ) ;
#103 = DIRECTION ( 'NONE',  ( 1.000000000000000000, -6.982962677686265922E-15, 0.000000000000000000 ) ) ;
#104 = CONICAL_SURFACE ( 'NONE', #131, 0.1864999999999999714, 0.7853981633975678500 ) ;
#105 = CARTESIAN_POINT ( 'NONE',  ( 1.309305502066236145E-15, 0.1874999999999912847, -2.500000000000000444 ) ) ;
#106 = DIRECTION ( 'NONE',  ( 1.000000000000000000, -6.982962677686266711E-15, 0.000000000000000000 ) ) ;
#107 = PLANE ( 'NONE',  #218 ) ;
#108 = ORIENTED_EDGE ( 'NONE', *, *, #95, .T. ) ;
#109 = AXIS2_PLACEMENT_3D ( 'NONE', #150, #296, #66 ) ;
#110 = AXIS2_PLACEMENT_3D ( 'NONE', #212, #362, #55 ) ;
#111 = EDGE_CURVE ( 'NONE', #13, #283, #30, .T. ) ;
#112 = PERSON_AND_ORGANIZATION ( #284, #153 ) ;
#113 = EDGE_LOOP ( 'NONE', ( #68, #141, #174, #11 ) ) ;
#114 = DATE_AND_TIME ( #282, #256 ) ;
#115 = ORIENTED_EDGE ( 'NONE', *, *, #178, .T. ) ;
#116 = ADVANCED_FACE ( 'NONE', ( #157 ), #201, .T. ) ;
#117 = VERTEX_POINT ( 'NONE', #366 ) ;
#118 = CIRCLE ( 'NONE', #171, 0.1864999999999999714 ) ;
#119 = VERTEX_POINT ( 'NONE', #52 ) ;
#120 = APPROVAL_STATUS ( 'not_yet_approved' ) ;
#121 = ORIENTED_EDGE ( 'NONE', *, *, #305, .T. ) ;
#122 = LINE ( 'NONE', #267, #243 ) ;
#123 = APPROVAL ( #120, 'UNSPECIFIED' ) ;
#124 = CALENDAR_DATE ( 2024, 27, 2 ) ;
#125 = CARTESIAN_POINT ( 'NONE',  ( 6.113672015462842613E-29, -8.728703347107864943E-15, -2.500000000000000000 ) ) ;
#126 = VERTEX_POINT ( 'NONE', #217 ) ;
#127 = FACE_OUTER_BOUND ( 'NONE', #144, .T. ) ;
#128 = CIRCLE ( 'NONE', #303, 0.1874999999999998890 ) ;
#129 = CIRCLE ( 'NONE', #26, 0.1875000000000000278 ) ;
#130 = DIRECTION ( 'NONE',  ( -2.445468806185136597E-29, 3.491481338843145583E-15, 1.000000000000000000 ) ) ;
#131 = AXIS2_PLACEMENT_3D ( 'NONE', #81, #33, #224 ) ;
#132 = CARTESIAN_POINT ( 'NONE',  ( 1.169646248512448609E-15, 0.1674999999999998435, -5.848231242562263753E-16 ) ) ;
#133 = CARTESIAN_POINT ( 'NONE',  ( 0.1864999999999999714, -6.539544547653205593E-15, -1.499999999999999556 ) ) ;
#134 = DIRECTION ( 'NONE',  ( -1.000000000000000000, 6.982962677686265922E-15, -4.876176775795935793E-29 ) ) ;
#135 = AXIS2_PLACEMENT_3D ( 'NONE', #132, #334, #134 ) ;
#136 = CIRCLE ( 'NONE', #336, 0.1864999999999999714 ) ;
#137 = DIMENSIONAL_EXPONENTS ( 1.000000000000000000, 0.000000000000000000, 0.000000000000000000, 0.000000000000000000, 0.000000000000000000, 0.000000000000000000, 0.000000000000000000 ) ;
#138 = DIRECTION ( 'NONE',  ( 1.000000000000000000, -6.982962677686266711E-15, 0.000000000000000000 ) ) ;
#139 = APPROVAL_DATE_TIME ( #114, #76 ) ;
#140 = ORIENTED_EDGE ( 'NONE', *, *, #28, .T. ) ;
#141 = ORIENTED_EDGE ( 'NONE', *, *, #155, .T. ) ;
#142 = CC_DESIGN_APPROVAL ( #76, ( #228 ) ) ;
#143 = APPLICATION_PROTOCOL_DEFINITION ( 'international standard', 'config_control_design', 1994, #223 ) ;
#144 = EDGE_LOOP ( 'NONE', ( #344, #265 ) ) ;
#145 = PRODUCT_RELATED_PRODUCT_CATEGORY ( 'detail', '', ( #293 ) ) ;
#146 = FACE_OUTER_BOUND ( 'NONE', #354, .T. ) ;
#147 = CARTESIAN_POINT ( 'NONE',  ( 0.1874999999999999445, -1.309305502066174614E-15, 9.142831454617376809E-30 ) ) ;
#148 = AXIS2_PLACEMENT_3D ( 'NONE', #169, #255, #106 ) ;
#149 = DATE_TIME_ROLE ( 'classification_date' ) ;
#150 = CARTESIAN_POINT ( 'NONE',  ( 3.665757740471518732E-29, -5.233730526925875170E-15, -1.498999999999999666 ) ) ;
#151 = DIRECTION ( 'NONE',  ( 1.000000000000000000, -6.982962677686266711E-15, 4.876176775795936914E-29 ) ) ;
#152 = DIRECTION ( 'NONE',  ( 1.000000000000000000, -6.982962677686265922E-15, 4.876176775795935793E-29 ) ) ;
#153 = ORGANIZATION ( 'UNSPECIFIED', 'UNSPECIFIED', '' ) ;
#154 = CYLINDRICAL_SURFACE ( 'NONE', #194, 0.1875000000000000278 ) ;
#155 = EDGE_CURVE ( 'NONE', #119, #86, #25, .T. ) ;
#156 = PRODUCT_DEFINITION_SHAPE ( 'NONE', 'NONE',  #228 ) ;
#157 = FACE_OUTER_BOUND ( 'NONE', #88, .T. ) ;
#158 = DIRECTION ( 'NONE',  ( 0.7071067811865466846, -7.319954787623252890E-15, -0.7071067811865483499 ) ) ;
#159 = AXIS2_PLACEMENT_3D ( 'NONE', #321, #262, #151 ) ;
#160 = DIRECTION ( 'NONE',  ( -0.7071067811866320607, 7.493145998870660238E-15, 0.7071067811864629737 ) ) ;
#161 = CARTESIAN_POINT ( 'NONE',  ( 1.309305502066211690E-15, 0.1874999999999947820, -1.500000000000000444 ) ) ;
#162 = CC_DESIGN_PERSON_AND_ORGANIZATION_ASSIGNMENT ( #359, #236, ( #363 ) ) ;
#163 = DIRECTION ( 'NONE',  ( -1.000000000000000000, 6.982962677686265922E-15, 0.000000000000000000 ) ) ;
#164 = PERSON_AND_ORGANIZATION_ROLE ( 'creator' ) ;
#165 = ORIENTED_EDGE ( 'NONE', *, *, #355, .F. ) ;
#166 = ADVANCED_FACE ( 'NONE', ( #24 ), #186, .T. ) ;
#167 = LENGTH_MEASURE_WITH_UNIT ( LENGTH_MEASURE( 0.02539999999999999897 ), #84 );
#168 = ORIENTED_EDGE ( 'NONE', *, *, #72, .T. ) ;
#169 = CARTESIAN_POINT ( 'NONE',  ( 3.665757740471518732E-29, -5.233730526925875170E-15, -1.498999999999999666 ) ) ;
#170 = MANIFOLD_SOLID_BREP ( 'Body-Move/Copy2[1]', #275 ) ;
#171 = AXIS2_PLACEMENT_3D ( 'NONE', #307, #277, #251 ) ;
#172 = DIRECTION ( 'NONE',  ( 0.000000000000000000, 0.000000000000000000, 1.000000000000000000 ) ) ;
#173 = ORIENTED_EDGE ( 'NONE', *, *, #46, .T. ) ;
#174 = ORIENTED_EDGE ( 'NONE', *, *, #221, .T. ) ;
#175 = PERSON_AND_ORGANIZATION_ROLE ( 'classification_officer' ) ;
#176 = DIRECTION ( 'NONE',  ( 1.000000000000000000, -6.982962677686269077E-15, 0.000000000000000000 ) ) ;
#177 = SHAPE_DEFINITION_REPRESENTATION ( #156, #215 ) ;
#178 = EDGE_CURVE ( 'NONE', #283, #86, #87, .T. ) ;
#179 = DIRECTION ( 'NONE',  ( -2.445468806185136597E-29, 3.491481338843145583E-15, 1.000000000000000000 ) ) ;
#180 = PERSON_AND_ORGANIZATION ( #284, #153 ) ;
#181 = ORIENTED_EDGE ( 'NONE', *, *, #289, .F. ) ;
#182 = CARTESIAN_POINT ( 'NONE',  ( 4.890937612370290675E-31, -6.982962677686316261E-17, -0.02000000000000007327 ) ) ;
#183 = ADVANCED_FACE ( 'NONE', ( #304 ), #306, .T. ) ;
#184 = DIRECTION ( 'NONE',  ( -2.445468806185136597E-29, 3.491481338843145583E-15, 1.000000000000000000 ) ) ;
#185 = CARTESIAN_POINT ( 'NONE',  ( -0.1875000000000000278, -5.650695048136103317E-15, -1.499999999999999778 ) ) ;
#186 = CYLINDRICAL_SURFACE ( 'NONE', #248, 0.1875000000000000278 ) ;
#187 = VECTOR ( 'NONE', #274, 39.37007874015748143 ) ;
#188 =( GEOMETRIC_REPRESENTATION_CONTEXT ( 3 ) GLOBAL_UNCERTAINTY_ASSIGNED_CONTEXT ( ( #69 ) ) GLOBAL_UNIT_ASSIGNED_CONTEXT ( ( #339, #290, #220 ) ) REPRESENTATION_CONTEXT ( 'NONE', 'WORKASPACE' ) );
#189 = CARTESIAN_POINT ( 'NONE',  ( 0.1875000000000000278, -1.309305502066175008E-15, 9.142831454617381013E-30 ) ) ;
#190 = CC_DESIGN_DATE_AND_TIME_ASSIGNMENT ( #311, #18, ( #228 ) ) ;
#191 = DIRECTION ( 'NONE',  ( -2.445468806185136877E-29, 3.491481338843145188E-15, 1.000000000000000000 ) ) ;
#192 = APPROVAL_STATUS ( 'not_yet_approved' ) ;
#193 = ADVANCED_FACE ( 'NONE', ( #273 ), #75, .F. ) ;
#194 = AXIS2_PLACEMENT_3D ( 'NONE', #361, #179, #16 ) ;
#195 = ORIENTED_EDGE ( 'NONE', *, *, #326, .T. ) ;
#196 = AXIS2_PLACEMENT_3D ( 'NONE', #314, #172, #346 ) ;
#197 = EDGE_LOOP ( 'NONE', ( #286, #94, #165, #34 ) ) ;
#198 = PERSON_AND_ORGANIZATION ( #284, #153 ) ;
#199 = ORIENTED_EDGE ( 'NONE', *, *, #221, .F. ) ;
#200 = ADVANCED_FACE ( 'NONE', ( #127 ), #244, .F. ) ;
#201 = CONICAL_SURFACE ( 'NONE', #83, 0.1874999999999998890, 0.7853981633974471688 ) ;
#202 = VERTEX_POINT ( 'NONE', #335 ) ;
#203 = APPLICATION_CONTEXT ( 'configuration controlled 3d designs of mechanical parts and assemblies' ) ;
#204 = ORIENTED_EDGE ( 'NONE', *, *, #347, .F. ) ;
#205 = DATE_AND_TIME ( #322, #249 ) ;
#206 = CYLINDRICAL_SURFACE ( 'NONE', #357, 0.1874999999999999445 ) ;
#207 = CIRCLE ( 'NONE', #263, 0.1875000000000000278 ) ;
#208 = COORDINATED_UNIVERSAL_TIME_OFFSET ( 5, 0, .BEHIND. ) ;
#209 = DIRECTION ( 'NONE',  ( 0.7071067811866320607, -2.468850131083142557E-15, 0.7071067811864629737 ) ) ;
#210 = DIRECTION ( 'NONE',  ( -2.445468806185136597E-29, 3.491481338843145583E-15, 1.000000000000000000 ) ) ;
#211 = CC_DESIGN_DATE_AND_TIME_ASSIGNMENT ( #205, #149, ( #50 ) ) ;
#212 = CARTESIAN_POINT ( 'NONE',  ( 3.668203209277704335E-29, -5.237222008264717388E-15, -1.499999999999999778 ) ) ;
#213 = AXIS2_PLACEMENT_3D ( 'NONE', #20, #64, #152 ) ;
#214 = CARTESIAN_POINT ( 'NONE',  ( -0.1875000000000000278, 1.332267629550188046E-15, -9.223003294227947991E-30 ) ) ;
#215 = ADVANCED_BREP_SHAPE_REPRESENTATION ( '34710', ( #170, #45, #196 ), #188 ) ;
#216 = CARTESIAN_POINT ( 'NONE',  ( 4.890937612370290675E-31, -6.982962677686316261E-17, -0.02000000000000007327 ) ) ;
#217 = CARTESIAN_POINT ( 'NONE',  ( -0.1875000000000000278, -5.650695048136103317E-15, -2.500000000000000000 ) ) ;
#218 = AXIS2_PLACEMENT_3D ( 'NONE', #105, #252, #345 ) ;
#219 = DIRECTION ( 'NONE',  ( -2.445468806185136597E-29, 3.491481338843145583E-15, 1.000000000000000000 ) ) ;
#220 =( NAMED_UNIT ( * ) SI_UNIT ( $, .STERADIAN. ) SOLID_ANGLE_UNIT ( ) );
#221 = EDGE_CURVE ( 'NONE', #86, #283, #128, .T. ) ;
#222 = EDGE_LOOP ( 'NONE', ( #168, #288 ) ) ;
#223 = APPLICATION_CONTEXT ( 'configuration controlled 3d designs of mechanical parts and assemblies' ) ;
#224 = DIRECTION ( 'NONE',  ( 1.000000000000000000, -6.982962677686269077E-15, 0.000000000000000000 ) ) ;
#225 = CIRCLE ( 'NONE', #148, 0.1875000000000000278 ) ;
#226 = APPLICATION_PROTOCOL_DEFINITION ( 'international standard', 'config_control_design', 1994, #203 ) ;
#227 = ORIENTED_EDGE ( 'NONE', *, *, #258, .T. ) ;
#228 = PRODUCT_DEFINITION ( 'UNKNOWN', '', #363, #316 ) ;
#229 = COORDINATED_UNIVERSAL_TIME_OFFSET ( 5, 0, .BEHIND. ) ;
#230 = ORIENTED_EDGE ( 'NONE', *, *, #271, .F. ) ;
#231 = VERTEX_POINT ( 'NONE', #185 ) ;
#232 = CLOSED_SHELL ( 'NONE', ( #332, #31, #37, #116, #183, #12, #5, #193 ) ) ;
#233 = VECTOR ( 'NONE', #2, 39.37007874015748143 ) ;
#234 = DIRECTION ( 'NONE',  ( -2.445468806185136597E-29, 3.491481338843145583E-15, 1.000000000000000000 ) ) ;
#235 = LINE ( 'NONE', #297, #269 ) ;
#236 = PERSON_AND_ORGANIZATION_ROLE ( 'design_supplier' ) ;
#237 = ORIENTED_EDGE ( 'NONE', *, *, #46, .F. ) ;
#238 = LOCAL_TIME ( 11, 52, 18.00000000000000000, #65 ) ;
#239 = DIRECTION ( 'NONE',  ( 1.000000000000000000, -6.982962677686266711E-15, 0.000000000000000000 ) ) ;
#240 = DIRECTION ( 'NONE',  ( -1.000000000000000000, 6.982962677686265922E-15, 0.000000000000000000 ) ) ;
#241 = DIRECTION ( 'NONE',  ( 2.438088387897960049E-29, -3.491481338843145188E-15, -1.000000000000000000 ) ) ;
#242 = VECTOR ( 'NONE', #158, 39.37007874015748143 ) ;
#243 = VECTOR ( 'NONE', #209, 39.37007874015748143 ) ;
#244 = PLANE ( 'NONE',  #349 ) ;
#245 = EDGE_CURVE ( 'NONE', #117, #329, #77, .T. ) ;
#246 = DIRECTION ( 'NONE',  ( 1.000000000000000000, -6.982962677686269077E-15, 0.000000000000000000 ) ) ;
#247 = DIRECTION ( 'NONE',  ( 1.000000000000000000, -6.982962677686265922E-15, 4.876176775795935793E-29 ) ) ;
#248 = AXIS2_PLACEMENT_3D ( 'NONE', #29, #184, #247 ) ;
#249 = LOCAL_TIME ( 11, 52, 18.00000000000000000, #356 ) ;
#250 = EDGE_CURVE ( 'NONE', #301, #117, #118, .T. ) ;
#251 = DIRECTION ( 'NONE',  ( 1.000000000000000000, -6.982962677686269077E-15, 0.000000000000000000 ) ) ;
#252 = DIRECTION ( 'NONE',  ( 2.438088387897960049E-29, -3.491481338843145188E-15, -1.000000000000000000 ) ) ;
#253 = VERTEX_POINT ( 'NONE', #78 ) ;
#254 = PERSON_AND_ORGANIZATION ( #284, #153 ) ;
#255 = DIRECTION ( 'NONE',  ( -2.445468806185136597E-29, 3.491481338843145583E-15, 1.000000000000000000 ) ) ;
#256 = LOCAL_TIME ( 11, 52, 18.00000000000000000, #10 ) ;
#257 = VERTEX_POINT ( 'NONE', #364 ) ;
#258 = EDGE_CURVE ( 'NONE', #117, #301, #136, .T. ) ;
#259 = DIRECTION ( 'NONE',  ( -2.445468806185136597E-29, 3.491481338843145583E-15, 1.000000000000000000 ) ) ;
#260 = APPROVAL_DATE_TIME ( #67, #123 ) ;
#261 = CC_DESIGN_PERSON_AND_ORGANIZATION_ASSIGNMENT ( #47, #175, ( #50 ) ) ;
#262 = DIRECTION ( 'NONE',  ( -2.445468806185136597E-29, 3.491481338843145583E-15, 1.000000000000000000 ) ) ;
#263 = AXIS2_PLACEMENT_3D ( 'NONE', #125, #272, #239 ) ;
#264 = DATE_AND_TIME ( #124, #99 ) ;
#265 = ORIENTED_EDGE ( 'NONE', *, *, #347, .T. ) ;
#266 = APPROVAL_ROLE ( '' ) ;
#267 = CARTESIAN_POINT ( 'NONE',  ( 0.1864999999999999714, -6.539544547653205593E-15, -1.499999999999999556 ) ) ;
#268 = PLANE ( 'NONE',  #213 ) ;
#269 = VECTOR ( 'NONE', #49, 39.37007874015748143 ) ;
#270 = AXIS2_PLACEMENT_3D ( 'NONE', #6, #285, #62 ) ;
#271 = EDGE_CURVE ( 'NONE', #257, #202, #102, .T. ) ;
#272 = DIRECTION ( 'NONE',  ( -2.445468806185136597E-29, 3.491481338843145583E-15, 1.000000000000000000 ) ) ;
#273 = FACE_OUTER_BOUND ( 'NONE', #222, .T. ) ;
#274 = DIRECTION ( 'NONE',  ( -0.7071067811865466846, 2.468850131082247989E-15, -0.7071067811865483499 ) ) ;
#275 = CLOSED_SHELL ( 'NONE', ( #54, #341, #200, #166 ) ) ;
#276 = VECTOR ( 'NONE', #160, 39.37007874015748143 ) ;
#277 = DIRECTION ( 'NONE',  ( -2.445468806185136597E-29, 3.491481338843145583E-15, 1.000000000000000000 ) ) ;
#278 = DIRECTION ( 'NONE',  ( 1.000000000000000000, -6.982962677686266711E-15, 4.876176775795935793E-29 ) ) ;
#279 = CC_DESIGN_PERSON_AND_ORGANIZATION_ASSIGNMENT ( #254, #164, ( #228 ) ) ;
#280 = CARTESIAN_POINT ( 'NONE',  ( 0.1874999999999998890, -1.356173001359024480E-15, -0.02000000000000007327 ) ) ;
#281 = CIRCLE ( 'NONE', #270, 0.1674999999999998435 ) ;
#282 = CALENDAR_DATE ( 2024, 27, 2 ) ;
#283 = VERTEX_POINT ( 'NONE', #309 ) ;
#284 = PERSON ( 'UNSPECIFIED', 'UNSPECIFIED', 'UNSPECIFIED', ('UNSPECIFIED'), ('UNSPECIFIED'), ('UNSPECIFIED') ) ;
#285 = DIRECTION ( 'NONE',  ( -2.445468806185136597E-29, 3.491481338843145583E-15, 1.000000000000000000 ) ) ;
#286 = ORIENTED_EDGE ( 'NONE', *, *, #250, .T. ) ;
#287 = MECHANICAL_CONTEXT ( 'NONE', #203, 'mechanical' ) ;
#288 = ORIENTED_EDGE ( 'NONE', *, *, #320, .T. ) ;
#289 = EDGE_CURVE ( 'NONE', #202, #231, #318, .T. ) ;
#290 =( NAMED_UNIT ( * ) PLANE_ANGLE_UNIT ( ) SI_UNIT ( $, .RADIAN. ) );
#291 = APPROVAL_PERSON_ORGANIZATION ( #198, #76, #35 ) ;
#292 = ORIENTED_EDGE ( 'NONE', *, *, #22, .F. ) ;
#293 = PRODUCT ( '34710', '34710', '', ( #287 ) ) ;
#294 = EDGE_LOOP ( 'NONE', ( #4, #348 ) ) ;
#295 = APPROVAL_DATE_TIME ( #264, #40 ) ;
#296 = DIRECTION ( 'NONE',  ( -2.445468806185136597E-29, 3.491481338843145583E-15, 1.000000000000000000 ) ) ;
#297 = CARTESIAN_POINT ( 'NONE',  ( -0.1874999999999999445, 1.332267629550187454E-15, -9.223003294227945188E-30 ) ) ;
#298 = PERSON_AND_ORGANIZATION ( #284, #153 ) ;
#299 = FACE_OUTER_BOUND ( 'NONE', #113, .T. ) ;
#300 = ORIENTED_EDGE ( 'NONE', *, *, #89, .T. ) ;
#301 = VERTEX_POINT ( 'NONE', #133 ) ;
#302 = AXIS2_PLACEMENT_3D ( 'NONE', #310, #56, #103 ) ;
#303 = AXIS2_PLACEMENT_3D ( 'NONE', #216, #219, #51 ) ;
#304 = FACE_OUTER_BOUND ( 'NONE', #358, .T. ) ;
#305 = EDGE_CURVE ( 'NONE', #126, #231, #330, .T. ) ;
#306 = CYLINDRICAL_SURFACE ( 'NONE', #342, 0.1874999999999999445 ) ;
#307 = CARTESIAN_POINT ( 'NONE',  ( 3.668203209277703774E-29, -5.237222008264716599E-15, -1.499999999999999556 ) ) ;
#308 = CONICAL_SURFACE ( 'NONE', #19, 0.1874999999999998890, 0.7853981633974471688 ) ;
#309 = CARTESIAN_POINT ( 'NONE',  ( -0.1874999999999998890, 1.239475875289310921E-15, -0.02000000000000007327 ) ) ;
#310 = CARTESIAN_POINT ( 'NONE',  ( 4.890937612370290675E-31, -6.982962677686316261E-17, -0.02000000000000007327 ) ) ;
#311 = DATE_AND_TIME ( #38, #331 ) ;
#312 = APPROVAL_PERSON_ORGANIZATION ( #298, #40, #266 ) ;
#313 = ORIENTED_EDGE ( 'NONE', *, *, #245, .F. ) ;
#314 = CARTESIAN_POINT ( 'NONE',  ( 0.000000000000000000, 0.000000000000000000, 0.000000000000000000 ) ) ;
#315 = CARTESIAN_POINT ( 'NONE',  ( 6.113672015462842613E-29, -8.728703347107864943E-15, -2.500000000000000000 ) ) ;
#316 = DESIGN_CONTEXT ( 'detailed design', #223, 'design' ) ;
#317 = CIRCLE ( 'NONE', #159, 0.1674999999999998435 ) ;
#318 = CIRCLE ( 'NONE', #110, 0.1875000000000000278 ) ;
#319 = ORIENTED_EDGE ( 'NONE', *, *, #111, .T. ) ;
#320 = EDGE_CURVE ( 'NONE', #119, #13, #281, .T. ) ;
#321 = CARTESIAN_POINT ( 'NONE',  ( 0.000000000000000000, 0.000000000000000000, 0.000000000000000000 ) ) ;
#322 = CALENDAR_DATE ( 2024, 27, 2 ) ;
#323 = FACE_OUTER_BOUND ( 'NONE', #294, .T. ) ;
#324 = CARTESIAN_POINT ( 'NONE',  ( 3.668203209277703774E-29, -5.237222008264716599E-15, -1.499999999999999556 ) ) ;
#325 = AXIS2_PLACEMENT_3D ( 'NONE', #315, #259, #138 ) ;
#326 = EDGE_CURVE ( 'NONE', #257, #126, #21, .T. ) ;
#327 = FACE_OUTER_BOUND ( 'NONE', #58, .T. ) ;
#328 = PERSON_AND_ORGANIZATION ( #284, #153 ) ;
#329 = VERTEX_POINT ( 'NONE', #57 ) ;
#330 = LINE ( 'NONE', #214, #74 ) ;
#331 = LOCAL_TIME ( 11, 52, 18.00000000000000000, #229 ) ;
#332 = ADVANCED_FACE ( 'NONE', ( #340 ), #104, .T. ) ;
#333 = CARTESIAN_POINT ( 'NONE',  ( 3.668203209277703774E-29, -5.237222008264716599E-15, -1.499999999999999556 ) ) ;
#334 = DIRECTION ( 'NONE',  ( 2.438088387897960049E-29, -3.491481338843145188E-15, -1.000000000000000000 ) ) ;
#335 = CARTESIAN_POINT ( 'NONE',  ( 0.1875000000000000278, -6.546527510330893185E-15, -1.499999999999999778 ) ) ;
#336 = AXIS2_PLACEMENT_3D ( 'NONE', #333, #53, #246 ) ;
#337 = CARTESIAN_POINT ( 'NONE',  ( -0.1864999999999999714, -3.912059806072129759E-15, -1.499999999999999556 ) ) ;
#338 = CC_DESIGN_PERSON_AND_ORGANIZATION_ASSIGNMENT ( #112, #32, ( #293 ) ) ;
#339 =( CONVERSION_BASED_UNIT ( 'INCH', #167 ) LENGTH_UNIT ( ) NAMED_UNIT ( #137 ) );
#340 = FACE_OUTER_BOUND ( 'NONE', #197, .T. ) ;
#341 = ADVANCED_FACE ( 'NONE', ( #146 ), #107, .T. ) ;
#342 = AXIS2_PLACEMENT_3D ( 'NONE', #365, #130, #278 ) ;
#343 = DIRECTION ( 'NONE',  ( -2.445468806185136597E-29, 3.491481338843145583E-15, 1.000000000000000000 ) ) ;
#344 = ORIENTED_EDGE ( 'NONE', *, *, #289, .T. ) ;
#345 = DIRECTION ( 'NONE',  ( -1.000000000000000000, 6.982962677686265922E-15, -4.876176775795935793E-29 ) ) ;
#346 = DIRECTION ( 'NONE',  ( 1.000000000000000000, 0.000000000000000000, 0.000000000000000000 ) ) ;
#347 = EDGE_CURVE ( 'NONE', #231, #202, #129, .T. ) ;
#348 = ORIENTED_EDGE ( 'NONE', *, *, #258, .F. ) ;
#349 = AXIS2_PLACEMENT_3D ( 'NONE', #161, #241, #27 ) ;
#350 = CALENDAR_DATE ( 2024, 27, 2 ) ;
#351 = CC_DESIGN_SECURITY_CLASSIFICATION ( #50, ( #363 ) ) ;
#352 = ORIENTED_EDGE ( 'NONE', *, *, #178, .F. ) ;
#353 = ORIENTED_EDGE ( 'NONE', *, *, #28, .F. ) ;
#354 = EDGE_LOOP ( 'NONE', ( #9, #292 ) ) ;
#355 = EDGE_CURVE ( 'NONE', #253, #329, #225, .T. ) ;
#356 = COORDINATED_UNIVERSAL_TIME_OFFSET ( 5, 0, .BEHIND. ) ;
#357 = AXIS2_PLACEMENT_3D ( 'NONE', #96, #210, #63 ) ;
#358 = EDGE_LOOP ( 'NONE', ( #353, #173, #108, #352 ) ) ;
#359 = PERSON_AND_ORGANIZATION ( #284, #153 ) ;
#360 = FACE_OUTER_BOUND ( 'NONE', #14, .T. ) ;
#361 = CARTESIAN_POINT ( 'NONE',  ( 0.000000000000000000, 0.000000000000000000, 0.000000000000000000 ) ) ;
#362 = DIRECTION ( 'NONE',  ( -2.445468806185136597E-29, 3.491481338843145583E-15, 1.000000000000000000 ) ) ;
#363 = PRODUCT_DEFINITION_FORMATION_WITH_SPECIFIED_SOURCE ( 'ANY', '', #293, .NOT_KNOWN. ) ;
#364 = CARTESIAN_POINT ( 'NONE',  ( 0.1875000000000000278, -1.003800884917403995E-14, -2.500000000000000000 ) ) ;
#365 = CARTESIAN_POINT ( 'NONE',  ( 0.000000000000000000, 0.000000000000000000, 0.000000000000000000 ) ) ;
#366 = CARTESIAN_POINT ( 'NONE',  ( -0.1864999999999999714, -3.906761351723908145E-15, -1.499999999999999556 ) ) ;
ENDSEC;
END-ISO-10303-21;
