ISO-10303-21;
HEADER;
FILE_DESCRIPTION (( 'STEP AP203' ),
    '1' );
FILE_NAME ('34716.STEP',
    '2024-02-27T16:58:26',
    ( '' ),
    ( '' ),
    'SwSTEP 2.0',
    'SolidWorks 2023',
    '' );
FILE_SCHEMA (( 'CONFIG_CONTROL_DESIGN' ));
ENDSEC;

DATA;
#1 = CARTESIAN_POINT ( 'NONE',  ( 5.502304813916558464E-29, -7.855833012397078448E-15, -2.250000000000000444 ) ) ;
#2 = AXIS2_PLACEMENT_3D ( 'NONE', #97, #267, #122 ) ;
#3 = ORIENTED_EDGE ( 'NONE', *, *, #141, .T. ) ;
#4 = CARTESIAN_POINT ( 'NONE',  ( 0.3124999999999998890, -2.182175836776957558E-15, 1.523805242436229235E-29 ) ) ;
#5 = CARTESIAN_POINT ( 'NONE',  ( 4.890937612370298557E-31, -6.982962677686327354E-17, -0.02000000000000010103 ) ) ;
#6 = PLANE ( 'NONE',  #207 ) ;
#7 = APPROVAL ( #301, 'UNSPECIFIED' ) ;
#8 = EDGE_LOOP ( 'NONE', ( #178, #212, #129, #193 ) ) ;
#9 = CARTESIAN_POINT ( 'NONE',  ( -2.087702828670439639E-46, 2.980686340760894400E-32, 8.537024980200822558E-18 ) ) ;
#10 = AXIS2_PLACEMENT_3D ( 'NONE', #217, #297, #149 ) ;
#11 = DIRECTION ( 'NONE',  ( 1.000000000000000000, -6.982962677686266711E-15, 4.876176775795935232E-29 ) ) ;
#12 = VECTOR ( 'NONE', #144, 39.37007874015748143 ) ;
#13 = LENGTH_MEASURE_WITH_UNIT ( LENGTH_MEASURE( 0.02539999999999999897 ), #90 );
#14 = VERTEX_POINT ( 'NONE', #246 ) ;
#15 = DIRECTION ( 'NONE',  ( 1.000000000000000000, -6.982962677686266711E-15, 0.000000000000000000 ) ) ;
#16 = APPROVAL_ROLE ( '' ) ;
#17 = ADVANCED_FACE ( 'NONE', ( #201 ), #351, .F. ) ;
#18 =( NAMED_UNIT ( * ) PLANE_ANGLE_UNIT ( ) SI_UNIT ( $, .RADIAN. ) );
#19 = EDGE_LOOP ( 'NONE', ( #103, #300, #190, #251 ) ) ;
#20 = PERSON_AND_ORGANIZATION_ROLE ( 'design_supplier' ) ;
#21 = CIRCLE ( 'NONE', #230, 0.3125000000000000000 ) ;
#22 = ORIENTED_EDGE ( 'NONE', *, *, #60, .F. ) ;
#23 = CALENDAR_DATE ( 2024, 27, 2 ) ;
#24 = CALENDAR_DATE ( 2024, 27, 2 ) ;
#25 = FACE_OUTER_BOUND ( 'NONE', #330, .T. ) ;
#26 = ADVANCED_FACE ( 'NONE', ( #194 ), #234, .T. ) ;
#27 = ORIENTED_EDGE ( 'NONE', *, *, #315, .T. ) ;
#28 = DIRECTION ( 'NONE',  ( -2.445468806185136877E-29, 3.491481338843145188E-15, 1.000000000000000000 ) ) ;
#29 = VECTOR ( 'NONE', #53, 39.37007874015748143 ) ;
#30 = ADVANCED_FACE ( 'NONE', ( #304 ), #328, .T. ) ;
#31 = LINE ( 'NONE', #142, #237 ) ;
#32 = FACE_OUTER_BOUND ( 'NONE', #320, .T. ) ;
#33 = VECTOR ( 'NONE', #266, 39.37007874015748854 ) ;
#34 = CARTESIAN_POINT ( 'NONE',  ( 0.000000000000000000, 0.000000000000000000, 0.000000000000000000 ) ) ;
#35 = CARTESIAN_POINT ( 'NONE',  ( 4.890937612370298557E-31, -6.982962677686327354E-17, -0.02000000000000010103 ) ) ;
#36 = EDGE_CURVE ( 'NONE', #73, #248, #222, .T. ) ;
#37 =( CONVERSION_BASED_UNIT ( 'INCH', #13 ) LENGTH_UNIT ( ) NAMED_UNIT ( #361 ) );
#38 = ORIENTED_EDGE ( 'NONE', *, *, #254, .F. ) ;
#39 = DIRECTION ( 'NONE',  ( -2.445468806185136597E-29, 3.491481338843145583E-15, 1.000000000000000000 ) ) ;
#40 = CARTESIAN_POINT ( 'NONE',  ( -0.3124999999999997224, 2.112346210000093077E-15, -0.02000000000000010103 ) ) ;
#41 = LOCAL_TIME ( 11, 58, 26.00000000000000000, #358 ) ;
#42 = PERSON_AND_ORGANIZATION_ROLE ( 'creator' ) ;
#43 = CARTESIAN_POINT ( 'NONE',  ( 2.042516583223230567E-15, 0.2924999999999997047, -1.016989779121518604E-15 ) ) ;
#44 = COORDINATED_UNIVERSAL_TIME_OFFSET ( 5, 0, .BEHIND. ) ;
#45 = SHAPE_DEFINITION_REPRESENTATION ( #113, #227 ) ;
#46 = AXIS2_PLACEMENT_3D ( 'NONE', #54, #177, #168 ) ;
#47 = PERSON_AND_ORGANIZATION ( #94, #114 ) ;
#48 = APPROVAL_PERSON_ORGANIZATION ( #253, #7, #132 ) ;
#49 = CC_DESIGN_DATE_AND_TIME_ASSIGNMENT ( #109, #157, ( #302 ) ) ;
#50 = CIRCLE ( 'NONE', #363, 0.2924999999999997047 ) ;
#51 = EDGE_CURVE ( 'NONE', #248, #73, #166, .T. ) ;
#52 = AXIS2_PLACEMENT_3D ( 'NONE', #153, #146, #271 ) ;
#53 = DIRECTION ( 'NONE',  ( -2.445468806185136877E-29, 3.491481338843145188E-15, 1.000000000000000000 ) ) ;
#54 = CARTESIAN_POINT ( 'NONE',  ( 5.502304813916558464E-29, -7.855833012397078448E-15, -2.250000000000000444 ) ) ;
#55 = EDGE_LOOP ( 'NONE', ( #69, #299, #88, #226 ) ) ;
#56 = VECTOR ( 'NONE', #28, 39.37007874015748143 ) ;
#57 = ORIENTED_EDGE ( 'NONE', *, *, #206, .T. ) ;
#58 = LINE ( 'NONE', #289, #33 ) ;
#59 = DIRECTION ( 'NONE',  ( -2.445468806185136597E-29, 3.491481338843145583E-15, 1.000000000000000000 ) ) ;
#60 = EDGE_CURVE ( 'NONE', #126, #218, #95, .T. ) ;
#61 = DIRECTION ( 'NONE',  ( 0.7071067811865466846, -7.319954787623252890E-15, -0.7071067811865483499 ) ) ;
#62 = CIRCLE ( 'NONE', #260, 0.2924999999999997047 ) ;
#63 = CYLINDRICAL_SURFACE ( 'NONE', #202, 0.3124999999999998890 ) ;
#64 = EDGE_LOOP ( 'NONE', ( #278, #3 ) ) ;
#65 = CARTESIAN_POINT ( 'NONE',  ( 0.3124999999999997224, -2.213735251080464939E-15, -0.02000000000000010103 ) ) ;
#66 = ORIENTED_EDGE ( 'NONE', *, *, #77, .F. ) ;
#67 = CARTESIAN_POINT ( 'NONE',  ( -0.3125000000000000000, -1.740639529667233725E-15, -2.249000000000000110 ) ) ;
#68 = APPROVAL_DATE_TIME ( #308, #353 ) ;
#69 = ORIENTED_EDGE ( 'NONE', *, *, #206, .F. ) ;
#70 = DIRECTION ( 'NONE',  ( 2.438088387897960049E-29, -3.491481338843145188E-15, -1.000000000000000000 ) ) ;
#71 = CIRCLE ( 'NONE', #135, 0.3125000000000000000 ) ;
#72 = APPROVAL_ROLE ( '' ) ;
#73 = VERTEX_POINT ( 'NONE', #209 ) ;
#74 = APPLICATION_PROTOCOL_DEFINITION ( 'international standard', 'config_control_design', 1994, #359 ) ;
#75 = ORIENTED_EDGE ( 'NONE', *, *, #80, .F. ) ;
#76 =( NAMED_UNIT ( * ) SI_UNIT ( $, .STERADIAN. ) SOLID_ANGLE_UNIT ( ) );
#77 = EDGE_CURVE ( 'NONE', #147, #241, #335, .T. ) ;
#78 = CARTESIAN_POINT ( 'NONE',  ( 0.000000000000000000, 0.000000000000000000, 0.000000000000000000 ) ) ;
#79 = ORIENTED_EDGE ( 'NONE', *, *, #366, .F. ) ;
#80 = EDGE_CURVE ( 'NONE', #232, #147, #268, .T. ) ;
#81 = APPROVAL_PERSON_ORGANIZATION ( #305, #198, #72 ) ;
#82 = DIRECTION ( 'NONE',  ( 1.000000000000000000, -6.982962677686266711E-15, 4.876176775795936353E-29 ) ) ;
#83 = CONICAL_SURFACE ( 'NONE', #280, 0.3114999999999999991, 0.7853981633974141952 ) ;
#84 = PLANE ( 'NONE',  #313 ) ;
#85 = ADVANCED_FACE ( 'NONE', ( #259 ), #110, .T. ) ;
#86 = FACE_OUTER_BOUND ( 'NONE', #19, .T. ) ;
#87 = DIRECTION ( 'NONE',  ( -2.445468806185136597E-29, 3.491481338843145583E-15, 1.000000000000000000 ) ) ;
#88 = ORIENTED_EDGE ( 'NONE', *, *, #229, .T. ) ;
#89 = CARTESIAN_POINT ( 'NONE',  ( 5.502304813916558464E-29, -7.855833012397078448E-15, -2.250000000000000444 ) ) ;
#90 =( LENGTH_UNIT ( ) NAMED_UNIT ( * ) SI_UNIT ( $, .METRE. ) );
#91 = ORIENTED_EDGE ( 'NONE', *, *, #77, .T. ) ;
#92 = CARTESIAN_POINT ( 'NONE',  ( 0.3124999999999997224, -2.213735251080464939E-15, -0.02000000000000010103 ) ) ;
#93 = ADVANCED_FACE ( 'NONE', ( #235 ), #84, .F. ) ;
#94 = PERSON ( 'UNSPECIFIED', 'UNSPECIFIED', 'UNSPECIFIED', ('UNSPECIFIED'), ('UNSPECIFIED'), ('UNSPECIFIED') ) ;
#95 = LINE ( 'NONE', #323, #56 ) ;
#96 = ORIENTED_EDGE ( 'NONE', *, *, #169, .F. ) ;
#97 = CARTESIAN_POINT ( 'NONE',  ( 5.499859345110372861E-29, -7.852341531058235441E-15, -2.249000000000000110 ) ) ;
#98 = CARTESIAN_POINT ( 'NONE',  ( 4.890937612370298557E-31, -6.982962677686327354E-17, -0.02000000000000010103 ) ) ;
#99 = PERSON_AND_ORGANIZATION ( #94, #114 ) ;
#100 = VECTOR ( 'NONE', #61, 39.37007874015748143 ) ;
#101 = DESIGN_CONTEXT ( 'detailed design', #197, 'design' ) ;
#102 = CIRCLE ( 'NONE', #2, 0.3125000000000000000 ) ;
#103 = ORIENTED_EDGE ( 'NONE', *, *, #36, .T. ) ;
#104 = DATE_AND_TIME ( #24, #342 ) ;
#105 = EDGE_LOOP ( 'NONE', ( #344, #356 ) ) ;
#106 = ORIENTED_EDGE ( 'NONE', *, *, #229, .F. ) ;
#107 = COORDINATED_UNIVERSAL_TIME_OFFSET ( 5, 0, .BEHIND. ) ;
#108 = ORIENTED_EDGE ( 'NONE', *, *, #315, .F. ) ;
#109 = DATE_AND_TIME ( #195, #41 ) ;
#110 = CONICAL_SURFACE ( 'NONE', #181, 0.3114999999999999991, 0.7853981633974141952 ) ;
#111 = CIRCLE ( 'NONE', #52, 0.3124999999999997224 ) ;
#112 = PERSON_AND_ORGANIZATION_ROLE ( 'design_owner' ) ;
#113 = PRODUCT_DEFINITION_SHAPE ( 'NONE', 'NONE',  #213 ) ;
#114 = ORGANIZATION ( 'UNSPECIFIED', 'UNSPECIFIED', '' ) ;
#115 = DIRECTION ( 'NONE',  ( 1.000000000000000000, -6.982962677686265922E-15, 0.000000000000000000 ) ) ;
#116 = CC_DESIGN_PERSON_AND_ORGANIZATION_ASSIGNMENT ( #255, #326, ( #302 ) ) ;
#117 = CIRCLE ( 'NONE', #256, 0.3114999999999999991 ) ;
#118 = DIRECTION ( 'NONE',  ( 2.438088387897960049E-29, -3.491481338843145188E-15, -1.000000000000000000 ) ) ;
#119 = DIRECTION ( 'NONE',  ( 1.000000000000000000, -6.982962677686266711E-15, 4.876176775795935232E-29 ) ) ;
#120 = DIRECTION ( 'NONE',  ( 1.000000000000000000, -6.982962677686269077E-15, 0.000000000000000000 ) ) ;
#121 = ORIENTED_EDGE ( 'NONE', *, *, #80, .T. ) ;
#122 = DIRECTION ( 'NONE',  ( 1.000000000000000000, -6.982962677686265133E-15, 0.000000000000000000 ) ) ;
#123 = PRODUCT_DEFINITION_FORMATION_WITH_SPECIFIED_SOURCE ( 'ANY', '', #205, .NOT_KNOWN. ) ;
#124 = ORIENTED_EDGE ( 'NONE', *, *, #307, .F. ) ;
#125 = DIRECTION ( 'NONE',  ( 1.000000000000000000, -6.982962677686265133E-15, 4.876067333457694521E-29 ) ) ;
#126 = VERTEX_POINT ( 'NONE', #67 ) ;
#127 = DIRECTION ( 'NONE',  ( 2.438088387897960049E-29, -3.491481338843145188E-15, -1.000000000000000000 ) ) ;
#128 = DATE_TIME_ROLE ( 'creation_date' ) ;
#129 = ORIENTED_EDGE ( 'NONE', *, *, #337, .T. ) ;
#130 = CLOSED_SHELL ( 'NONE', ( #85, #360, #26, #176, #30, #158, #334, #93 ) ) ;
#131 = EDGE_CURVE ( 'NONE', #163, #324, #50, .T. ) ;
#132 = APPROVAL_ROLE ( '' ) ;
#133 = UNCERTAINTY_MEASURE_WITH_UNIT (LENGTH_MEASURE( 1.000000000000000082E-05 ), #37, 'distance_accuracy_value', 'NONE');
#134 = ADVANCED_FACE ( 'NONE', ( #32 ), #6, .T. ) ;
#135 = AXIS2_PLACEMENT_3D ( 'NONE', #345, #39, #120 ) ;
#136 = AXIS2_PLACEMENT_3D ( 'NONE', #316, #287, #239 ) ;
#137 = DIRECTION ( 'NONE',  ( -2.445468806185136597E-29, 3.491481338843145583E-15, 1.000000000000000000 ) ) ;
#138 = DIRECTION ( 'NONE',  ( -2.445468806185136597E-29, 3.491481338843145583E-15, 1.000000000000000000 ) ) ;
#139 = PLANE ( 'NONE',  #136 ) ;
#140 = CC_DESIGN_DATE_AND_TIME_ASSIGNMENT ( #224, #128, ( #213 ) ) ;
#141 = EDGE_CURVE ( 'NONE', #14, #270, #71, .T. ) ;
#142 = CARTESIAN_POINT ( 'NONE',  ( 0.3125000000000000000, -2.182175836776958347E-15, 1.523805242436230075E-29 ) ) ;
#143 = CIRCLE ( 'NONE', #182, 0.3125000000000000000 ) ;
#144 = DIRECTION ( 'NONE',  ( -0.7071067811865466846, 2.468850131082247989E-15, -0.7071067811865483499 ) ) ;
#145 = DIRECTION ( 'NONE',  ( -2.445468806185136597E-29, 3.491481338843145583E-15, 1.000000000000000000 ) ) ;
#146 = DIRECTION ( 'NONE',  ( -2.445468806185136597E-29, 3.491481338843145583E-15, 1.000000000000000000 ) ) ;
#147 = VERTEX_POINT ( 'NONE', #292 ) ;
#148 = CARTESIAN_POINT ( 'NONE',  ( 0.3125000000000000000, -1.003800884917403837E-14, -2.250000000000000444 ) ) ;
#149 = DIRECTION ( 'NONE',  ( 1.000000000000000000, -6.982962677686269077E-15, 0.000000000000000000 ) ) ;
#150 = CARTESIAN_POINT ( 'NONE',  ( -2.087702828670439639E-46, 2.980686340760894400E-32, 8.537024980200822558E-18 ) ) ;
#151 = EDGE_LOOP ( 'NONE', ( #225, #184, #108, #66 ) ) ;
#152 = AXIS2_PLACEMENT_3D ( 'NONE', #281, #138, #11 ) ;
#153 = CARTESIAN_POINT ( 'NONE',  ( 4.890937612370298557E-31, -6.982962677686327354E-17, -0.02000000000000010103 ) ) ;
#154 = ORIENTED_EDGE ( 'NONE', *, *, #307, .T. ) ;
#155 = PERSON_AND_ORGANIZATION ( #94, #114 ) ;
#156 = DIRECTION ( 'NONE',  ( -1.000000000000000000, 6.982962677686266711E-15, 0.000000000000000000 ) ) ;
#157 = DATE_TIME_ROLE ( 'classification_date' ) ;
#158 = ADVANCED_FACE ( 'NONE', ( #238 ), #83, .T. ) ;
#159 = AXIS2_PLACEMENT_3D ( 'NONE', #236, #339, #82 ) ;
#160 = CALENDAR_DATE ( 2024, 27, 2 ) ;
#161 = CC_DESIGN_PERSON_AND_ORGANIZATION_ASSIGNMENT ( #352, #20, ( #123 ) ) ;
#162 = APPLICATION_PROTOCOL_DEFINITION ( 'international standard', 'config_control_design', 1994, #197 ) ;
#163 = VERTEX_POINT ( 'NONE', #240 ) ;
#164 = CARTESIAN_POINT ( 'NONE',  ( 5.499859345110372861E-29, -7.852341531058235441E-15, -2.249000000000000110 ) ) ;
#165 = DIRECTION ( 'NONE',  ( -1.000000000000000000, 6.982962677686265922E-15, -4.876176775795935793E-29 ) ) ;
#166 = CIRCLE ( 'NONE', #10, 0.3125000000000000000 ) ;
#167 = CARTESIAN_POINT ( 'NONE',  ( 0.2924999999999997047, -2.110215457714317959E-15, 8.537024980215342529E-18 ) ) ;
#168 = DIRECTION ( 'NONE',  ( 1.000000000000000000, -6.982962677686265922E-15, 0.000000000000000000 ) ) ;
#169 = EDGE_CURVE ( 'NONE', #147, #232, #117, .T. ) ;
#170 = LINE ( 'NONE', #175, #290 ) ;
#171 = EDGE_LOOP ( 'NONE', ( #38, #121, #91, #349 ) ) ;
#172 = CLOSED_SHELL ( 'NONE', ( #341, #134, #17, #312 ) ) ;
#173 = AXIS2_PLACEMENT_3D ( 'NONE', #348, #127, #165 ) ;
#174 = AXIS2_PLACEMENT_3D ( 'NONE', #5, #87, #15 ) ;
#175 = CARTESIAN_POINT ( 'NONE',  ( -0.3125000000000000000, 2.220446049250313081E-15, -1.537167215704658232E-29 ) ) ;
#176 = ADVANCED_FACE ( 'NONE', ( #245 ), #262, .T. ) ;
#177 = DIRECTION ( 'NONE',  ( -2.445468806185136597E-29, 3.491481338843145583E-15, 1.000000000000000000 ) ) ;
#178 = ORIENTED_EDGE ( 'NONE', *, *, #296, .F. ) ;
#179 = DIRECTION ( 'NONE',  ( -2.445468806185136597E-29, 3.491481338843145583E-15, 1.000000000000000000 ) ) ;
#180 = DIRECTION ( 'NONE',  ( 1.000000000000000000, -6.982962677686266711E-15, 4.876176775795936353E-29 ) ) ;
#181 = AXIS2_PLACEMENT_3D ( 'NONE', #1, #286, #115 ) ;
#182 = AXIS2_PLACEMENT_3D ( 'NONE', #325, #231, #200 ) ;
#183 = DIRECTION ( 'NONE',  ( -1.000000000000000000, 6.982962677686265922E-15, -4.876176775795935793E-29 ) ) ;
#184 = ORIENTED_EDGE ( 'NONE', *, *, #254, .T. ) ;
#185 = CARTESIAN_POINT ( 'NONE',  ( -0.3124999999999997224, 2.112346210000093077E-15, -0.02000000000000010103 ) ) ;
#186 = CC_DESIGN_PERSON_AND_ORGANIZATION_ASSIGNMENT ( #155, #276, ( #123 ) ) ;
#187 = DIRECTION ( 'NONE',  ( -2.445468806185136597E-29, 3.491481338843145583E-15, 1.000000000000000000 ) ) ;
#188 = VERTEX_POINT ( 'NONE', #92 ) ;
#189 = COORDINATED_UNIVERSAL_TIME_OFFSET ( 5, 0, .BEHIND. ) ;
#190 = ORIENTED_EDGE ( 'NONE', *, *, #284, .F. ) ;
#191 = DIRECTION ( 'NONE',  ( 2.445468806185136597E-29, -3.491481338843145583E-15, -1.000000000000000000 ) ) ;
#192 = COORDINATED_UNIVERSAL_TIME_OFFSET ( 5, 0, .BEHIND. ) ;
#193 = ORIENTED_EDGE ( 'NONE', *, *, #141, .F. ) ;
#194 = FACE_OUTER_BOUND ( 'NONE', #274, .T. ) ;
#195 = CALENDAR_DATE ( 2024, 27, 2 ) ;
#196 = MECHANICAL_CONTEXT ( 'NONE', #359, 'mechanical' ) ;
#197 = APPLICATION_CONTEXT ( 'configuration controlled 3d designs of mechanical parts and assemblies' ) ;
#198 = APPROVAL ( #277, 'UNSPECIFIED' ) ;
#199 = SECURITY_CLASSIFICATION_LEVEL ( 'unclassified' ) ;
#200 = DIRECTION ( 'NONE',  ( 1.000000000000000000, -6.982962677686269077E-15, 0.000000000000000000 ) ) ;
#201 = FACE_OUTER_BOUND ( 'NONE', #64, .T. ) ;
#202 = AXIS2_PLACEMENT_3D ( 'NONE', #34, #298, #119 ) ;
#203 = FACE_OUTER_BOUND ( 'NONE', #8, .T. ) ;
#204 = ORIENTED_EDGE ( 'NONE', *, *, #36, .F. ) ;
#205 = PRODUCT ( '34716', '34716', '', ( #196 ) ) ;
#206 = EDGE_CURVE ( 'NONE', #324, #188, #303, .T. ) ;
#207 = AXIS2_PLACEMENT_3D ( 'NONE', #264, #118, #347 ) ;
#208 = CC_DESIGN_APPROVAL ( #7, ( #123 ) ) ;
#209 = CARTESIAN_POINT ( 'NONE',  ( 0.3125000000000000000, -1.265661985330639628E-14, -3.000000000000000444 ) ) ;
#210 = LINE ( 'NONE', #185, #12 ) ;
#211 = AXIS2_PLACEMENT_3D ( 'NONE', #258, #187, #365 ) ;
#212 = ORIENTED_EDGE ( 'NONE', *, *, #51, .T. ) ;
#213 = PRODUCT_DEFINITION ( 'UNKNOWN', '', #123, #101 ) ;
#214 = LOCAL_TIME ( 11, 58, 26.00000000000000000, #189 ) ;
#215 = DIRECTION ( 'NONE',  ( -2.445468806185136597E-29, 3.491481338843145583E-15, 1.000000000000000000 ) ) ;
#216 = MANIFOLD_SOLID_BREP ( 'Body-Move/Copy2[1]', #172 ) ;
#217 = CARTESIAN_POINT ( 'NONE',  ( 7.336406418555409790E-29, -1.047444401652943635E-14, -3.000000000000000444 ) ) ;
#218 = VERTEX_POINT ( 'NONE', #40 ) ;
#219 = CARTESIAN_POINT ( 'NONE',  ( 5.502304813916558464E-29, -7.855833012397078448E-15, -2.250000000000000444 ) ) ;
#220 = DIRECTION ( 'NONE',  ( 1.000000000000000000, -6.982962677686265922E-15, 0.000000000000000000 ) ) ;
#221 = DATE_AND_TIME ( #160, #252 ) ;
#222 = CIRCLE ( 'NONE', #211, 0.3125000000000000000 ) ;
#223 = ORIENTED_EDGE ( 'NONE', *, *, #233, .T. ) ;
#224 = DATE_AND_TIME ( #228, #214 ) ;
#225 = ORIENTED_EDGE ( 'NONE', *, *, #169, .T. ) ;
#226 = ORIENTED_EDGE ( 'NONE', *, *, #257, .T. ) ;
#227 = ADVANCED_BREP_SHAPE_REPRESENTATION ( '34716', ( #216, #331, #319 ), #242 ) ;
#228 = CALENDAR_DATE ( 2024, 27, 2 ) ;
#229 = EDGE_CURVE ( 'NONE', #163, #218, #210, .T. ) ;
#230 = AXIS2_PLACEMENT_3D ( 'NONE', #164, #137, #364 ) ;
#231 = DIRECTION ( 'NONE',  ( -2.445468806185136597E-29, 3.491481338843145583E-15, 1.000000000000000000 ) ) ;
#232 = VERTEX_POINT ( 'NONE', #317 ) ;
#233 = EDGE_CURVE ( 'NONE', #188, #218, #111, .T. ) ;
#234 = CONICAL_SURFACE ( 'NONE', #333, 0.3124999999999997224, 0.7853981633974471688 ) ;
#235 = FACE_OUTER_BOUND ( 'NONE', #105, .T. ) ;
#236 = CARTESIAN_POINT ( 'NONE',  ( 0.000000000000000000, 0.000000000000000000, 0.000000000000000000 ) ) ;
#237 = VECTOR ( 'NONE', #343, 39.37007874015748143 ) ;
#238 = FACE_OUTER_BOUND ( 'NONE', #171, .T. ) ;
#239 = DIRECTION ( 'NONE',  ( 1.000000000000000000, -6.982962677686265922E-15, 4.876176775795935793E-29 ) ) ;
#240 = CARTESIAN_POINT ( 'NONE',  ( -0.2924999999999997047, 2.077431396611661822E-15, 8.537024980186416602E-18 ) ) ;
#241 = VERTEX_POINT ( 'NONE', #295 ) ;
#242 =( GEOMETRIC_REPRESENTATION_CONTEXT ( 3 ) GLOBAL_UNCERTAINTY_ASSIGNED_CONTEXT ( ( #133 ) ) GLOBAL_UNIT_ASSIGNED_CONTEXT ( ( #37, #18, #76 ) ) REPRESENTATION_CONTEXT ( 'NONE', 'WORKASPACE' ) );
#243 = DIRECTION ( 'NONE',  ( -2.445468806185136597E-29, 3.491481338843145583E-15, 1.000000000000000000 ) ) ;
#244 = EDGE_LOOP ( 'NONE', ( #22, #261, #154, #294 ) ) ;
#245 = FACE_OUTER_BOUND ( 'NONE', #55, .T. ) ;
#246 = CARTESIAN_POINT ( 'NONE',  ( -0.3125000000000000000, -6.944692465212945109E-15, -2.250000000000000444 ) ) ;
#247 = APPROVAL_DATE_TIME ( #221, #7 ) ;
#248 = VERTEX_POINT ( 'NONE', #350 ) ;
#249 = DIRECTION ( 'NONE',  ( 2.445468806185136597E-29, -3.491481338843145583E-15, -1.000000000000000000 ) ) ;
#250 = PERSON_AND_ORGANIZATION ( #94, #114 ) ;
#251 = ORIENTED_EDGE ( 'NONE', *, *, #337, .F. ) ;
#252 = LOCAL_TIME ( 11, 58, 26.00000000000000000, #107 ) ;
#253 = PERSON_AND_ORGANIZATION ( #94, #114 ) ;
#254 = EDGE_CURVE ( 'NONE', #232, #126, #58, .T. ) ;
#255 = PERSON_AND_ORGANIZATION ( #94, #114 ) ;
#256 = AXIS2_PLACEMENT_3D ( 'NONE', #219, #215, #322 ) ;
#257 = EDGE_CURVE ( 'NONE', #218, #188, #263, .T. ) ;
#258 = CARTESIAN_POINT ( 'NONE',  ( 7.336406418555409790E-29, -1.047444401652943635E-14, -3.000000000000000444 ) ) ;
#259 = FACE_OUTER_BOUND ( 'NONE', #151, .T. ) ;
#260 = AXIS2_PLACEMENT_3D ( 'NONE', #150, #145, #265 ) ;
#261 = ORIENTED_EDGE ( 'NONE', *, *, #279, .T. ) ;
#262 = CONICAL_SURFACE ( 'NONE', #310, 0.3124999999999997224, 0.7853981633974471688 ) ;
#263 = CIRCLE ( 'NONE', #174, 0.3124999999999997224 ) ;
#264 = CARTESIAN_POINT ( 'NONE',  ( 2.182175836777031317E-15, 0.3124999999999895639, -3.000000000000001332 ) ) ;
#265 = DIRECTION ( 'NONE',  ( 1.000000000000000000, -6.982962677686265133E-15, 4.876067333457694521E-29 ) ) ;
#266 = DIRECTION ( 'NONE',  ( -0.7071067811865232589, 7.493145998870265808E-15, 0.7071067811865715536 ) ) ;
#267 = DIRECTION ( 'NONE',  ( -2.445468806185136597E-29, 3.491481338843145583E-15, 1.000000000000000000 ) ) ;
#268 = CIRCLE ( 'NONE', #46, 0.3114999999999999991 ) ;
#269 = CC_DESIGN_APPROVAL ( #198, ( #302 ) ) ;
#270 = VERTEX_POINT ( 'NONE', #148 ) ;
#271 = DIRECTION ( 'NONE',  ( 1.000000000000000000, -6.982962677686266711E-15, 0.000000000000000000 ) ) ;
#272 = APPROVAL_STATUS ( 'not_yet_approved' ) ;
#273 = ORIENTED_EDGE ( 'NONE', *, *, #51, .F. ) ;
#274 = EDGE_LOOP ( 'NONE', ( #79, #57, #223, #106 ) ) ;
#275 = CC_DESIGN_PERSON_AND_ORGANIZATION_ASSIGNMENT ( #250, #112, ( #205 ) ) ;
#276 = PERSON_AND_ORGANIZATION_ROLE ( 'creator' ) ;
#277 = APPROVAL_STATUS ( 'not_yet_approved' ) ;
#278 = ORIENTED_EDGE ( 'NONE', *, *, #284, .T. ) ;
#279 = EDGE_CURVE ( 'NONE', #126, #241, #102, .T. ) ;
#280 = AXIS2_PLACEMENT_3D ( 'NONE', #89, #243, #220 ) ;
#281 = CARTESIAN_POINT ( 'NONE',  ( 0.000000000000000000, 0.000000000000000000, 0.000000000000000000 ) ) ;
#282 = CYLINDRICAL_SURFACE ( 'NONE', #159, 0.3125000000000000000 ) ;
#283 = CARTESIAN_POINT ( 'NONE',  ( 0.3114999999999999991, -1.003102588649635078E-14, -2.250000000000000444 ) ) ;
#284 = EDGE_CURVE ( 'NONE', #270, #14, #143, .T. ) ;
#285 = CC_DESIGN_APPROVAL ( #353, ( #213 ) ) ;
#286 = DIRECTION ( 'NONE',  ( -2.445468806185136597E-29, 3.491481338843145583E-15, 1.000000000000000000 ) ) ;
#287 = DIRECTION ( 'NONE',  ( -2.438088387897960049E-29, 3.491481338843145188E-15, 1.000000000000000000 ) ) ;
#288 = CC_DESIGN_PERSON_AND_ORGANIZATION_ASSIGNMENT ( #47, #42, ( #213 ) ) ;
#289 = CARTESIAN_POINT ( 'NONE',  ( -0.3114999999999999991, -5.642492390504367165E-15, -2.250000000000000444 ) ) ;
#290 = VECTOR ( 'NONE', #309, 39.37007874015748143 ) ;
#291 = FACE_OUTER_BOUND ( 'NONE', #321, .T. ) ;
#292 = CARTESIAN_POINT ( 'NONE',  ( 0.3114999999999999991, -1.003102588649635078E-14, -2.250000000000000444 ) ) ;
#293 = CARTESIAN_POINT ( 'NONE',  ( 0.000000000000000000, 0.000000000000000000, 0.000000000000000000 ) ) ;
#294 = ORIENTED_EDGE ( 'NONE', *, *, #257, .F. ) ;
#295 = CARTESIAN_POINT ( 'NONE',  ( 0.3125000000000000000, -1.003451736783519379E-14, -2.249000000000000110 ) ) ;
#296 = EDGE_CURVE ( 'NONE', #248, #14, #170, .T. ) ;
#297 = DIRECTION ( 'NONE',  ( -2.445468806185136597E-29, 3.491481338843145583E-15, 1.000000000000000000 ) ) ;
#298 = DIRECTION ( 'NONE',  ( -2.445468806185136597E-29, 3.491481338843145583E-15, 1.000000000000000000 ) ) ;
#299 = ORIENTED_EDGE ( 'NONE', *, *, #131, .F. ) ;
#300 = ORIENTED_EDGE ( 'NONE', *, *, #296, .T. ) ;
#301 = APPROVAL_STATUS ( 'not_yet_approved' ) ;
#302 = SECURITY_CLASSIFICATION ( '', '', #199 ) ;
#303 = LINE ( 'NONE', #65, #100 ) ;
#304 = FACE_OUTER_BOUND ( 'NONE', #244, .T. ) ;
#305 = PERSON_AND_ORGANIZATION ( #94, #114 ) ;
#306 = ORIENTED_EDGE ( 'NONE', *, *, #233, .F. ) ;
#307 = EDGE_CURVE ( 'NONE', #241, #188, #338, .T. ) ;
#308 = DATE_AND_TIME ( #23, #355 ) ;
#309 = DIRECTION ( 'NONE',  ( -2.445468806185136877E-29, 3.491481338843145188E-15, 1.000000000000000000 ) ) ;
#310 = AXIS2_PLACEMENT_3D ( 'NONE', #35, #191, #156 ) ;
#311 = AXIS2_PLACEMENT_3D ( 'NONE', #293, #59, #180 ) ;
#312 = ADVANCED_FACE ( 'NONE', ( #203 ), #282, .T. ) ;
#313 = AXIS2_PLACEMENT_3D ( 'NONE', #43, #70, #183 ) ;
#314 = DIRECTION ( 'NONE',  ( 0.7071067811865232589, -2.468850131082003836E-15, 0.7071067811865715536 ) ) ;
#315 = EDGE_CURVE ( 'NONE', #241, #126, #21, .T. ) ;
#316 = CARTESIAN_POINT ( 'NONE',  ( 5.502304813916558464E-29, -7.855833012397078448E-15, -2.250000000000000444 ) ) ;
#317 = CARTESIAN_POINT ( 'NONE',  ( -0.3114999999999999991, -5.637193936156144762E-15, -2.250000000000000444 ) ) ;
#318 = CYLINDRICAL_SURFACE ( 'NONE', #311, 0.3125000000000000000 ) ;
#319 = AXIS2_PLACEMENT_3D ( 'NONE', #78, #332, #362 ) ;
#320 = EDGE_LOOP ( 'NONE', ( #204, #273 ) ) ;
#321 = EDGE_LOOP ( 'NONE', ( #27, #357, #306, #124 ) ) ;
#322 = DIRECTION ( 'NONE',  ( 1.000000000000000000, -6.982962677686265922E-15, 0.000000000000000000 ) ) ;
#323 = CARTESIAN_POINT ( 'NONE',  ( -0.3124999999999998890, 2.220446049250312292E-15, -1.537167215704657391E-29 ) ) ;
#324 = VERTEX_POINT ( 'NONE', #167 ) ;
#325 = CARTESIAN_POINT ( 'NONE',  ( 5.502304813916558464E-29, -7.855833012397078448E-15, -2.250000000000000444 ) ) ;
#326 = PERSON_AND_ORGANIZATION_ROLE ( 'classification_officer' ) ;
#327 = APPROVAL_PERSON_ORGANIZATION ( #99, #353, #16 ) ;
#328 = CYLINDRICAL_SURFACE ( 'NONE', #152, 0.3124999999999998890 ) ;
#329 = APPROVAL_DATE_TIME ( #104, #198 ) ;
#330 = EDGE_LOOP ( 'NONE', ( #96, #75 ) ) ;
#331 = MANIFOLD_SOLID_BREP ( 'Body-Move/Copy2[2]', #130 ) ;
#332 = DIRECTION ( 'NONE',  ( 0.000000000000000000, 0.000000000000000000, 1.000000000000000000 ) ) ;
#333 = AXIS2_PLACEMENT_3D ( 'NONE', #98, #249, #354 ) ;
#334 = ADVANCED_FACE ( 'NONE', ( #25 ), #139, .F. ) ;
#335 = LINE ( 'NONE', #283, #340 ) ;
#336 = CC_DESIGN_SECURITY_CLASSIFICATION ( #302, ( #123 ) ) ;
#337 = EDGE_CURVE ( 'NONE', #73, #270, #31, .T. ) ;
#338 = LINE ( 'NONE', #4, #29 ) ;
#339 = DIRECTION ( 'NONE',  ( -2.445468806185136597E-29, 3.491481338843145583E-15, 1.000000000000000000 ) ) ;
#340 = VECTOR ( 'NONE', #314, 39.37007874015748854 ) ;
#341 = ADVANCED_FACE ( 'NONE', ( #86 ), #318, .T. ) ;
#342 = LOCAL_TIME ( 11, 58, 26.00000000000000000, #192 ) ;
#343 = DIRECTION ( 'NONE',  ( -2.445468806185136877E-29, 3.491481338843145188E-15, 1.000000000000000000 ) ) ;
#344 = ORIENTED_EDGE ( 'NONE', *, *, #131, .T. ) ;
#345 = CARTESIAN_POINT ( 'NONE',  ( 5.502304813916558464E-29, -7.855833012397078448E-15, -2.250000000000000444 ) ) ;
#346 = PRODUCT_RELATED_PRODUCT_CATEGORY ( 'detail', '', ( #205 ) ) ;
#347 = DIRECTION ( 'NONE',  ( -1.000000000000000000, 6.982962677686265922E-15, -4.876176775795935793E-29 ) ) ;
#348 = CARTESIAN_POINT ( 'NONE',  ( 2.182175836777013173E-15, 0.3124999999999921729, -2.250000000000001332 ) ) ;
#349 = ORIENTED_EDGE ( 'NONE', *, *, #279, .F. ) ;
#350 = CARTESIAN_POINT ( 'NONE',  ( -0.3125000000000000000, -6.944692465212945109E-15, -3.000000000000000444 ) ) ;
#351 = PLANE ( 'NONE',  #173 ) ;
#352 = PERSON_AND_ORGANIZATION ( #94, #114 ) ;
#353 = APPROVAL ( #272, 'UNSPECIFIED' ) ;
#354 = DIRECTION ( 'NONE',  ( -1.000000000000000000, 6.982962677686266711E-15, 0.000000000000000000 ) ) ;
#355 = LOCAL_TIME ( 11, 58, 26.00000000000000000, #44 ) ;
#356 = ORIENTED_EDGE ( 'NONE', *, *, #366, .T. ) ;
#357 = ORIENTED_EDGE ( 'NONE', *, *, #60, .T. ) ;
#358 = COORDINATED_UNIVERSAL_TIME_OFFSET ( 5, 0, .BEHIND. ) ;
#359 = APPLICATION_CONTEXT ( 'configuration controlled 3d designs of mechanical parts and assemblies' ) ;
#360 = ADVANCED_FACE ( 'NONE', ( #291 ), #63, .T. ) ;
#361 = DIMENSIONAL_EXPONENTS ( 1.000000000000000000, 0.000000000000000000, 0.000000000000000000, 0.000000000000000000, 0.000000000000000000, 0.000000000000000000, 0.000000000000000000 ) ;
#362 = DIRECTION ( 'NONE',  ( 1.000000000000000000, 0.000000000000000000, 0.000000000000000000 ) ) ;
#363 = AXIS2_PLACEMENT_3D ( 'NONE', #9, #179, #125 ) ;
#364 = DIRECTION ( 'NONE',  ( 1.000000000000000000, -6.982962677686265133E-15, 0.000000000000000000 ) ) ;
#365 = DIRECTION ( 'NONE',  ( 1.000000000000000000, -6.982962677686269077E-15, 0.000000000000000000 ) ) ;
#366 = EDGE_CURVE ( 'NONE', #324, #163, #62, .T. ) ;
ENDSEC;
END-ISO-10303-21;
