ISO-10303-21;
HEADER;
FILE_DESCRIPTION (( 'STEP AP203' ),
    '1' );
FILE_NAME ('34726.STEP',
    '2024-02-27T17:08:51',
    ( '' ),
    ( '' ),
    'SwSTEP 2.0',
    'SolidWorks 2023',
    '' );
FILE_SCHEMA (( 'CONFIG_CONTROL_DESIGN' ));
ENDSEC;

DATA;
#1 = CARTESIAN_POINT ( 'NONE',  ( -0.5000000000000000000, -1.281360509702674426E-14, -6.000000000000000888 ) ) ;
#2 = LINE ( 'NONE', #177, #135 ) ;
#3 = DIRECTION ( 'NONE',  ( 1.000000000000000000, -6.982962677686266711E-15, 0.000000000000000000 ) ) ;
#4 = DIRECTION ( 'NONE',  ( 1.000000000000000000, -6.982962677686266711E-15, 4.876176775795935793E-29 ) ) ;
#5 = DIRECTION ( 'NONE',  ( -2.445468806185136597E-29, 3.491481338843145583E-15, 1.000000000000000000 ) ) ;
#6 = CC_DESIGN_PERSON_AND_ORGANIZATION_ASSIGNMENT ( #84, #364, ( #350 ) ) ;
#7 = DIRECTION ( 'NONE',  ( -2.445468806185136597E-29, 3.491481338843145583E-15, 1.000000000000000000 ) ) ;
#8 = LINE ( 'NONE', #151, #305 ) ;
#9 = CARTESIAN_POINT ( 'NONE',  ( 0.4999999999999996114, -3.500078625662626318E-15, -0.02000000000000010797 ) ) ;
#10 = CARTESIAN_POINT ( 'NONE',  ( 8.253457220874836014E-29, -1.178374951859561452E-14, -3.375000000000000000 ) ) ;
#11 = CIRCLE ( 'NONE', #224, 0.5000000000000000000 ) ;
#12 = SECURITY_CLASSIFICATION ( '', '', #49 ) ;
#13 = CARTESIAN_POINT ( 'NONE',  ( 0.5000000000000000000, -1.527523085743875103E-14, -3.375000000000000444 ) ) ;
#14 = EDGE_LOOP ( 'NONE', ( #23, #251 ) ) ;
#15 = ADVANCED_FACE ( 'NONE', ( #301 ), #48, .F. ) ;
#16 = PERSON_AND_ORGANIZATION_ROLE ( 'classification_officer' ) ;
#17 = LENGTH_MEASURE_WITH_UNIT ( LENGTH_MEASURE( 0.02539999999999999897 ), #70 );
#18 = VERTEX_POINT ( 'NONE', #146 ) ;
#19 = VECTOR ( 'NONE', #123, 39.37007874015748143 ) ;
#20 = APPROVAL_PERSON_ORGANIZATION ( #79, #189, #304 ) ;
#21 = ADVANCED_FACE ( 'NONE', ( #60 ), #208, .T. ) ;
#22 = PERSON_AND_ORGANIZATION ( #51, #38 ) ;
#23 = ORIENTED_EDGE ( 'NONE', *, *, #254, .F. ) ;
#24 = CALENDAR_DATE ( 2024, 27, 2 ) ;
#25 = ORIENTED_EDGE ( 'NONE', *, *, #86, .T. ) ;
#26 = ORIENTED_EDGE ( 'NONE', *, *, #186, .F. ) ;
#27 = AXIS2_PLACEMENT_3D ( 'NONE', #266, #296, #178 ) ;
#28 = ORIENTED_EDGE ( 'NONE', *, *, #194, .T. ) ;
#29 = ADVANCED_FACE ( 'NONE', ( #172 ), #282, .T. ) ;
#30 = CARTESIAN_POINT ( 'NONE',  ( 8.253457220874836014E-29, -1.178374951859561452E-14, -3.375000000000000000 ) ) ;
#31 = DIRECTION ( 'NONE',  ( -1.000000000000000000, 6.982962677686266711E-15, 0.000000000000000000 ) ) ;
#32 = ADVANCED_FACE ( 'NONE', ( #193 ), #199, .F. ) ;
#33 = CYLINDRICAL_SURFACE ( 'NONE', #27, 0.5000000000000000000 ) ;
#34 = AXIS2_PLACEMENT_3D ( 'NONE', #10, #237, #241 ) ;
#35 = CARTESIAN_POINT ( 'NONE',  ( 3.491481338843215397E-15, 0.4999999999999881761, -3.375000000000002220 ) ) ;
#36 = CARTESIAN_POINT ( 'NONE',  ( -0.4999999999999996114, 3.421651712066267296E-15, -0.02000000000000010797 ) ) ;
#37 = DIRECTION ( 'NONE',  ( 1.000000000000000000, -6.982962677686266711E-15, 0.000000000000000000 ) ) ;
#38 = ORGANIZATION ( 'UNSPECIFIED', 'UNSPECIFIED', '' ) ;
#39 = DIRECTION ( 'NONE',  ( 1.000000000000000000, -6.982962677686266711E-15, 0.000000000000000000 ) ) ;
#40 = ADVANCED_FACE ( 'NONE', ( #230 ), #357, .T. ) ;
#41 = DIRECTION ( 'NONE',  ( -2.445468806185136597E-29, 3.491481338843145583E-15, 1.000000000000000000 ) ) ;
#42 = DIRECTION ( 'NONE',  ( -2.445468806185136597E-29, 3.491481338843145583E-15, 1.000000000000000000 ) ) ;
#43 = EDGE_CURVE ( 'NONE', #55, #336, #235, .T. ) ;
#44 = VECTOR ( 'NONE', #292, 39.37007874015748143 ) ;
#45 = VECTOR ( 'NONE', #153, 39.37007874015748854 ) ;
#46 = DATE_AND_TIME ( #329, #337 ) ;
#47 = PERSON_AND_ORGANIZATION_ROLE ( 'design_supplier' ) ;
#48 = PLANE ( 'NONE',  #246 ) ;
#49 = SECURITY_CLASSIFICATION_LEVEL ( 'unclassified' ) ;
#50 = ORIENTED_EDGE ( 'NONE', *, *, #322, .F. ) ;
#51 = PERSON ( 'UNSPECIFIED', 'UNSPECIFIED', 'UNSPECIFIED', ('UNSPECIFIED'), ('UNSPECIFIED'), ('UNSPECIFIED') ) ;
#52 = AXIS2_PLACEMENT_3D ( 'NONE', #61, #63, #31 ) ;
#53 = COORDINATED_UNIVERSAL_TIME_OFFSET ( 5, 0, .BEHIND. ) ;
#54 = EDGE_LOOP ( 'NONE', ( #140, #131, #309, #333 ) ) ;
#55 = VERTEX_POINT ( 'NONE', #341 ) ;
#56 = ORIENTED_EDGE ( 'NONE', *, *, #133, .F. ) ;
#57 = EDGE_CURVE ( 'NONE', #166, #118, #344, .T. ) ;
#58 = AXIS2_PLACEMENT_3D ( 'NONE', #340, #255, #65 ) ;
#59 = DIRECTION ( 'NONE',  ( 1.000000000000000000, -6.982962677686265922E-15, 4.876176775795935793E-29 ) ) ;
#60 = FACE_OUTER_BOUND ( 'NONE', #242, .T. ) ;
#61 = CARTESIAN_POINT ( 'NONE',  ( 4.890937612370299433E-31, -6.982962677686328587E-17, -0.02000000000000010797 ) ) ;
#62 = CC_DESIGN_PERSON_AND_ORGANIZATION_ASSIGNMENT ( #361, #191, ( #300 ) ) ;
#63 = DIRECTION ( 'NONE',  ( 2.445468806185136597E-29, -3.491481338843145583E-15, -1.000000000000000000 ) ) ;
#64 = CIRCLE ( 'NONE', #267, 0.4799999999999995937 ) ;
#65 = DIRECTION ( 'NONE',  ( 1.000000000000000000, -6.982962677686266711E-15, 4.876176775795935793E-29 ) ) ;
#66 = DIRECTION ( 'NONE',  ( 1.000000000000000000, -6.982962677686266711E-15, 4.876176775795935793E-29 ) ) ;
#67 = ADVANCED_FACE ( 'NONE', ( #92 ), #150, .F. ) ;
#68 = FACE_OUTER_BOUND ( 'NONE', #366, .T. ) ;
#69 = AXIS2_PLACEMENT_3D ( 'NONE', #243, #42, #318 ) ;
#70 =( LENGTH_UNIT ( ) NAMED_UNIT ( * ) SI_UNIT ( $, .METRE. ) );
#71 = DIRECTION ( 'NONE',  ( 1.000000000000000000, -6.982962677686266711E-15, 0.000000000000000000 ) ) ;
#72 = EDGE_CURVE ( 'NONE', #227, #249, #2, .T. ) ;
#73 = DIRECTION ( 'NONE',  ( 1.000000000000000000, -6.982962677686266711E-15, 0.000000000000000000 ) ) ;
#74 = CIRCLE ( 'NONE', #69, 0.5000000000000000000 ) ;
#75 = CIRCLE ( 'NONE', #204, 0.4989999999999999991 ) ;
#76 = LOCAL_TIME ( 12, 8, 51.00000000000000000, #77 ) ;
#77 = COORDINATED_UNIVERSAL_TIME_OFFSET ( 5, 0, .BEHIND. ) ;
#78 = ORIENTED_EDGE ( 'NONE', *, *, #57, .F. ) ;
#79 = PERSON_AND_ORGANIZATION ( #51, #38 ) ;
#80 = ORIENTED_EDGE ( 'NONE', *, *, #280, .T. ) ;
#81 = APPROVAL_DATE_TIME ( #219, #221 ) ;
#82 = ORIENTED_EDGE ( 'NONE', *, *, #43, .F. ) ;
#83 = CONICAL_SURFACE ( 'NONE', #52, 0.4999999999999996114, 0.7853981633974450594 ) ;
#84 = PERSON_AND_ORGANIZATION ( #51, #38 ) ;
#85 = ORIENTED_EDGE ( 'NONE', *, *, #141, .T. ) ;
#86 = EDGE_CURVE ( 'NONE', #134, #227, #11, .T. ) ;
#87 = PERSON_AND_ORGANIZATION ( #51, #38 ) ;
#88 = ORIENTED_EDGE ( 'NONE', *, *, #194, .F. ) ;
#89 = DIRECTION ( 'NONE',  ( 2.445468806185136597E-29, -3.491481338843145583E-15, -1.000000000000000000 ) ) ;
#90 = CARTESIAN_POINT ( 'NONE',  ( -0.4999999999999996114, 3.421651712066267296E-15, -0.02000000000000010797 ) ) ;
#91 = DIRECTION ( 'NONE',  ( 1.000000000000000000, -6.982962677686262766E-15, 0.000000000000000000 ) ) ;
#92 = FACE_OUTER_BOUND ( 'NONE', #170, .T. ) ;
#93 = APPLICATION_CONTEXT ( 'configuration controlled 3d designs of mechanical parts and assemblies' ) ;
#94 = CARTESIAN_POINT ( 'NONE',  ( 8.253457220874837135E-29, -1.178374951859561767E-14, -3.375000000000000444 ) ) ;
#95 = AXIS2_PLACEMENT_3D ( 'NONE', #352, #179, #37 ) ;
#96 =( GEOMETRIC_REPRESENTATION_CONTEXT ( 3 ) GLOBAL_UNCERTAINTY_ASSIGNED_CONTEXT ( ( #313 ) ) GLOBAL_UNIT_ASSIGNED_CONTEXT ( ( #162, #139, #245 ) ) REPRESENTATION_CONTEXT ( 'NONE', 'WORKASPACE' ) );
#97 = EDGE_CURVE ( 'NONE', #281, #118, #120, .T. ) ;
#98 = LINE ( 'NONE', #156, #45 ) ;
#99 = CARTESIAN_POINT ( 'NONE',  ( 4.890937612370299433E-31, -6.982962677686328587E-17, -0.02000000000000010797 ) ) ;
#100 = MANIFOLD_SOLID_BREP ( 'Body-Move/Copy2[2]', #102 ) ;
#101 = CARTESIAN_POINT ( 'NONE',  ( 0.5000000000000000000, -2.444036937190200606E-14, -6.000000000000000888 ) ) ;
#102 = CLOSED_SHELL ( 'NONE', ( #40, #29, #115, #21, #334, #212, #15, #67 ) ) ;
#103 = AXIS2_PLACEMENT_3D ( 'NONE', #160, #113, #276 ) ;
#104 = DIRECTION ( 'NONE',  ( 1.000000000000000000, -6.982962677686265133E-15, 0.000000000000000000 ) ) ;
#105 = DIRECTION ( 'NONE',  ( -0.7071067811868130271, 7.493145998871311837E-15, 0.7071067811862817853 ) ) ;
#106 = APPROVAL_STATUS ( 'not_yet_approved' ) ;
#107 = ORIENTED_EDGE ( 'NONE', *, *, #234, .T. ) ;
#108 = CIRCLE ( 'NONE', #323, 0.4999999999999996114 ) ;
#109 = PERSON_AND_ORGANIZATION ( #51, #38 ) ;
#110 = VERTEX_POINT ( 'NONE', #197 ) ;
#111 = APPLICATION_PROTOCOL_DEFINITION ( 'international standard', 'config_control_design', 1994, #218 ) ;
#112 = EDGE_LOOP ( 'NONE', ( #56, #25, #277, #328 ) ) ;
#113 = DIRECTION ( 'NONE',  ( 0.000000000000000000, 0.000000000000000000, 1.000000000000000000 ) ) ;
#114 = ORIENTED_EDGE ( 'NONE', *, *, #186, .T. ) ;
#115 = ADVANCED_FACE ( 'NONE', ( #311 ), #83, .T. ) ;
#116 = CIRCLE ( 'NONE', #274, 0.5000000000000000000 ) ;
#117 = COORDINATED_UNIVERSAL_TIME_OFFSET ( 5, 0, .BEHIND. ) ;
#118 = VERTEX_POINT ( 'NONE', #36 ) ;
#119 = CC_DESIGN_DATE_AND_TIME_ASSIGNMENT ( #278, #338, ( #350 ) ) ;
#120 = LINE ( 'NONE', #228, #195 ) ;
#121 = DIRECTION ( 'NONE',  ( 0.7071067811865452413, -7.319954787623248157E-15, -0.7071067811865497932 ) ) ;
#122 = FACE_OUTER_BOUND ( 'NONE', #112, .T. ) ;
#123 = DIRECTION ( 'NONE',  ( -0.7071067811865452413, 2.468850131082233000E-15, -0.7071067811865497932 ) ) ;
#124 = DIRECTION ( 'NONE',  ( 1.000000000000000000, -6.982962677686266711E-15, 4.876036955247133327E-29 ) ) ;
#125 = DIRECTION ( 'NONE',  ( -2.445468806185136597E-29, 3.491481338843145583E-15, 1.000000000000000000 ) ) ;
#126 = CC_DESIGN_PERSON_AND_ORGANIZATION_ASSIGNMENT ( #87, #302, ( #299 ) ) ;
#127 = DIRECTION ( 'NONE',  ( 1.000000000000000000, -6.982962677686266711E-15, 4.876036955247133327E-29 ) ) ;
#128 = CARTESIAN_POINT ( 'NONE',  ( 3.491481338843279295E-15, 0.4999999999999790168, -6.000000000000002665 ) ) ;
#129 = LINE ( 'NONE', #321, #44 ) ;
#130 = CARTESIAN_POINT ( 'NONE',  ( 1.467281283711081958E-28, -2.094888803305887271E-14, -6.000000000000000888 ) ) ;
#131 = ORIENTED_EDGE ( 'NONE', *, *, #97, .T. ) ;
#132 = DATE_AND_TIME ( #24, #225 ) ;
#133 = EDGE_CURVE ( 'NONE', #134, #339, #283, .T. ) ;
#134 = VERTEX_POINT ( 'NONE', #1 ) ;
#135 = VECTOR ( 'NONE', #312, 39.37007874015748143 ) ;
#136 = CALENDAR_DATE ( 2024, 27, 2 ) ;
#137 = EDGE_LOOP ( 'NONE', ( #223, #114, #188, #362 ) ) ;
#138 = ORIENTED_EDGE ( 'NONE', *, *, #200, .T. ) ;
#139 =( NAMED_UNIT ( * ) PLANE_ANGLE_UNIT ( ) SI_UNIT ( $, .RADIAN. ) );
#140 = ORIENTED_EDGE ( 'NONE', *, *, #182, .T. ) ;
#141 = EDGE_CURVE ( 'NONE', #55, #166, #64, .T. ) ;
#142 = AXIS2_PLACEMENT_3D ( 'NONE', #35, #176, #310 ) ;
#143 = LOCAL_TIME ( 12, 8, 51.00000000000000000, #117 ) ;
#144 = EDGE_LOOP ( 'NONE', ( #28, #138, #363, #169 ) ) ;
#145 = CARTESIAN_POINT ( 'NONE',  ( 0.4999999999999996114, -3.500078625662626318E-15, -0.02000000000000010797 ) ) ;
#146 = CARTESIAN_POINT ( 'NONE',  ( 0.4989999999999999991, -1.526824789476106186E-14, -3.375000000000000000 ) ) ;
#147 = AXIS2_PLACEMENT_3D ( 'NONE', #99, #289, #73 ) ;
#148 = AXIS2_PLACEMENT_3D ( 'NONE', #128, #264, #239 ) ;
#149 = DIRECTION ( 'NONE',  ( -2.445468806185136597E-29, 3.491481338843145583E-15, 1.000000000000000000 ) ) ;
#150 = PLANE ( 'NONE',  #215 ) ;
#151 = CARTESIAN_POINT ( 'NONE',  ( -0.4989999999999999991, -8.238141267152715385E-15, -3.375000000000000000 ) ) ;
#152 = CIRCLE ( 'NONE', #34, 0.4989999999999999991 ) ;
#153 = DIRECTION ( 'NONE',  ( 0.7071067811868130271, -2.468850131085038979E-15, 0.7071067811862817853 ) ) ;
#154 = EDGE_CURVE ( 'NONE', #339, #249, #258, .T. ) ;
#155 = CYLINDRICAL_SURFACE ( 'NONE', #359, 0.4999999999999997780 ) ;
#156 = CARTESIAN_POINT ( 'NONE',  ( 0.4989999999999999991, -1.526824789476106186E-14, -3.375000000000000000 ) ) ;
#157 = CARTESIAN_POINT ( 'NONE',  ( 8.251011752068652653E-29, -1.178025803725677624E-14, -3.374000000000000554 ) ) ;
#158 = AXIS2_PLACEMENT_3D ( 'NONE', #354, #7, #325 ) ;
#159 = ADVANCED_FACE ( 'NONE', ( #122 ), #317, .T. ) ;
#160 = CARTESIAN_POINT ( 'NONE',  ( 0.000000000000000000, 0.000000000000000000, 0.000000000000000000 ) ) ;
#161 = CARTESIAN_POINT ( 'NONE',  ( 8.253457220874836014E-29, -1.178374951859561452E-14, -3.375000000000000000 ) ) ;
#162 =( CONVERSION_BASED_UNIT ( 'INCH', #17 ) LENGTH_UNIT ( ) NAMED_UNIT ( #319 ) );
#163 = ORIENTED_EDGE ( 'NONE', *, *, #316, .T. ) ;
#164 = ADVANCED_FACE ( 'NONE', ( #174 ), #33, .T. ) ;
#165 = APPROVAL_STATUS ( 'not_yet_approved' ) ;
#166 = VERTEX_POINT ( 'NONE', #349 ) ;
#167 = PRODUCT_DEFINITION_SHAPE ( 'NONE', 'NONE',  #350 ) ;
#168 = APPROVAL_DATE_TIME ( #46, #284 ) ;
#169 = ORIENTED_EDGE ( 'NONE', *, *, #327, .F. ) ;
#170 = EDGE_LOOP ( 'NONE', ( #80, #85 ) ) ;
#171 = APPROVAL_PERSON_ORGANIZATION ( #109, #284, #270 ) ;
#172 = FACE_OUTER_BOUND ( 'NONE', #54, .T. ) ;
#173 = CARTESIAN_POINT ( 'NONE',  ( 4.890937612370299433E-31, -6.982962677686328587E-17, -0.02000000000000010797 ) ) ;
#174 = FACE_OUTER_BOUND ( 'NONE', #192, .T. ) ;
#175 = VECTOR ( 'NONE', #121, 39.37007874015748143 ) ;
#176 = DIRECTION ( 'NONE',  ( 2.438088387897960049E-29, -3.491481338843145188E-15, -1.000000000000000000 ) ) ;
#177 = CARTESIAN_POINT ( 'NONE',  ( 0.5000000000000000000, -3.491481338843133355E-15, 2.438088387897967896E-29 ) ) ;
#178 = DIRECTION ( 'NONE',  ( 1.000000000000000000, -6.982962677686266711E-15, 4.876176775795935793E-29 ) ) ;
#179 = DIRECTION ( 'NONE',  ( -2.445468806185136597E-29, 3.491481338843145583E-15, 1.000000000000000000 ) ) ;
#180 = PLANE ( 'NONE',  #148 ) ;
#181 = CARTESIAN_POINT ( 'NONE',  ( 4.890937612370299433E-31, -6.982962677686328587E-17, -0.02000000000000010797 ) ) ;
#182 = EDGE_CURVE ( 'NONE', #110, #281, #74, .T. ) ;
#183 = EDGE_LOOP ( 'NONE', ( #88, #50 ) ) ;
#184 = DATE_AND_TIME ( #226, #143 ) ;
#185 = ORIENTED_EDGE ( 'NONE', *, *, #280, .F. ) ;
#186 = EDGE_CURVE ( 'NONE', #281, #110, #116, .T. ) ;
#187 = MECHANICAL_CONTEXT ( 'NONE', #218, 'mechanical' ) ;
#188 = ORIENTED_EDGE ( 'NONE', *, *, #293, .T. ) ;
#189 = APPROVAL ( #165, 'UNSPECIFIED' ) ;
#190 = ORIENTED_EDGE ( 'NONE', *, *, #322, .T. ) ;
#191 = PERSON_AND_ORGANIZATION_ROLE ( 'design_owner' ) ;
#192 = EDGE_LOOP ( 'NONE', ( #216, #252, #247, #360 ) ) ;
#193 = FACE_OUTER_BOUND ( 'NONE', #303, .T. ) ;
#194 = EDGE_CURVE ( 'NONE', #18, #220, #152, .T. ) ;
#195 = VECTOR ( 'NONE', #285, 39.37007874015748143 ) ;
#196 = LOCAL_TIME ( 12, 8, 51.00000000000000000, #326 ) ;
#197 = CARTESIAN_POINT ( 'NONE',  ( 0.5000000000000000000, -1.527173937609990960E-14, -3.374000000000000554 ) ) ;
#198 = ADVANCED_BREP_SHAPE_REPRESENTATION ( '34726', ( #330, #100, #103 ), #96 ) ;
#199 = PLANE ( 'NONE',  #142 ) ;
#200 = EDGE_CURVE ( 'NONE', #220, #281, #8, .T. ) ;
#201 = DIRECTION ( 'NONE',  ( 2.438088387897960049E-29, -3.491481338843145188E-15, -1.000000000000000000 ) ) ;
#202 = EDGE_CURVE ( 'NONE', #336, #118, #315, .T. ) ;
#203 = AXIS2_PLACEMENT_3D ( 'NONE', #268, #238, #127 ) ;
#204 = AXIS2_PLACEMENT_3D ( 'NONE', #213, #348, #104 ) ;
#205 = DIRECTION ( 'NONE',  ( -2.445468806185136597E-29, 3.491481338843145583E-15, 1.000000000000000000 ) ) ;
#206 = DIRECTION ( 'NONE',  ( -2.445468806185136597E-29, 3.491481338843145583E-15, 1.000000000000000000 ) ) ;
#207 = DIRECTION ( 'NONE',  ( -2.445468806185136597E-29, 3.491481338843145583E-15, 1.000000000000000000 ) ) ;
#208 = CONICAL_SURFACE ( 'NONE', #240, 0.4999999999999996114, 0.7853981633974450594 ) ;
#209 = FACE_OUTER_BOUND ( 'NONE', #14, .T. ) ;
#210 = CC_DESIGN_APPROVAL ( #221, ( #12 ) ) ;
#211 = FACE_OUTER_BOUND ( 'NONE', #137, .T. ) ;
#212 = ADVANCED_FACE ( 'NONE', ( #68 ), #263, .T. ) ;
#213 = CARTESIAN_POINT ( 'NONE',  ( 8.253457220874836014E-29, -1.178374951859561452E-14, -3.375000000000000000 ) ) ;
#214 = APPROVAL_ROLE ( '' ) ;
#215 = AXIS2_PLACEMENT_3D ( 'NONE', #256, #201, #260 ) ;
#216 = ORIENTED_EDGE ( 'NONE', *, *, #254, .T. ) ;
#217 = EDGE_LOOP ( 'NONE', ( #353, #331, #306, #78 ) ) ;
#218 = APPLICATION_CONTEXT ( 'configuration controlled 3d designs of mechanical parts and assemblies' ) ;
#219 = DATE_AND_TIME ( #136, #196 ) ;
#220 = VERTEX_POINT ( 'NONE', #262 ) ;
#221 = APPROVAL ( #106, 'UNSPECIFIED' ) ;
#222 = APPROVAL_STATUS ( 'not_yet_approved' ) ;
#223 = ORIENTED_EDGE ( 'NONE', *, *, #97, .F. ) ;
#224 = AXIS2_PLACEMENT_3D ( 'NONE', #288, #314, #91 ) ;
#225 = LOCAL_TIME ( 12, 8, 51.00000000000000000, #53 ) ;
#226 = CALENDAR_DATE ( 2024, 27, 2 ) ;
#227 = VERTEX_POINT ( 'NONE', #101 ) ;
#228 = CARTESIAN_POINT ( 'NONE',  ( -0.4999999999999997780, 3.552713678800499352E-15, -2.459467545127452050E-29 ) ) ;
#229 = DESIGN_CONTEXT ( 'detailed design', #93, 'design' ) ;
#230 = FACE_OUTER_BOUND ( 'NONE', #144, .T. ) ;
#231 = AXIS2_PLACEMENT_3D ( 'NONE', #94, #342, #3 ) ;
#232 = SHAPE_DEFINITION_REPRESENTATION ( #167, #198 ) ;
#233 = DIRECTION ( 'NONE',  ( -1.000000000000000000, 6.982962677686266711E-15, 0.000000000000000000 ) ) ;
#234 = EDGE_CURVE ( 'NONE', #118, #336, #108, .T. ) ;
#235 = LINE ( 'NONE', #145, #175 ) ;
#236 = DIRECTION ( 'NONE',  ( 1.000000000000000000, -6.982962677686265133E-15, 0.000000000000000000 ) ) ;
#237 = DIRECTION ( 'NONE',  ( -2.445468806185136597E-29, 3.491481338843145583E-15, 1.000000000000000000 ) ) ;
#238 = DIRECTION ( 'NONE',  ( -2.445468806185136597E-29, 3.491481338843145583E-15, 1.000000000000000000 ) ) ;
#239 = DIRECTION ( 'NONE',  ( -1.000000000000000000, 6.982962677686265922E-15, -4.876176775795935793E-29 ) ) ;
#240 = AXIS2_PLACEMENT_3D ( 'NONE', #173, #89, #233 ) ;
#241 = DIRECTION ( 'NONE',  ( 1.000000000000000000, -6.982962677686265133E-15, 0.000000000000000000 ) ) ;
#242 = EDGE_LOOP ( 'NONE', ( #82, #185, #275, #107 ) ) ;
#243 = CARTESIAN_POINT ( 'NONE',  ( 8.251011752068652653E-29, -1.178025803725677624E-14, -3.374000000000000554 ) ) ;
#244 = APPROVAL_DATE_TIME ( #184, #189 ) ;
#245 =( NAMED_UNIT ( * ) SI_UNIT ( $, .STERADIAN. ) SOLID_ANGLE_UNIT ( ) );
#246 = AXIS2_PLACEMENT_3D ( 'NONE', #161, #272, #59 ) ;
#247 = ORIENTED_EDGE ( 'NONE', *, *, #316, .F. ) ;
#248 = CC_DESIGN_SECURITY_CLASSIFICATION ( #12, ( #299 ) ) ;
#249 = VERTEX_POINT ( 'NONE', #13 ) ;
#250 = CALENDAR_DATE ( 2024, 27, 2 ) ;
#251 = ORIENTED_EDGE ( 'NONE', *, *, #86, .F. ) ;
#252 = ORIENTED_EDGE ( 'NONE', *, *, #133, .T. ) ;
#253 = CIRCLE ( 'NONE', #95, 0.5000000000000000000 ) ;
#254 = EDGE_CURVE ( 'NONE', #227, #134, #345, .T. ) ;
#255 = DIRECTION ( 'NONE',  ( -2.445468806185136597E-29, 3.491481338843145583E-15, 1.000000000000000000 ) ) ;
#256 = CARTESIAN_POINT ( 'NONE',  ( 3.351822085289404787E-15, 0.4799999999999995937, -1.669508273909557867E-15 ) ) ;
#257 = DIRECTION ( 'NONE',  ( -2.445468806185136877E-29, 3.491481338843145188E-15, 1.000000000000000000 ) ) ;
#258 = CIRCLE ( 'NONE', #231, 0.5000000000000000000 ) ;
#259 = APPROVAL_PERSON_ORGANIZATION ( #22, #221, #214 ) ;
#260 = DIRECTION ( 'NONE',  ( -1.000000000000000000, 6.982962677686265922E-15, -4.876176775795935793E-29 ) ) ;
#261 = CARTESIAN_POINT ( 'NONE',  ( -0.5000000000000000000, 3.552713678800500929E-15, -2.459467545127452891E-29 ) ) ;
#262 = CARTESIAN_POINT ( 'NONE',  ( -0.4989999999999999991, -8.232842812804494560E-15, -3.375000000000000000 ) ) ;
#263 = CONICAL_SURFACE ( 'NONE', #158, 0.4989999999999999991, 0.7853981633978239785 ) ;
#264 = DIRECTION ( 'NONE',  ( 2.438088387897960049E-29, -3.491481338843145188E-15, -1.000000000000000000 ) ) ;
#265 = CARTESIAN_POINT ( 'NONE',  ( 0.000000000000000000, 0.000000000000000000, 0.000000000000000000 ) ) ;
#266 = CARTESIAN_POINT ( 'NONE',  ( 0.000000000000000000, 0.000000000000000000, 0.000000000000000000 ) ) ;
#267 = AXIS2_PLACEMENT_3D ( 'NONE', #287, #5, #124 ) ;
#268 = CARTESIAN_POINT ( 'NONE',  ( -3.131554243005659264E-46, 4.471029511141341874E-32, 1.280553747030123384E-17 ) ) ;
#269 = CC_DESIGN_APPROVAL ( #284, ( #350 ) ) ;
#270 = APPROVAL_ROLE ( '' ) ;
#271 = PERSON_AND_ORGANIZATION ( #51, #38 ) ;
#272 = DIRECTION ( 'NONE',  ( -2.438088387897960049E-29, 3.491481338843145188E-15, 1.000000000000000000 ) ) ;
#273 = COORDINATED_UNIVERSAL_TIME_OFFSET ( 5, 0, .BEHIND. ) ;
#274 = AXIS2_PLACEMENT_3D ( 'NONE', #157, #41, #71 ) ;
#275 = ORIENTED_EDGE ( 'NONE', *, *, #57, .T. ) ;
#276 = DIRECTION ( 'NONE',  ( 1.000000000000000000, 0.000000000000000000, 0.000000000000000000 ) ) ;
#277 = ORIENTED_EDGE ( 'NONE', *, *, #72, .T. ) ;
#278 = DATE_AND_TIME ( #250, #76 ) ;
#279 = ORIENTED_EDGE ( 'NONE', *, *, #200, .F. ) ;
#280 = EDGE_CURVE ( 'NONE', #166, #55, #365, .T. ) ;
#281 = VERTEX_POINT ( 'NONE', #294 ) ;
#282 = CYLINDRICAL_SURFACE ( 'NONE', #291, 0.4999999999999997780 ) ;
#283 = LINE ( 'NONE', #261, #286 ) ;
#284 = APPROVAL ( #222, 'UNSPECIFIED' ) ;
#285 = DIRECTION ( 'NONE',  ( -2.445468806185136877E-29, 3.491481338843145188E-15, 1.000000000000000000 ) ) ;
#286 = VECTOR ( 'NONE', #257, 39.37007874015748143 ) ;
#287 = CARTESIAN_POINT ( 'NONE',  ( -3.131554243005659264E-46, 4.471029511141341874E-32, 1.280553747030123384E-17 ) ) ;
#288 = CARTESIAN_POINT ( 'NONE',  ( 1.467281283711081958E-28, -2.094888803305887271E-14, -6.000000000000000888 ) ) ;
#289 = DIRECTION ( 'NONE',  ( -2.445468806185136597E-29, 3.491481338843145583E-15, 1.000000000000000000 ) ) ;
#290 = PRODUCT_RELATED_PRODUCT_CATEGORY ( 'detail', '', ( #300 ) ) ;
#291 = AXIS2_PLACEMENT_3D ( 'NONE', #343, #149, #4 ) ;
#292 = DIRECTION ( 'NONE',  ( -2.445468806185136877E-29, 3.491481338843145188E-15, 1.000000000000000000 ) ) ;
#293 = EDGE_CURVE ( 'NONE', #110, #336, #129, .T. ) ;
#294 = CARTESIAN_POINT ( 'NONE',  ( -0.5000000000000000000, -2.372330153216316080E-15, -3.374000000000000554 ) ) ;
#295 = CC_DESIGN_PERSON_AND_ORGANIZATION_ASSIGNMENT ( #332, #47, ( #299 ) ) ;
#296 = DIRECTION ( 'NONE',  ( -2.445468806185136597E-29, 3.491481338843145583E-15, 1.000000000000000000 ) ) ;
#297 = AXIS2_PLACEMENT_3D ( 'NONE', #30, #205, #236 ) ;
#298 = DIRECTION ( 'NONE',  ( 1.000000000000000000, -6.982962677686262766E-15, 0.000000000000000000 ) ) ;
#299 = PRODUCT_DEFINITION_FORMATION_WITH_SPECIFIED_SOURCE ( 'ANY', '', #300, .NOT_KNOWN. ) ;
#300 = PRODUCT ( '34726', '34726', '', ( #187 ) ) ;
#301 = FACE_OUTER_BOUND ( 'NONE', #183, .T. ) ;
#302 = PERSON_AND_ORGANIZATION_ROLE ( 'creator' ) ;
#303 = EDGE_LOOP ( 'NONE', ( #163, #356 ) ) ;
#304 = APPROVAL_ROLE ( '' ) ;
#305 = VECTOR ( 'NONE', #105, 39.37007874015748854 ) ;
#306 = ORIENTED_EDGE ( 'NONE', *, *, #202, .T. ) ;
#307 = APPLICATION_PROTOCOL_DEFINITION ( 'international standard', 'config_control_design', 1994, #93 ) ;
#308 = ORIENTED_EDGE ( 'NONE', *, *, #327, .T. ) ;
#309 = ORIENTED_EDGE ( 'NONE', *, *, #202, .F. ) ;
#310 = DIRECTION ( 'NONE',  ( -1.000000000000000000, 6.982962677686265922E-15, -4.876176775795935793E-29 ) ) ;
#311 = FACE_OUTER_BOUND ( 'NONE', #217, .T. ) ;
#312 = DIRECTION ( 'NONE',  ( -2.445468806185136877E-29, 3.491481338843145188E-15, 1.000000000000000000 ) ) ;
#313 = UNCERTAINTY_MEASURE_WITH_UNIT (LENGTH_MEASURE( 1.000000000000000082E-05 ), #162, 'distance_accuracy_value', 'NONE');
#314 = DIRECTION ( 'NONE',  ( -2.445468806185136597E-29, 3.491481338843145583E-15, 1.000000000000000000 ) ) ;
#315 = CIRCLE ( 'NONE', #147, 0.4999999999999996114 ) ;
#316 = EDGE_CURVE ( 'NONE', #249, #339, #253, .T. ) ;
#317 = CYLINDRICAL_SURFACE ( 'NONE', #58, 0.5000000000000000000 ) ;
#318 = DIRECTION ( 'NONE',  ( 1.000000000000000000, -6.982962677686266711E-15, 0.000000000000000000 ) ) ;
#319 = DIMENSIONAL_EXPONENTS ( 1.000000000000000000, 0.000000000000000000, 0.000000000000000000, 0.000000000000000000, 0.000000000000000000, 0.000000000000000000, 0.000000000000000000 ) ;
#320 = CC_DESIGN_PERSON_AND_ORGANIZATION_ASSIGNMENT ( #271, #16, ( #12 ) ) ;
#321 = CARTESIAN_POINT ( 'NONE',  ( 0.4999999999999997780, -3.491481338843131778E-15, 2.438088387897966775E-29 ) ) ;
#322 = EDGE_CURVE ( 'NONE', #220, #18, #75, .T. ) ;
#323 = AXIS2_PLACEMENT_3D ( 'NONE', #181, #125, #39 ) ;
#324 = CARTESIAN_POINT ( 'NONE',  ( -0.5000000000000000000, -1.281360509702674426E-14, -3.375000000000000444 ) ) ;
#325 = DIRECTION ( 'NONE',  ( 1.000000000000000000, -6.982962677686265133E-15, 0.000000000000000000 ) ) ;
#326 = COORDINATED_UNIVERSAL_TIME_OFFSET ( 5, 0, .BEHIND. ) ;
#327 = EDGE_CURVE ( 'NONE', #18, #110, #98, .T. ) ;
#328 = ORIENTED_EDGE ( 'NONE', *, *, #154, .F. ) ;
#329 = CALENDAR_DATE ( 2024, 27, 2 ) ;
#330 = MANIFOLD_SOLID_BREP ( 'Body-Move/Copy2[1]', #335 ) ;
#331 = ORIENTED_EDGE ( 'NONE', *, *, #43, .T. ) ;
#332 = PERSON_AND_ORGANIZATION ( #51, #38 ) ;
#333 = ORIENTED_EDGE ( 'NONE', *, *, #293, .F. ) ;
#334 = ADVANCED_FACE ( 'NONE', ( #211 ), #155, .T. ) ;
#335 = CLOSED_SHELL ( 'NONE', ( #164, #347, #32, #159 ) ) ;
#336 = VERTEX_POINT ( 'NONE', #9 ) ;
#337 = LOCAL_TIME ( 12, 8, 51.00000000000000000, #273 ) ;
#338 = DATE_TIME_ROLE ( 'creation_date' ) ;
#339 = VERTEX_POINT ( 'NONE', #324 ) ;
#340 = CARTESIAN_POINT ( 'NONE',  ( 0.000000000000000000, 0.000000000000000000, 0.000000000000000000 ) ) ;
#341 = CARTESIAN_POINT ( 'NONE',  ( 0.4799999999999995937, -3.396558832296479338E-15, 1.280553747032483033E-17 ) ) ;
#342 = DIRECTION ( 'NONE',  ( -2.445468806185136597E-29, 3.491481338843145583E-15, 1.000000000000000000 ) ) ;
#343 = CARTESIAN_POINT ( 'NONE',  ( 0.000000000000000000, 0.000000000000000000, 0.000000000000000000 ) ) ;
#344 = LINE ( 'NONE', #90, #19 ) ;
#345 = CIRCLE ( 'NONE', #351, 0.5000000000000000000 ) ;
#346 = CC_DESIGN_APPROVAL ( #189, ( #299 ) ) ;
#347 = ADVANCED_FACE ( 'NONE', ( #209 ), #180, .T. ) ;
#348 = DIRECTION ( 'NONE',  ( -2.445468806185136597E-29, 3.491481338843145583E-15, 1.000000000000000000 ) ) ;
#349 = CARTESIAN_POINT ( 'NONE',  ( -0.4799999999999995937, 3.386736898677836436E-15, 1.280553747027767124E-17 ) ) ;
#350 = PRODUCT_DEFINITION ( 'UNKNOWN', '', #299, #229 ) ;
#351 = AXIS2_PLACEMENT_3D ( 'NONE', #130, #207, #298 ) ;
#352 = CARTESIAN_POINT ( 'NONE',  ( 8.253457220874837135E-29, -1.178374951859561767E-14, -3.375000000000000444 ) ) ;
#353 = ORIENTED_EDGE ( 'NONE', *, *, #141, .F. ) ;
#354 = CARTESIAN_POINT ( 'NONE',  ( 8.253457220874836014E-29, -1.178374951859561452E-14, -3.375000000000000000 ) ) ;
#355 = DATE_TIME_ROLE ( 'classification_date' ) ;
#356 = ORIENTED_EDGE ( 'NONE', *, *, #154, .T. ) ;
#357 = CONICAL_SURFACE ( 'NONE', #297, 0.4989999999999999991, 0.7853981633978239785 ) ;
#358 = CC_DESIGN_DATE_AND_TIME_ASSIGNMENT ( #132, #355, ( #12 ) ) ;
#359 = AXIS2_PLACEMENT_3D ( 'NONE', #265, #206, #66 ) ;
#360 = ORIENTED_EDGE ( 'NONE', *, *, #72, .F. ) ;
#361 = PERSON_AND_ORGANIZATION ( #51, #38 ) ;
#362 = ORIENTED_EDGE ( 'NONE', *, *, #234, .F. ) ;
#363 = ORIENTED_EDGE ( 'NONE', *, *, #182, .F. ) ;
#364 = PERSON_AND_ORGANIZATION_ROLE ( 'creator' ) ;
#365 = CIRCLE ( 'NONE', #203, 0.4799999999999995937 ) ;
#366 = EDGE_LOOP ( 'NONE', ( #279, #190, #308, #26 ) ) ;
ENDSEC;
END-ISO-10303-21;
