ISO-10303-21;
HEADER;
FILE_DESCRIPTION (( 'STEP AP203' ),
    '1' );
FILE_NAME ('34737.STEP',
    '2024-02-27T17:20:35',
    ( '' ),
    ( '' ),
    'SwSTEP 2.0',
    'SolidWorks 2023',
    '' );
FILE_SCHEMA (( 'CONFIG_CONTROL_DESIGN' ));
ENDSEC;

DATA;
#1 = ORIENTED_EDGE ( 'NONE', *, *, #102, .F. ) ;
#2 = EDGE_LOOP ( 'NONE', ( #300, #340 ) ) ;
#3 = CIRCLE ( 'NONE', #225, 0.1875000000000000278 ) ;
#4 = DIRECTION ( 'NONE',  ( 1.000000000000000000, -6.982962677686266711E-15, 0.000000000000000000 ) ) ;
#5 = CARTESIAN_POINT ( 'NONE',  ( 6.113672015462842613E-29, -8.728703347107864943E-15, -2.500000000000000000 ) ) ;
#6 = ORIENTED_EDGE ( 'NONE', *, *, #205, .F. ) ;
#7 = CARTESIAN_POINT ( 'NONE',  ( 3.668203209277703774E-29, -5.237222008264716599E-15, -1.499999999999999556 ) ) ;
#8 = AXIS2_PLACEMENT_3D ( 'NONE', #249, #33, #83 ) ;
#9 = CARTESIAN_POINT ( 'NONE',  ( 0.000000000000000000, 0.000000000000000000, 0.000000000000000000 ) ) ;
#10 = ORIENTED_EDGE ( 'NONE', *, *, #210, .T. ) ;
#11 = DIRECTION ( 'NONE',  ( -0.7071067811865464625, 2.468850131082245622E-15, -0.7071067811865485719 ) ) ;
#12 = DIRECTION ( 'NONE',  ( -0.7071067811866320607, 7.493145998870660238E-15, 0.7071067811864629737 ) ) ;
#13 = LINE ( 'NONE', #118, #92 ) ;
#14 = EDGE_CURVE ( 'NONE', #203, #260, #140, .T. ) ;
#15 = CARTESIAN_POINT ( 'NONE',  ( 0.1864999999999999714, -6.539544547653205593E-15, -1.499999999999999556 ) ) ;
#16 = DIRECTION ( 'NONE',  ( 1.000000000000000000, -6.982962677686266711E-15, 4.876176775795935793E-29 ) ) ;
#17 = DIRECTION ( 'NONE',  ( 1.000000000000000000, -6.982962677686266711E-15, 0.000000000000000000 ) ) ;
#18 = PERSON_AND_ORGANIZATION ( #281, #269 ) ;
#19 = AXIS2_PLACEMENT_3D ( 'NONE', #297, #114, #265 ) ;
#20 = CIRCLE ( 'NONE', #339, 0.1874999999999998890 ) ;
#21 = CARTESIAN_POINT ( 'NONE',  ( 0.1875000000000000278, -6.546527510330893185E-15, -1.499999999999999778 ) ) ;
#22 = ADVANCED_FACE ( 'NONE', ( #25 ), #52, .F. ) ;
#23 = CALENDAR_DATE ( 2024, 27, 2 ) ;
#24 = CIRCLE ( 'NONE', #35, 0.1674999999999999267 ) ;
#25 = FACE_OUTER_BOUND ( 'NONE', #136, .T. ) ;
#26 = ORIENTED_EDGE ( 'NONE', *, *, #210, .F. ) ;
#27 = EDGE_LOOP ( 'NONE', ( #198, #56, #277, #59 ) ) ;
#28 = ORIENTED_EDGE ( 'NONE', *, *, #134, .F. ) ;
#29 = VECTOR ( 'NONE', #242, 39.37007874015748143 ) ;
#30 = EDGE_LOOP ( 'NONE', ( #353, #10, #348, #226 ) ) ;
#31 = EDGE_LOOP ( 'NONE', ( #201, #257, #61, #104 ) ) ;
#32 = DATE_TIME_ROLE ( 'classification_date' ) ;
#33 = DIRECTION ( 'NONE',  ( 2.445468806185136597E-29, -3.491481338843145583E-15, -1.000000000000000000 ) ) ;
#34 = CYLINDRICAL_SURFACE ( 'NONE', #325, 0.1875000000000000278 ) ;
#35 = AXIS2_PLACEMENT_3D ( 'NONE', #9, #328, #66 ) ;
#36 = CYLINDRICAL_SURFACE ( 'NONE', #39, 0.1874999999999999445 ) ;
#37 = DIRECTION ( 'NONE',  ( -2.445468806185136597E-29, 3.491481338843145583E-15, 1.000000000000000000 ) ) ;
#38 = FACE_OUTER_BOUND ( 'NONE', #2, .T. ) ;
#39 = AXIS2_PLACEMENT_3D ( 'NONE', #144, #235, #354 ) ;
#40 = VECTOR ( 'NONE', #12, 39.37007874015748143 ) ;
#41 = APPROVAL_PERSON_ORGANIZATION ( #164, #212, #251 ) ;
#42 = DIRECTION ( 'NONE',  ( -2.445468806185136597E-29, 3.491481338843145583E-15, 1.000000000000000000 ) ) ;
#43 = ORIENTED_EDGE ( 'NONE', *, *, #282, .F. ) ;
#44 = EDGE_CURVE ( 'NONE', #179, #290, #350, .T. ) ;
#45 = DIRECTION ( 'NONE',  ( -1.000000000000000000, 6.982962677686264344E-15, 0.000000000000000000 ) ) ;
#46 = CARTESIAN_POINT ( 'NONE',  ( 0.1874999999999998890, -1.356173001359024283E-15, -0.02000000000000001776 ) ) ;
#47 = DIRECTION ( 'NONE',  ( 1.000000000000000000, -6.982962677686266711E-15, 0.000000000000000000 ) ) ;
#48 = PERSON_AND_ORGANIZATION_ROLE ( 'design_supplier' ) ;
#49 = AXIS2_PLACEMENT_3D ( 'NONE', #274, #243, #366 ) ;
#50 = CARTESIAN_POINT ( 'NONE',  ( 0.1875000000000000278, -6.543036028992050178E-15, -1.498999999999999666 ) ) ;
#51 = DIRECTION ( 'NONE',  ( 0.000000000000000000, 0.000000000000000000, 1.000000000000000000 ) ) ;
#52 = PLANE ( 'NONE',  #261 ) ;
#53 = PERSON_AND_ORGANIZATION_ROLE ( 'creator' ) ;
#54 = LOCAL_TIME ( 12, 20, 35.00000000000000000, #99 ) ;
#55 = ADVANCED_FACE ( 'NONE', ( #323 ), #36, .T. ) ;
#56 = ORIENTED_EDGE ( 'NONE', *, *, #58, .F. ) ;
#57 = ORIENTED_EDGE ( 'NONE', *, *, #318, .T. ) ;
#58 = EDGE_CURVE ( 'NONE', #346, #108, #171, .T. ) ;
#59 = ORIENTED_EDGE ( 'NONE', *, *, #187, .T. ) ;
#60 =( GEOMETRIC_REPRESENTATION_CONTEXT ( 3 ) GLOBAL_UNCERTAINTY_ASSIGNED_CONTEXT ( ( #196 ) ) GLOBAL_UNIT_ASSIGNED_CONTEXT ( ( #362, #75, #288 ) ) REPRESENTATION_CONTEXT ( 'NONE', 'WORKASPACE' ) );
#61 = ORIENTED_EDGE ( 'NONE', *, *, #318, .F. ) ;
#62 = PLANE ( 'NONE',  #63 ) ;
#63 = AXIS2_PLACEMENT_3D ( 'NONE', #322, #149, #180 ) ;
#64 = VECTOR ( 'NONE', #69, 39.37007874015748143 ) ;
#65 = ADVANCED_FACE ( 'NONE', ( #88 ), #135, .T. ) ;
#66 = DIRECTION ( 'NONE',  ( 1.000000000000000000, -6.982962677686265922E-15, 4.876176775795935793E-29 ) ) ;
#67 = CARTESIAN_POINT ( 'NONE',  ( 3.668203209277703774E-29, -5.237222008264716599E-15, -1.499999999999999556 ) ) ;
#68 = FACE_OUTER_BOUND ( 'NONE', #319, .T. ) ;
#69 = DIRECTION ( 'NONE',  ( -2.445468806185136877E-29, 3.491481338843145188E-15, 1.000000000000000000 ) ) ;
#70 = FACE_OUTER_BOUND ( 'NONE', #105, .T. ) ;
#71 = SECURITY_CLASSIFICATION_LEVEL ( 'unclassified' ) ;
#72 = ADVANCED_FACE ( 'NONE', ( #38 ), #62, .F. ) ;
#73 = CARTESIAN_POINT ( 'NONE',  ( 1.309305502066236145E-15, 0.1874999999999912847, -2.500000000000000444 ) ) ;
#74 = EDGE_LOOP ( 'NONE', ( #1, #227, #82, #317 ) ) ;
#75 =( NAMED_UNIT ( * ) PLANE_ANGLE_UNIT ( ) SI_UNIT ( $, .RADIAN. ) );
#76 = CIRCLE ( 'NONE', #298, 0.1875000000000000278 ) ;
#77 = EDGE_CURVE ( 'NONE', #346, #270, #13, .T. ) ;
#78 = ORIENTED_EDGE ( 'NONE', *, *, #129, .T. ) ;
#79 = DIRECTION ( 'NONE',  ( 1.000000000000000000, -6.982962677686269077E-15, 0.000000000000000000 ) ) ;
#80 = APPROVAL_PERSON_ORGANIZATION ( #279, #291, #285 ) ;
#81 = ORIENTED_EDGE ( 'NONE', *, *, #216, .T. ) ;
#82 = ORIENTED_EDGE ( 'NONE', *, *, #174, .T. ) ;
#83 = DIRECTION ( 'NONE',  ( -1.000000000000000000, 6.982962677686264344E-15, 0.000000000000000000 ) ) ;
#84 = MANIFOLD_SOLID_BREP ( 'Body-Move/Copy2[1]', #365 ) ;
#85 = CC_DESIGN_PERSON_AND_ORGANIZATION_ASSIGNMENT ( #192, #221, ( #309 ) ) ;
#86 = CARTESIAN_POINT ( 'NONE',  ( 3.668203209277704335E-29, -5.237222008264717388E-15, -1.499999999999999778 ) ) ;
#87 = CC_DESIGN_APPROVAL ( #337, ( #218 ) ) ;
#88 = FACE_OUTER_BOUND ( 'NONE', #313, .T. ) ;
#89 = DIRECTION ( 'NONE',  ( 1.000000000000000000, -6.982962677686269077E-15, 0.000000000000000000 ) ) ;
#90 = DIRECTION ( 'NONE',  ( 1.000000000000000000, -6.982962677686266711E-15, 0.000000000000000000 ) ) ;
#91 = LINE ( 'NONE', #191, #278 ) ;
#92 = VECTOR ( 'NONE', #11, 39.37007874015748143 ) ;
#93 = CC_DESIGN_SECURITY_CLASSIFICATION ( #309, ( #218 ) ) ;
#94 = CARTESIAN_POINT ( 'NONE',  ( 0.1875000000000000278, -1.003800884917403995E-14, -2.500000000000000000 ) ) ;
#95 = APPROVAL_ROLE ( '' ) ;
#96 = CARTESIAN_POINT ( 'NONE',  ( 3.668203209277703774E-29, -5.237222008264716599E-15, -1.499999999999999556 ) ) ;
#97 = DATE_AND_TIME ( #332, #54 ) ;
#98 = CARTESIAN_POINT ( 'NONE',  ( 4.890937612370276662E-31, -6.982962677686296539E-17, -0.02000000000000001776 ) ) ;
#99 = COORDINATED_UNIVERSAL_TIME_OFFSET ( 5, 0, .BEHIND. ) ;
#100 = LOCAL_TIME ( 12, 20, 35.00000000000000000, #168 ) ;
#101 = DIRECTION ( 'NONE',  ( 0.7071067811865464625, -7.319954787623252890E-15, -0.7071067811865485719 ) ) ;
#102 = EDGE_CURVE ( 'NONE', #290, #270, #349, .T. ) ;
#103 = ORIENTED_EDGE ( 'NONE', *, *, #115, .T. ) ;
#104 = ORIENTED_EDGE ( 'NONE', *, *, #174, .F. ) ;
#105 = EDGE_LOOP ( 'NONE', ( #173, #28 ) ) ;
#106 = ORIENTED_EDGE ( 'NONE', *, *, #359, .T. ) ;
#107 = CONICAL_SURFACE ( 'NONE', #161, 0.1874999999999998890, 0.7853981633974468357 ) ;
#108 = VERTEX_POINT ( 'NONE', #211 ) ;
#109 = ORIENTED_EDGE ( 'NONE', *, *, #306, .T. ) ;
#110 = CARTESIAN_POINT ( 'NONE',  ( 0.1875000000000000278, -1.309305502066175008E-15, 9.142831454617381013E-30 ) ) ;
#111 = SHAPE_DEFINITION_REPRESENTATION ( #182, #301 ) ;
#112 = DIRECTION ( 'NONE',  ( 1.000000000000000000, -6.982962677686266711E-15, 0.000000000000000000 ) ) ;
#113 = CLOSED_SHELL ( 'NONE', ( #65, #200, #150, #264, #55, #232, #22, #347 ) ) ;
#114 = DIRECTION ( 'NONE',  ( -2.445468806185136597E-29, 3.491481338843145583E-15, 1.000000000000000000 ) ) ;
#115 = EDGE_CURVE ( 'NONE', #108, #346, #24, .T. ) ;
#116 = FACE_OUTER_BOUND ( 'NONE', #30, .T. ) ;
#117 = DIRECTION ( 'NONE',  ( 1.000000000000000000, -6.982962677686265922E-15, 4.876176775795935793E-29 ) ) ;
#118 = CARTESIAN_POINT ( 'NONE',  ( -0.1874999999999998890, 1.239475875289310921E-15, -0.02000000000000001776 ) ) ;
#119 = AXIS2_PLACEMENT_3D ( 'NONE', #86, #37, #272 ) ;
#120 = DIRECTION ( 'NONE',  ( -2.445468806185136597E-29, 3.491481338843145583E-15, 1.000000000000000000 ) ) ;
#121 = EDGE_LOOP ( 'NONE', ( #26, #294, #152, #43 ) ) ;
#122 = CARTESIAN_POINT ( 'NONE',  ( -0.1875000000000000278, -5.650695048136103317E-15, -1.499999999999999778 ) ) ;
#123 = DIRECTION ( 'NONE',  ( -2.445468806185136597E-29, 3.491481338843145583E-15, 1.000000000000000000 ) ) ;
#124 = CARTESIAN_POINT ( 'NONE',  ( -0.1875000000000000278, -5.650695048136103317E-15, -2.500000000000000000 ) ) ;
#125 = VECTOR ( 'NONE', #231, 39.37007874015748143 ) ;
#126 = APPROVAL_STATUS ( 'not_yet_approved' ) ;
#127 = CIRCLE ( 'NONE', #153, 0.1874999999999998890 ) ;
#128 = DIRECTION ( 'NONE',  ( 2.438088387897960049E-29, -3.491481338843145188E-15, -1.000000000000000000 ) ) ;
#129 = EDGE_CURVE ( 'NONE', #324, #178, #314, .T. ) ;
#130 = ORIENTED_EDGE ( 'NONE', *, *, #306, .F. ) ;
#131 = DATE_AND_TIME ( #305, #204 ) ;
#132 = FACE_OUTER_BOUND ( 'NONE', #27, .T. ) ;
#133 = CARTESIAN_POINT ( 'NONE',  ( -0.1874999999999998890, 1.239475875289310921E-15, -0.02000000000000001776 ) ) ;
#134 = EDGE_CURVE ( 'NONE', #255, #203, #351, .T. ) ;
#135 = CONICAL_SURFACE ( 'NONE', #245, 0.1864999999999999714, 0.7853981633975678500 ) ;
#136 = EDGE_LOOP ( 'NONE', ( #289, #6 ) ) ;
#137 = MECHANICAL_CONTEXT ( 'NONE', #341, 'mechanical' ) ;
#138 = ORIENTED_EDGE ( 'NONE', *, *, #115, .F. ) ;
#139 = DIRECTION ( 'NONE',  ( -2.445468806185136597E-29, 3.491481338843145583E-15, 1.000000000000000000 ) ) ;
#140 = LINE ( 'NONE', #110, #125 ) ;
#141 = APPROVAL_PERSON_ORGANIZATION ( #18, #337, #95 ) ;
#142 = ADVANCED_FACE ( 'NONE', ( #116 ), #34, .T. ) ;
#143 = VERTEX_POINT ( 'NONE', #329 ) ;
#144 = CARTESIAN_POINT ( 'NONE',  ( 0.000000000000000000, 0.000000000000000000, 0.000000000000000000 ) ) ;
#145 = CC_DESIGN_PERSON_AND_ORGANIZATION_ASSIGNMENT ( #197, #188, ( #327 ) ) ;
#146 = DIRECTION ( 'NONE',  ( -2.445468806185136877E-29, 3.491481338843145188E-15, 1.000000000000000000 ) ) ;
#147 = DIMENSIONAL_EXPONENTS ( 1.000000000000000000, 0.000000000000000000, 0.000000000000000000, 0.000000000000000000, 0.000000000000000000, 0.000000000000000000, 0.000000000000000000 ) ;
#148 = DESIGN_CONTEXT ( 'detailed design', #158, 'design' ) ;
#149 = DIRECTION ( 'NONE',  ( 2.438088387897960049E-29, -3.491481338843145188E-15, -1.000000000000000000 ) ) ;
#150 = ADVANCED_FACE ( 'NONE', ( #239 ), #107, .T. ) ;
#151 = CARTESIAN_POINT ( 'NONE',  ( 0.1874999999999999445, -1.309305502066174614E-15, 9.142831454617376809E-30 ) ) ;
#152 = ORIENTED_EDGE ( 'NONE', *, *, #14, .T. ) ;
#153 = AXIS2_PLACEMENT_3D ( 'NONE', #98, #333, #47 ) ;
#154 = DIRECTION ( 'NONE',  ( 2.445468806185136597E-29, -3.491481338843145583E-15, -1.000000000000000000 ) ) ;
#155 = PLANE ( 'NONE',  #49 ) ;
#156 = DIRECTION ( 'NONE',  ( -2.445468806185136597E-29, 3.491481338843145583E-15, 1.000000000000000000 ) ) ;
#157 = CARTESIAN_POINT ( 'NONE',  ( 0.000000000000000000, 0.000000000000000000, 0.000000000000000000 ) ) ;
#158 = APPLICATION_CONTEXT ( 'configuration controlled 3d designs of mechanical parts and assemblies' ) ;
#159 = CARTESIAN_POINT ( 'NONE',  ( 3.665757740471518732E-29, -5.233730526925875170E-15, -1.498999999999999666 ) ) ;
#160 =( LENGTH_UNIT ( ) NAMED_UNIT ( * ) SI_UNIT ( $, .METRE. ) );
#161 = AXIS2_PLACEMENT_3D ( 'NONE', #215, #154, #45 ) ;
#162 = LOCAL_TIME ( 12, 20, 35.00000000000000000, #312 ) ;
#163 = DIRECTION ( 'NONE',  ( -2.445468806185136597E-29, 3.491481338843145583E-15, 1.000000000000000000 ) ) ;
#164 = PERSON_AND_ORGANIZATION ( #281, #269 ) ;
#165 = DATE_AND_TIME ( #23, #162 ) ;
#166 = ADVANCED_FACE ( 'NONE', ( #70 ), #331, .T. ) ;
#167 = LINE ( 'NONE', #46, #176 ) ;
#168 = COORDINATED_UNIVERSAL_TIME_OFFSET ( 5, 0, .BEHIND. ) ;
#169 = CARTESIAN_POINT ( 'NONE',  ( 3.668203209277704335E-29, -5.237222008264717388E-15, -1.499999999999999778 ) ) ;
#170 = LENGTH_MEASURE_WITH_UNIT ( LENGTH_MEASURE( 0.02539999999999999897 ), #160 );
#171 = CIRCLE ( 'NONE', #19, 0.1674999999999999267 ) ;
#172 = LOCAL_TIME ( 12, 20, 35.00000000000000000, #248 ) ;
#173 = ORIENTED_EDGE ( 'NONE', *, *, #250, .F. ) ;
#174 = EDGE_CURVE ( 'NONE', #179, #143, #311, .T. ) ;
#175 = EDGE_LOOP ( 'NONE', ( #130, #293, #81, #240 ) ) ;
#176 = VECTOR ( 'NONE', #101, 39.37007874015748143 ) ;
#177 = CC_DESIGN_DATE_AND_TIME_ASSIGNMENT ( #165, #32, ( #309 ) ) ;
#178 = VERTEX_POINT ( 'NONE', #273 ) ;
#179 = VERTEX_POINT ( 'NONE', #50 ) ;
#180 = DIRECTION ( 'NONE',  ( -1.000000000000000000, 6.982962677686265922E-15, -4.876176775795935793E-29 ) ) ;
#181 = CONICAL_SURFACE ( 'NONE', #8, 0.1874999999999998890, 0.7853981633974468357 ) ;
#182 = PRODUCT_DEFINITION_SHAPE ( 'NONE', 'NONE',  #185 ) ;
#183 = CARTESIAN_POINT ( 'NONE',  ( 3.665757740471518732E-29, -5.233730526925875170E-15, -1.498999999999999666 ) ) ;
#184 = CARTESIAN_POINT ( 'NONE',  ( -0.1864999999999999714, -3.912059806072129759E-15, -1.499999999999999556 ) ) ;
#185 = PRODUCT_DEFINITION ( 'UNKNOWN', '', #218, #148 ) ;
#186 = DIRECTION ( 'NONE',  ( 1.000000000000000000, -6.982962677686265922E-15, 4.876176775795935793E-29 ) ) ;
#187 = EDGE_CURVE ( 'NONE', #270, #143, #127, .T. ) ;
#188 = PERSON_AND_ORGANIZATION_ROLE ( 'design_owner' ) ;
#189 = DIRECTION ( 'NONE',  ( 1.000000000000000000, -6.982962677686266711E-15, 0.000000000000000000 ) ) ;
#190 = PERSON_AND_ORGANIZATION ( #281, #269 ) ;
#191 = CARTESIAN_POINT ( 'NONE',  ( 0.1864999999999999714, -6.539544547653205593E-15, -1.499999999999999556 ) ) ;
#192 = PERSON_AND_ORGANIZATION ( #281, #269 ) ;
#193 = AXIS2_PLACEMENT_3D ( 'NONE', #96, #123, #89 ) ;
#194 = CC_DESIGN_DATE_AND_TIME_ASSIGNMENT ( #97, #276, ( #185 ) ) ;
#195 = PERSON_AND_ORGANIZATION ( #281, #269 ) ;
#196 = UNCERTAINTY_MEASURE_WITH_UNIT (LENGTH_MEASURE( 1.000000000000000082E-05 ), #362, 'distance_accuracy_value', 'NONE');
#197 = PERSON_AND_ORGANIZATION ( #281, #269 ) ;
#198 = ORIENTED_EDGE ( 'NONE', *, *, #359, .F. ) ;
#199 = AXIS2_PLACEMENT_3D ( 'NONE', #224, #42, #16 ) ;
#200 = ADVANCED_FACE ( 'NONE', ( #361 ), #358, .T. ) ;
#201 = ORIENTED_EDGE ( 'NONE', *, *, #44, .T. ) ;
#202 = ORIENTED_EDGE ( 'NONE', *, *, #77, .F. ) ;
#203 = VERTEX_POINT ( 'NONE', #94 ) ;
#204 = LOCAL_TIME ( 12, 20, 35.00000000000000000, #253 ) ;
#205 = EDGE_CURVE ( 'NONE', #178, #324, #321, .T. ) ;
#206 = APPROVAL_DATE_TIME ( #342, #212 ) ;
#207 = CARTESIAN_POINT ( 'NONE',  ( 3.668203209277703774E-29, -5.237222008264716599E-15, -1.499999999999999556 ) ) ;
#208 = CC_DESIGN_PERSON_AND_ORGANIZATION_ASSIGNMENT ( #195, #48, ( #218 ) ) ;
#209 = CONICAL_SURFACE ( 'NONE', #238, 0.1864999999999999714, 0.7853981633975678500 ) ;
#210 = EDGE_CURVE ( 'NONE', #255, #287, #304, .T. ) ;
#211 = CARTESIAN_POINT ( 'NONE',  ( 0.1674999999999999267, -1.252653207992877500E-15, 8.469775550109235181E-30 ) ) ;
#212 = APPROVAL ( #283, 'UNSPECIFIED' ) ;
#213 = DIRECTION ( 'NONE',  ( 0.7071067811866320607, -2.468850131083142557E-15, 0.7071067811864629737 ) ) ;
#214 = CARTESIAN_POINT ( 'NONE',  ( -0.1674999999999999267, 1.204561061900880061E-15, -8.301862719484107585E-30 ) ) ;
#215 = CARTESIAN_POINT ( 'NONE',  ( 4.890937612370276662E-31, -6.982962677686296539E-17, -0.02000000000000001776 ) ) ;
#216 = EDGE_CURVE ( 'NONE', #324, #179, #91, .T. ) ;
#217 = CC_DESIGN_APPROVAL ( #291, ( #185 ) ) ;
#218 = PRODUCT_DEFINITION_FORMATION_WITH_SPECIFIED_SOURCE ( 'ANY', '', #327, .NOT_KNOWN. ) ;
#219 = APPLICATION_PROTOCOL_DEFINITION ( 'international standard', 'config_control_design', 1994, #158 ) ;
#220 = FACE_OUTER_BOUND ( 'NONE', #175, .T. ) ;
#221 = PERSON_AND_ORGANIZATION_ROLE ( 'classification_officer' ) ;
#222 = PERSON_AND_ORGANIZATION ( #281, #269 ) ;
#223 = CC_DESIGN_PERSON_AND_ORGANIZATION_ASSIGNMENT ( #190, #53, ( #185 ) ) ;
#224 = CARTESIAN_POINT ( 'NONE',  ( 0.000000000000000000, 0.000000000000000000, 0.000000000000000000 ) ) ;
#225 = AXIS2_PLACEMENT_3D ( 'NONE', #159, #156, #189 ) ;
#226 = ORIENTED_EDGE ( 'NONE', *, *, #14, .F. ) ;
#227 = ORIENTED_EDGE ( 'NONE', *, *, #228, .T. ) ;
#228 = EDGE_CURVE ( 'NONE', #290, #179, #3, .T. ) ;
#229 = ORIENTED_EDGE ( 'NONE', *, *, #44, .F. ) ;
#230 = CARTESIAN_POINT ( 'NONE',  ( 3.668203209277704335E-29, -5.237222008264717388E-15, -1.499999999999999778 ) ) ;
#231 = DIRECTION ( 'NONE',  ( -2.445468806185136877E-29, 3.491481338843145188E-15, 1.000000000000000000 ) ) ;
#232 = ADVANCED_FACE ( 'NONE', ( #220 ), #209, .T. ) ;
#233 = CIRCLE ( 'NONE', #344, 0.1875000000000000278 ) ;
#234 = DIRECTION ( 'NONE',  ( -2.445468806185136597E-29, 3.491481338843145583E-15, 1.000000000000000000 ) ) ;
#235 = DIRECTION ( 'NONE',  ( -2.445468806185136597E-29, 3.491481338843145583E-15, 1.000000000000000000 ) ) ;
#236 = DIRECTION ( 'NONE',  ( -2.445468806185136597E-29, 3.491481338843145583E-15, 1.000000000000000000 ) ) ;
#237 = CIRCLE ( 'NONE', #119, 0.1875000000000000278 ) ;
#238 = AXIS2_PLACEMENT_3D ( 'NONE', #67, #335, #303 ) ;
#239 = FACE_OUTER_BOUND ( 'NONE', #320, .T. ) ;
#240 = ORIENTED_EDGE ( 'NONE', *, *, #228, .F. ) ;
#241 = LINE ( 'NONE', #184, #40 ) ;
#242 = DIRECTION ( 'NONE',  ( -2.445468806185136877E-29, 3.491481338843145188E-15, 1.000000000000000000 ) ) ;
#243 = DIRECTION ( 'NONE',  ( 2.438088387897960049E-29, -3.491481338843145188E-15, -1.000000000000000000 ) ) ;
#244 = FACE_OUTER_BOUND ( 'NONE', #121, .T. ) ;
#245 = AXIS2_PLACEMENT_3D ( 'NONE', #7, #267, #326 ) ;
#246 = APPROVAL_DATE_TIME ( #131, #337 ) ;
#247 = CARTESIAN_POINT ( 'NONE',  ( 0.000000000000000000, 0.000000000000000000, 0.000000000000000000 ) ) ;
#248 = COORDINATED_UNIVERSAL_TIME_OFFSET ( 5, 0, .BEHIND. ) ;
#249 = CARTESIAN_POINT ( 'NONE',  ( 4.890937612370276662E-31, -6.982962677686296539E-17, -0.02000000000000001776 ) ) ;
#250 = EDGE_CURVE ( 'NONE', #203, #255, #76, .T. ) ;
#251 = APPROVAL_ROLE ( '' ) ;
#252 = AXIS2_PLACEMENT_3D ( 'NONE', #157, #51, #310 ) ;
#253 = COORDINATED_UNIVERSAL_TIME_OFFSET ( 5, 0, .BEHIND. ) ;
#254 = CALENDAR_DATE ( 2024, 27, 2 ) ;
#255 = VERTEX_POINT ( 'NONE', #124 ) ;
#256 = AXIS2_PLACEMENT_3D ( 'NONE', #73, #128, #363 ) ;
#257 = ORIENTED_EDGE ( 'NONE', *, *, #102, .T. ) ;
#258 = ADVANCED_FACE ( 'NONE', ( #244 ), #307, .T. ) ;
#259 = DIRECTION ( 'NONE',  ( -2.445468806185136597E-29, 3.491481338843145583E-15, 1.000000000000000000 ) ) ;
#260 = VERTEX_POINT ( 'NONE', #21 ) ;
#261 = AXIS2_PLACEMENT_3D ( 'NONE', #169, #286, #117 ) ;
#262 = CC_DESIGN_APPROVAL ( #212, ( #309 ) ) ;
#263 = DIRECTION ( 'NONE',  ( -2.445468806185136597E-29, 3.491481338843145583E-15, 1.000000000000000000 ) ) ;
#264 = ADVANCED_FACE ( 'NONE', ( #132 ), #181, .T. ) ;
#265 = DIRECTION ( 'NONE',  ( 1.000000000000000000, -6.982962677686265922E-15, 4.876176775795935793E-29 ) ) ;
#266 = CARTESIAN_POINT ( 'NONE',  ( -0.1875000000000000278, -1.319512447301179413E-15, -1.498999999999999666 ) ) ;
#267 = DIRECTION ( 'NONE',  ( -2.445468806185136597E-29, 3.491481338843145583E-15, 1.000000000000000000 ) ) ;
#268 = PRODUCT_RELATED_PRODUCT_CATEGORY ( 'detail', '', ( #327 ) ) ;
#269 = ORGANIZATION ( 'UNSPECIFIED', 'UNSPECIFIED', '' ) ;
#270 = VERTEX_POINT ( 'NONE', #133 ) ;
#271 = EDGE_CURVE ( 'NONE', #260, #287, #233, .T. ) ;
#272 = DIRECTION ( 'NONE',  ( 1.000000000000000000, -6.982962677686266711E-15, 0.000000000000000000 ) ) ;
#273 = CARTESIAN_POINT ( 'NONE',  ( -0.1864999999999999714, -3.906761351723908145E-15, -1.499999999999999556 ) ) ;
#274 = CARTESIAN_POINT ( 'NONE',  ( 1.169646248512449003E-15, 0.1674999999999999267, -5.848231242562265725E-16 ) ) ;
#275 = DIRECTION ( 'NONE',  ( -2.445468806185136597E-29, 3.491481338843145583E-15, 1.000000000000000000 ) ) ;
#276 = DATE_TIME_ROLE ( 'creation_date' ) ;
#277 = ORIENTED_EDGE ( 'NONE', *, *, #77, .T. ) ;
#278 = VECTOR ( 'NONE', #213, 39.37007874015748143 ) ;
#279 = PERSON_AND_ORGANIZATION ( #281, #269 ) ;
#280 = DIRECTION ( 'NONE',  ( 1.000000000000000000, -6.982962677686265922E-15, 4.876176775795935793E-29 ) ) ;
#281 = PERSON ( 'UNSPECIFIED', 'UNSPECIFIED', 'UNSPECIFIED', ('UNSPECIFIED'), ('UNSPECIFIED'), ('UNSPECIFIED') ) ;
#282 = EDGE_CURVE ( 'NONE', #287, #260, #237, .T. ) ;
#283 = APPROVAL_STATUS ( 'not_yet_approved' ) ;
#284 = APPROVAL_STATUS ( 'not_yet_approved' ) ;
#285 = APPROVAL_ROLE ( '' ) ;
#286 = DIRECTION ( 'NONE',  ( -2.438088387897960049E-29, 3.491481338843145188E-15, 1.000000000000000000 ) ) ;
#287 = VERTEX_POINT ( 'NONE', #122 ) ;
#288 =( NAMED_UNIT ( * ) SI_UNIT ( $, .STERADIAN. ) SOLID_ANGLE_UNIT ( ) );
#289 = ORIENTED_EDGE ( 'NONE', *, *, #129, .F. ) ;
#290 = VERTEX_POINT ( 'NONE', #266 ) ;
#291 = APPROVAL ( #284, 'UNSPECIFIED' ) ;
#292 = AXIS2_PLACEMENT_3D ( 'NONE', #247, #163, #280 ) ;
#293 = ORIENTED_EDGE ( 'NONE', *, *, #205, .T. ) ;
#294 = ORIENTED_EDGE ( 'NONE', *, *, #134, .T. ) ;
#295 = CALENDAR_DATE ( 2024, 27, 2 ) ;
#296 = CARTESIAN_POINT ( 'NONE',  ( -0.1874999999999999445, 1.332267629550187454E-15, -9.223003294227945188E-30 ) ) ;
#297 = CARTESIAN_POINT ( 'NONE',  ( 0.000000000000000000, 0.000000000000000000, 0.000000000000000000 ) ) ;
#298 = AXIS2_PLACEMENT_3D ( 'NONE', #338, #275, #17 ) ;
#299 = DIRECTION ( 'NONE',  ( 1.000000000000000000, -6.982962677686266711E-15, 0.000000000000000000 ) ) ;
#300 = ORIENTED_EDGE ( 'NONE', *, *, #271, .T. ) ;
#301 = ADVANCED_BREP_SHAPE_REPRESENTATION ( '34737', ( #84, #345, #252 ), #60 ) ;
#302 = CARTESIAN_POINT ( 'NONE',  ( -0.1875000000000000278, 1.332267629550188046E-15, -9.223003294227947991E-30 ) ) ;
#303 = DIRECTION ( 'NONE',  ( 1.000000000000000000, -6.982962677686269077E-15, 0.000000000000000000 ) ) ;
#304 = LINE ( 'NONE', #302, #29 ) ;
#305 = CALENDAR_DATE ( 2024, 27, 2 ) ;
#306 = EDGE_CURVE ( 'NONE', #178, #290, #241, .T. ) ;
#307 = CYLINDRICAL_SURFACE ( 'NONE', #292, 0.1875000000000000278 ) ;
#308 = AXIS2_PLACEMENT_3D ( 'NONE', #207, #263, #79 ) ;
#309 = SECURITY_CLASSIFICATION ( '', '', #71 ) ;
#310 = DIRECTION ( 'NONE',  ( 1.000000000000000000, 0.000000000000000000, 0.000000000000000000 ) ) ;
#311 = LINE ( 'NONE', #151, #64 ) ;
#312 = COORDINATED_UNIVERSAL_TIME_OFFSET ( 5, 0, .BEHIND. ) ;
#313 = EDGE_LOOP ( 'NONE', ( #78, #109, #229, #316 ) ) ;
#314 = CIRCLE ( 'NONE', #308, 0.1864999999999999714 ) ;
#315 = CC_DESIGN_PERSON_AND_ORGANIZATION_ASSIGNMENT ( #222, #336, ( #218 ) ) ;
#316 = ORIENTED_EDGE ( 'NONE', *, *, #216, .F. ) ;
#317 = ORIENTED_EDGE ( 'NONE', *, *, #187, .F. ) ;
#318 = EDGE_CURVE ( 'NONE', #143, #270, #20, .T. ) ;
#319 = EDGE_LOOP ( 'NONE', ( #343, #103 ) ) ;
#320 = EDGE_LOOP ( 'NONE', ( #138, #106, #57, #202 ) ) ;
#321 = CIRCLE ( 'NONE', #193, 0.1864999999999999714 ) ;
#322 = CARTESIAN_POINT ( 'NONE',  ( 1.309305502066211690E-15, 0.1874999999999947820, -1.500000000000000444 ) ) ;
#323 = FACE_OUTER_BOUND ( 'NONE', #74, .T. ) ;
#324 = VERTEX_POINT ( 'NONE', #15 ) ;
#325 = AXIS2_PLACEMENT_3D ( 'NONE', #352, #120, #186 ) ;
#326 = DIRECTION ( 'NONE',  ( 1.000000000000000000, -6.982962677686269077E-15, 0.000000000000000000 ) ) ;
#327 = PRODUCT ( '34737', '34737', '', ( #137 ) ) ;
#328 = DIRECTION ( 'NONE',  ( -2.445468806185136597E-29, 3.491481338843145583E-15, 1.000000000000000000 ) ) ;
#329 = CARTESIAN_POINT ( 'NONE',  ( 0.1874999999999998890, -1.356173001359024283E-15, -0.02000000000000001776 ) ) ;
#330 = AXIS2_PLACEMENT_3D ( 'NONE', #183, #259, #299 ) ;
#331 = PLANE ( 'NONE',  #256 ) ;
#332 = CALENDAR_DATE ( 2024, 27, 2 ) ;
#333 = DIRECTION ( 'NONE',  ( -2.445468806185136597E-29, 3.491481338843145583E-15, 1.000000000000000000 ) ) ;
#334 = APPROVAL_DATE_TIME ( #360, #291 ) ;
#335 = DIRECTION ( 'NONE',  ( -2.445468806185136597E-29, 3.491481338843145583E-15, 1.000000000000000000 ) ) ;
#336 = PERSON_AND_ORGANIZATION_ROLE ( 'creator' ) ;
#337 = APPROVAL ( #126, 'UNSPECIFIED' ) ;
#338 = CARTESIAN_POINT ( 'NONE',  ( 6.113672015462842613E-29, -8.728703347107864943E-15, -2.500000000000000000 ) ) ;
#339 = AXIS2_PLACEMENT_3D ( 'NONE', #356, #236, #90 ) ;
#340 = ORIENTED_EDGE ( 'NONE', *, *, #282, .T. ) ;
#341 = APPLICATION_CONTEXT ( 'configuration controlled 3d designs of mechanical parts and assemblies' ) ;
#342 = DATE_AND_TIME ( #295, #100 ) ;
#343 = ORIENTED_EDGE ( 'NONE', *, *, #58, .T. ) ;
#344 = AXIS2_PLACEMENT_3D ( 'NONE', #230, #139, #4 ) ;
#345 = MANIFOLD_SOLID_BREP ( 'Body-Move/Copy2[2]', #113 ) ;
#346 = VERTEX_POINT ( 'NONE', #214 ) ;
#347 = ADVANCED_FACE ( 'NONE', ( #68 ), #155, .F. ) ;
#348 = ORIENTED_EDGE ( 'NONE', *, *, #271, .F. ) ;
#349 = LINE ( 'NONE', #296, #357 ) ;
#350 = CIRCLE ( 'NONE', #330, 0.1875000000000000278 ) ;
#351 = CIRCLE ( 'NONE', #355, 0.1875000000000000278 ) ;
#352 = CARTESIAN_POINT ( 'NONE',  ( 0.000000000000000000, 0.000000000000000000, 0.000000000000000000 ) ) ;
#353 = ORIENTED_EDGE ( 'NONE', *, *, #250, .T. ) ;
#354 = DIRECTION ( 'NONE',  ( 1.000000000000000000, -6.982962677686266711E-15, 4.876176775795935793E-29 ) ) ;
#355 = AXIS2_PLACEMENT_3D ( 'NONE', #5, #234, #112 ) ;
#356 = CARTESIAN_POINT ( 'NONE',  ( 4.890937612370276662E-31, -6.982962677686296539E-17, -0.02000000000000001776 ) ) ;
#357 = VECTOR ( 'NONE', #146, 39.37007874015748143 ) ;
#358 = CYLINDRICAL_SURFACE ( 'NONE', #199, 0.1874999999999999445 ) ;
#359 = EDGE_CURVE ( 'NONE', #108, #143, #167, .T. ) ;
#360 = DATE_AND_TIME ( #254, #172 ) ;
#361 = FACE_OUTER_BOUND ( 'NONE', #31, .T. ) ;
#362 =( CONVERSION_BASED_UNIT ( 'INCH', #170 ) LENGTH_UNIT ( ) NAMED_UNIT ( #147 ) );
#363 = DIRECTION ( 'NONE',  ( -1.000000000000000000, 6.982962677686265922E-15, -4.876176775795935793E-29 ) ) ;
#364 = APPLICATION_PROTOCOL_DEFINITION ( 'international standard', 'config_control_design', 1994, #341 ) ;
#365 = CLOSED_SHELL ( 'NONE', ( #142, #166, #72, #258 ) ) ;
#366 = DIRECTION ( 'NONE',  ( -1.000000000000000000, 6.982962677686265922E-15, -4.876176775795935793E-29 ) ) ;
ENDSEC;
END-ISO-10303-21;
