ISO-10303-21;
HEADER;
FILE_DESCRIPTION (( 'STEP AP203' ),
    '1' );
FILE_NAME ('34825.STEP',
    '2024-02-27T17:43:54',
    ( '' ),
    ( '' ),
    'SwSTEP 2.0',
    'SolidWorks 2023',
    '' );
FILE_SCHEMA (( 'CONFIG_CONTROL_DESIGN' ));
ENDSEC;

DATA;
#1 = ORIENTED_EDGE ( 'NONE', *, *, #17, .F. ) ;
#2 = CLOSED_SHELL ( 'NONE', ( #298, #307, #93, #310 ) ) ;
#3 = CYLINDRICAL_SURFACE ( 'NONE', #207, 0.1250000000000000000 ) ;
#4 = DIRECTION ( 'NONE',  ( 1.000000000000000000, -6.982962677686270655E-15, 0.000000000000000000 ) ) ;
#5 = DIRECTION ( 'NONE',  ( -2.445468806185136597E-29, 3.491481338843145583E-15, 1.000000000000000000 ) ) ;
#6 = APPLICATION_PROTOCOL_DEFINITION ( 'international standard', 'config_control_design', 1994, #144 ) ;
#7 = DIRECTION ( 'NONE',  ( -1.000000000000000000, 6.982962677686267499E-15, 0.000000000000000000 ) ) ;
#8 = ADVANCED_FACE ( 'NONE', ( #198 ), #281, .T. ) ;
#9 = AXIS2_PLACEMENT_3D ( 'NONE', #344, #210, #159 ) ;
#10 = LINE ( 'NONE', #350, #15 ) ;
#11 = MECHANICAL_CONTEXT ( 'NONE', #300, 'mechanical' ) ;
#12 = CARTESIAN_POINT ( 'NONE',  ( 0.000000000000000000, 0.000000000000000000, 0.000000000000000000 ) ) ;
#13 = CARTESIAN_POINT ( 'NONE',  ( -0.1239999999999999991, -6.096591230995545328E-15, -2.000000000000000000 ) ) ;
#14 = COORDINATED_UNIVERSAL_TIME_OFFSET ( 5, 0, .BEHIND. ) ;
#15 = VECTOR ( 'NONE', #110, 39.37007874015748143 ) ;
#16 = AXIS2_PLACEMENT_3D ( 'NONE', #12, #129, #20 ) ;
#17 = EDGE_CURVE ( 'NONE', #92, #141, #76, .T. ) ;
#18 = LINE ( 'NONE', #327, #271 ) ;
#19 = CC_DESIGN_PERSON_AND_ORGANIZATION_ASSIGNMENT ( #80, #216, ( #364 ) ) ;
#20 = DIRECTION ( 'NONE',  ( 1.000000000000000000, -6.982962677686266711E-15, 4.876176775795935793E-29 ) ) ;
#21 = AXIS2_PLACEMENT_3D ( 'NONE', #168, #301, #273 ) ;
#22 = DIRECTION ( 'NONE',  ( -2.445468806185136597E-29, 3.491481338843145583E-15, 1.000000000000000000 ) ) ;
#23 = ORIENTED_EDGE ( 'NONE', *, *, #83, .T. ) ;
#24 = COORDINATED_UNIVERSAL_TIME_OFFSET ( 5, 0, .BEHIND. ) ;
#25 = EDGE_CURVE ( 'NONE', #260, #253, #172, .T. ) ;
#26 = DIRECTION ( 'NONE',  ( 1.000000000000000000, -6.982962677686266711E-15, 4.876176775795935793E-29 ) ) ;
#27 = EDGE_LOOP ( 'NONE', ( #225, #96, #233, #232 ) ) ;
#28 = AXIS2_PLACEMENT_3D ( 'NONE', #98, #257, #72 ) ;
#29 = APPROVAL_PERSON_ORGANIZATION ( #347, #305, #40 ) ;
#30 = ORIENTED_EDGE ( 'NONE', *, *, #100, .F. ) ;
#31 = ORIENTED_EDGE ( 'NONE', *, *, #147, .F. ) ;
#32 = VECTOR ( 'NONE', #38, 39.37007874015748854 ) ;
#33 = AXIS2_PLACEMENT_3D ( 'NONE', #81, #39, #166 ) ;
#34 = UNCERTAINTY_MEASURE_WITH_UNIT (LENGTH_MEASURE( 1.000000000000000082E-05 ), #158, 'distance_accuracy_value', 'NONE');
#35 = CC_DESIGN_DATE_AND_TIME_ASSIGNMENT ( #349, #351, ( #108 ) ) ;
#36 = ORIENTED_EDGE ( 'NONE', *, *, #266, .F. ) ;
#37 = COORDINATED_UNIVERSAL_TIME_OFFSET ( 5, 0, .BEHIND. ) ;
#38 = DIRECTION ( 'NONE',  ( -0.7071067811865232589, 7.493145998870265808E-15, 0.7071067811865715536 ) ) ;
#39 = DIRECTION ( 'NONE',  ( -2.445468806185136597E-29, 3.491481338843145583E-15, 1.000000000000000000 ) ) ;
#40 = APPROVAL_ROLE ( '' ) ;
#41 = DIRECTION ( 'NONE',  ( -2.445468806185136877E-29, 3.491481338843145188E-15, 1.000000000000000000 ) ) ;
#42 = CALENDAR_DATE ( 2024, 27, 2 ) ;
#43 = DIRECTION ( 'NONE',  ( -2.445468806185136877E-29, 3.491481338843145188E-15, 1.000000000000000000 ) ) ;
#44 = PERSON_AND_ORGANIZATION ( #52, #188 ) ;
#45 = AXIS2_PLACEMENT_3D ( 'NONE', #208, #287, #182 ) ;
#46 = CIRCLE ( 'NONE', #338, 0.1250000000000000000 ) ;
#47 = LINE ( 'NONE', #48, #82 ) ;
#48 = CARTESIAN_POINT ( 'NONE',  ( -0.1249999999999998612, 8.881784197001242463E-16, -6.148668862818625221E-30 ) ) ;
#49 = ADVANCED_FACE ( 'NONE', ( #366 ), #176, .T. ) ;
#50 = DATE_AND_TIME ( #275, #103 ) ;
#51 = APPROVAL_STATUS ( 'not_yet_approved' ) ;
#52 = PERSON ( 'UNSPECIFIED', 'UNSPECIFIED', 'UNSPECIFIED', ('UNSPECIFIED'), ('UNSPECIFIED'), ('UNSPECIFIED') ) ;
#53 = AXIS2_PLACEMENT_3D ( 'NONE', #142, #333, #90 ) ;
#54 = CC_DESIGN_APPROVAL ( #305, ( #108 ) ) ;
#55 = ORIENTED_EDGE ( 'NONE', *, *, #242, .F. ) ;
#56 = PLANE ( 'NONE',  #318 ) ;
#57 = DIRECTION ( 'NONE',  ( -2.445468806185136597E-29, 3.491481338843145583E-15, 1.000000000000000000 ) ) ;
#58 = CARTESIAN_POINT ( 'NONE',  ( 4.890937612370273194E-29, -6.982962677686291165E-15, -2.000000000000000000 ) ) ;
#59 = ORIENTED_EDGE ( 'NONE', *, *, #360, .F. ) ;
#60 = AXIS2_PLACEMENT_3D ( 'NONE', #224, #57, #178 ) ;
#61 = LOCAL_TIME ( 12, 43, 54.00000000000000000, #37 ) ;
#62 = ORIENTED_EDGE ( 'NONE', *, *, #140, .T. ) ;
#63 = ORIENTED_EDGE ( 'NONE', *, *, #295, .F. ) ;
#64 = EDGE_CURVE ( 'NONE', #361, #260, #146, .T. ) ;
#65 = ORIENTED_EDGE ( 'NONE', *, *, #192, .F. ) ;
#66 = LINE ( 'NONE', #294, #118 ) ;
#67 = VERTEX_POINT ( 'NONE', #201 ) ;
#68 = CARTESIAN_POINT ( 'NONE',  ( -0.1249999999999997363, 8.030407079339185615E-16, -0.02000000000000002123 ) ) ;
#69 =( GEOMETRIC_REPRESENTATION_CONTEXT ( 3 ) GLOBAL_UNCERTAINTY_ASSIGNED_CONTEXT ( ( #34 ) ) GLOBAL_UNIT_ASSIGNED_CONTEXT ( ( #158, #353, #356 ) ) REPRESENTATION_CONTEXT ( 'NONE', 'WORKASPACE' ) );
#70 = PERSON_AND_ORGANIZATION ( #52, #188 ) ;
#71 = DIRECTION ( 'NONE',  ( -2.445468806185136597E-29, 3.491481338843145583E-15, 1.000000000000000000 ) ) ;
#72 = DIRECTION ( 'NONE',  ( 1.000000000000000000, -6.982962677686265922E-15, 4.876176775795935232E-29 ) ) ;
#73 = CARTESIAN_POINT ( 'NONE',  ( 7.336406418555409790E-29, -1.047444401652943635E-14, -3.000000000000000444 ) ) ;
#74 = FACE_OUTER_BOUND ( 'NONE', #311, .T. ) ;
#75 = APPROVAL ( #51, 'UNSPECIFIED' ) ;
#76 = CIRCLE ( 'NONE', #312, 0.1249999999999997363 ) ;
#77 = DIRECTION ( 'NONE',  ( -2.445468806185136597E-29, 3.491481338843145583E-15, 1.000000000000000000 ) ) ;
#78 = VECTOR ( 'NONE', #328, 39.37007874015748143 ) ;
#79 = EDGE_CURVE ( 'NONE', #169, #67, #206, .T. ) ;
#80 = PERSON_AND_ORGANIZATION ( #52, #188 ) ;
#81 = CARTESIAN_POINT ( 'NONE',  ( 0.000000000000000000, 0.000000000000000000, 0.000000000000000000 ) ) ;
#82 = VECTOR ( 'NONE', #43, 39.37007874015748143 ) ;
#83 = EDGE_CURVE ( 'NONE', #67, #169, #256, .T. ) ;
#84 = DIRECTION ( 'NONE',  ( -2.445468806185136597E-29, 3.491481338843145583E-15, 1.000000000000000000 ) ) ;
#85 = ORIENTED_EDGE ( 'NONE', *, *, #100, .T. ) ;
#86 = CARTESIAN_POINT ( 'NONE',  ( 4.890937612370273194E-29, -6.982962677686291165E-15, -2.000000000000000000 ) ) ;
#87 = AXIS2_PLACEMENT_3D ( 'NONE', #184, #291, #7 ) ;
#88 = FACE_OUTER_BOUND ( 'NONE', #274, .T. ) ;
#89 = ADVANCED_FACE ( 'NONE', ( #348 ), #261, .T. ) ;
#90 = DIRECTION ( 'NONE',  ( 1.000000000000000000, -6.982962677686262766E-15, 0.000000000000000000 ) ) ;
#91 = CC_DESIGN_DATE_AND_TIME_ASSIGNMENT ( #270, #357, ( #262 ) ) ;
#92 = VERTEX_POINT ( 'NONE', #68 ) ;
#93 = ADVANCED_FACE ( 'NONE', ( #150 ), #254, .F. ) ;
#94 = CARTESIAN_POINT ( 'NONE',  ( 4.890937612370273194E-29, -6.982962677686291165E-15, -2.000000000000000000 ) ) ;
#95 = LOCAL_TIME ( 12, 43, 54.00000000000000000, #299 ) ;
#96 = ORIENTED_EDGE ( 'NONE', *, *, #204, .F. ) ;
#97 = FACE_OUTER_BOUND ( 'NONE', #341, .T. ) ;
#98 = CARTESIAN_POINT ( 'NONE',  ( 0.000000000000000000, 0.000000000000000000, 0.000000000000000000 ) ) ;
#99 = VERTEX_POINT ( 'NONE', #203 ) ;
#100 = EDGE_CURVE ( 'NONE', #149, #169, #66, .T. ) ;
#101 = CARTESIAN_POINT ( 'NONE',  ( 8.728703347108566043E-16, 0.1249999999999895361, -3.000000000000000888 ) ) ;
#102 = DIRECTION ( 'NONE',  ( 1.000000000000000000, -6.982962677686262766E-15, 0.000000000000000000 ) ) ;
#103 = LOCAL_TIME ( 12, 43, 54.00000000000000000, #24 ) ;
#104 = PERSON_AND_ORGANIZATION_ROLE ( 'creator' ) ;
#105 = DIRECTION ( 'NONE',  ( 1.000000000000000000, -6.982962677686262766E-15, 0.000000000000000000 ) ) ;
#106 = VERTEX_POINT ( 'NONE', #315 ) ;
#107 = CALENDAR_DATE ( 2024, 27, 2 ) ;
#108 = PRODUCT_DEFINITION ( 'UNKNOWN', '', #282, #193 ) ;
#109 = EDGE_CURVE ( 'NONE', #260, #361, #181, .T. ) ;
#110 = DIRECTION ( 'NONE',  ( 0.7071067811865466846, -7.319954787623252890E-15, -0.7071067811865483499 ) ) ;
#111 = APPROVAL_DATE_TIME ( #211, #330 ) ;
#112 = DIRECTION ( 'NONE',  ( -1.000000000000000000, 6.982962677686265922E-15, -4.876176775795935793E-29 ) ) ;
#113 = CIRCLE ( 'NONE', #45, 0.1250000000000000000 ) ;
#114 = PERSON_AND_ORGANIZATION ( #52, #188 ) ;
#115 = DIRECTION ( 'NONE',  ( 1.000000000000000000, -6.982962677686267499E-15, 0.000000000000000000 ) ) ;
#116 = APPROVAL_ROLE ( '' ) ;
#117 = FACE_OUTER_BOUND ( 'NONE', #292, .T. ) ;
#118 = VECTOR ( 'NONE', #343, 39.37007874015748143 ) ;
#119 = CC_DESIGN_SECURITY_CLASSIFICATION ( #262, ( #282 ) ) ;
#120 = CC_DESIGN_PERSON_AND_ORGANIZATION_ASSIGNMENT ( #296, #268, ( #282 ) ) ;
#121 = AXIS2_PLACEMENT_3D ( 'NONE', #205, #180, #102 ) ;
#122 = ORIENTED_EDGE ( 'NONE', *, *, #228, .T. ) ;
#123 = EDGE_CURVE ( 'NONE', #251, #309, #195, .T. ) ;
#124 = FACE_OUTER_BOUND ( 'NONE', #363, .T. ) ;
#125 = ORIENTED_EDGE ( 'NONE', *, *, #170, .T. ) ;
#126 = DIRECTION ( 'NONE',  ( -2.445468806185136597E-29, 3.491481338843145583E-15, 1.000000000000000000 ) ) ;
#127 = CARTESIAN_POINT ( 'NONE',  ( 4.890937612370273194E-29, -6.982962677686291165E-15, -2.000000000000000000 ) ) ;
#128 = ORIENTED_EDGE ( 'NONE', *, *, #64, .T. ) ;
#129 = DIRECTION ( 'NONE',  ( -2.445468806185136597E-29, 3.491481338843145583E-15, 1.000000000000000000 ) ) ;
#130 = VECTOR ( 'NONE', #308, 39.37007874015748854 ) ;
#131 = LOCAL_TIME ( 12, 43, 54.00000000000000000, #134 ) ;
#132 = DIRECTION ( 'NONE',  ( 0.000000000000000000, 0.000000000000000000, 1.000000000000000000 ) ) ;
#133 = DIRECTION ( 'NONE',  ( -2.445468806185136597E-29, 3.491481338843145583E-15, 1.000000000000000000 ) ) ;
#134 = COORDINATED_UNIVERSAL_TIME_OFFSET ( 5, 0, .BEHIND. ) ;
#135 = PERSON_AND_ORGANIZATION_ROLE ( 'design_supplier' ) ;
#136 = CARTESIAN_POINT ( 'NONE',  ( 7.332110811570563480E-16, 0.1049999999999997741, -3.666055405785295052E-16 ) ) ;
#137 = DIRECTION ( 'NONE',  ( 2.438088387897960049E-29, -3.491481338843145188E-15, -1.000000000000000000 ) ) ;
#138 = DIRECTION ( 'NONE',  ( 1.000000000000000000, -6.982962677686262766E-15, 0.000000000000000000 ) ) ;
#139 = CLOSED_SHELL ( 'NONE', ( #8, #49, #155, #222, #248, #89, #335, #185 ) ) ;
#140 = EDGE_CURVE ( 'NONE', #99, #253, #113, .T. ) ;
#141 = VERTEX_POINT ( 'NONE', #320 ) ;
#142 = CARTESIAN_POINT ( 'NONE',  ( 4.890937612370273194E-29, -6.982962677686291165E-15, -2.000000000000000000 ) ) ;
#143 = CC_DESIGN_PERSON_AND_ORGANIZATION_ASSIGNMENT ( #213, #135, ( #282 ) ) ;
#144 = APPLICATION_CONTEXT ( 'configuration controlled 3d designs of mechanical parts and assemblies' ) ;
#145 = ORIENTED_EDGE ( 'NONE', *, *, #123, .T. ) ;
#146 = CIRCLE ( 'NONE', #53, 0.1239999999999999991 ) ;
#147 = EDGE_CURVE ( 'NONE', #106, #149, #152, .T. ) ;
#148 = PRODUCT_DEFINITION_SHAPE ( 'NONE', 'NONE',  #108 ) ;
#149 = VERTEX_POINT ( 'NONE', #237 ) ;
#150 = FACE_OUTER_BOUND ( 'NONE', #258, .T. ) ;
#151 = ORIENTED_EDGE ( 'NONE', *, *, #161, .T. ) ;
#152 = CIRCLE ( 'NONE', #354, 0.1250000000000000000 ) ;
#153 = VECTOR ( 'NONE', #267, 39.37007874015748143 ) ;
#154 = ORIENTED_EDGE ( 'NONE', *, *, #360, .T. ) ;
#155 = ADVANCED_FACE ( 'NONE', ( #74 ), #244, .T. ) ;
#156 = ORIENTED_EDGE ( 'NONE', *, *, #109, .F. ) ;
#157 = CC_DESIGN_PERSON_AND_ORGANIZATION_ASSIGNMENT ( #114, #326, ( #262 ) ) ;
#158 =( CONVERSION_BASED_UNIT ( 'INCH', #321 ) LENGTH_UNIT ( ) NAMED_UNIT ( #345 ) );
#159 = DIRECTION ( 'NONE',  ( -1.000000000000000000, 6.982962677686265922E-15, -4.876176775795935793E-29 ) ) ;
#160 = AXIS2_PLACEMENT_3D ( 'NONE', #94, #133, #4 ) ;
#161 = EDGE_CURVE ( 'NONE', #361, #99, #235, .T. ) ;
#162 = APPROVAL_DATE_TIME ( #165, #305 ) ;
#163 = MANIFOLD_SOLID_BREP ( 'Body-Move/Copy2[2]', #139 ) ;
#164 = CARTESIAN_POINT ( 'NONE',  ( 0.1249999999999998612, -8.728703347107823527E-16, 6.095220969744912735E-30 ) ) ;
#165 = DATE_AND_TIME ( #290, #219 ) ;
#166 = DIRECTION ( 'NONE',  ( 1.000000000000000000, -6.982962677686266711E-15, 4.876176775795935793E-29 ) ) ;
#167 = CALENDAR_DATE ( 2024, 27, 2 ) ;
#168 = CARTESIAN_POINT ( 'NONE',  ( 4.890937612370278413E-31, -6.982962677686297772E-17, -0.02000000000000002123 ) ) ;
#169 = VERTEX_POINT ( 'NONE', #263 ) ;
#170 = EDGE_CURVE ( 'NONE', #251, #141, #10, .T. ) ;
#171 = APPROVAL_DATE_TIME ( #50, #75 ) ;
#172 = LINE ( 'NONE', #278, #130 ) ;
#173 = ORIENTED_EDGE ( 'NONE', *, *, #25, .T. ) ;
#174 = DIRECTION ( 'NONE',  ( -1.000000000000000000, 6.982962677686265922E-15, -4.876176775795935793E-29 ) ) ;
#175 = DIRECTION ( 'NONE',  ( 1.000000000000000000, -6.982962677686267499E-15, 0.000000000000000000 ) ) ;
#176 = CYLINDRICAL_SURFACE ( 'NONE', #323, 0.1249999999999998612 ) ;
#177 = ORIENTED_EDGE ( 'NONE', *, *, #147, .T. ) ;
#178 = DIRECTION ( 'NONE',  ( 1.000000000000000000, -6.982962677686262766E-15, 0.000000000000000000 ) ) ;
#179 = ORIENTED_EDGE ( 'NONE', *, *, #83, .F. ) ;
#180 = DIRECTION ( 'NONE',  ( -2.445468806185136597E-29, 3.491481338843145583E-15, 1.000000000000000000 ) ) ;
#181 = CIRCLE ( 'NONE', #121, 0.1239999999999999991 ) ;
#182 = DIRECTION ( 'NONE',  ( 1.000000000000000000, -6.982962677686262766E-15, 0.000000000000000000 ) ) ;
#183 = AXIS2_PLACEMENT_3D ( 'NONE', #189, #84, #115 ) ;
#184 = CARTESIAN_POINT ( 'NONE',  ( 4.890937612370278413E-31, -6.982962677686297772E-17, -0.02000000000000002123 ) ) ;
#185 = ADVANCED_FACE ( 'NONE', ( #117 ), #239, .F. ) ;
#186 = CARTESIAN_POINT ( 'NONE',  ( -0.1239999999999999991, -6.101889685343766941E-15, -2.000000000000000000 ) ) ;
#187 = APPROVAL_ROLE ( '' ) ;
#188 = ORGANIZATION ( 'UNSPECIFIED', 'UNSPECIFIED', '' ) ;
#189 = CARTESIAN_POINT ( 'NONE',  ( 4.890937612370278413E-31, -6.982962677686297772E-17, -0.02000000000000002123 ) ) ;
#190 = LINE ( 'NONE', #218, #78 ) ;
#191 = SHAPE_DEFINITION_REPRESENTATION ( #148, #272 ) ;
#192 = EDGE_CURVE ( 'NONE', #309, #92, #190, .T. ) ;
#193 = DESIGN_CONTEXT ( 'detailed design', #144, 'design' ) ;
#194 = CARTESIAN_POINT ( 'NONE',  ( 0.1049999999999997741, -8.238720831321559881E-16, 5.444276250344138855E-30 ) ) ;
#195 = CIRCLE ( 'NONE', #28, 0.1049999999999997741 ) ;
#196 = CIRCLE ( 'NONE', #277, 0.1250000000000000000 ) ;
#197 = CARTESIAN_POINT ( 'NONE',  ( 0.000000000000000000, 0.000000000000000000, 0.000000000000000000 ) ) ;
#198 = FACE_OUTER_BOUND ( 'NONE', #316, .T. ) ;
#199 = EDGE_LOOP ( 'NONE', ( #332, #334, #55, #36 ) ) ;
#200 = CC_DESIGN_APPROVAL ( #75, ( #262 ) ) ;
#201 = CARTESIAN_POINT ( 'NONE',  ( 0.1250000000000000000, -7.855833012397075293E-15, -2.000000000000000000 ) ) ;
#202 = EDGE_LOOP ( 'NONE', ( #286, #128, #173, #230 ) ) ;
#203 = CARTESIAN_POINT ( 'NONE',  ( -0.1250000000000000000, -2.636471991862026157E-15, -1.998999999999999888 ) ) ;
#204 = EDGE_CURVE ( 'NONE', #309, #251, #245, .T. ) ;
#205 = CARTESIAN_POINT ( 'NONE',  ( 4.890937612370273194E-29, -6.982962677686291165E-15, -2.000000000000000000 ) ) ;
#206 = CIRCLE ( 'NONE', #276, 0.1250000000000000000 ) ;
#207 = AXIS2_PLACEMENT_3D ( 'NONE', #339, #126, #231 ) ;
#208 = CARTESIAN_POINT ( 'NONE',  ( 4.888492143564087591E-29, -6.979471196347447369E-15, -1.998999999999999888 ) ) ;
#209 = DIRECTION ( 'NONE',  ( 1.000000000000000000, -6.982962677686262766E-15, 0.000000000000000000 ) ) ;
#210 = DIRECTION ( 'NONE',  ( 2.438088387897960049E-29, -3.491481338843145188E-15, -1.000000000000000000 ) ) ;
#211 = DATE_AND_TIME ( #107, #61 ) ;
#212 = DIRECTION ( 'NONE',  ( 1.000000000000000000, -6.982962677686262766E-15, 0.000000000000000000 ) ) ;
#213 = PERSON_AND_ORGANIZATION ( #52, #188 ) ;
#214 = FACE_OUTER_BOUND ( 'NONE', #250, .T. ) ;
#215 = APPROVAL_PERSON_ORGANIZATION ( #70, #330, #187 ) ;
#216 = PERSON_AND_ORGANIZATION_ROLE ( 'design_owner' ) ;
#217 = DIRECTION ( 'NONE',  ( -2.445468806185136597E-29, 3.491481338843145583E-15, 1.000000000000000000 ) ) ;
#218 = CARTESIAN_POINT ( 'NONE',  ( -0.1249999999999997363, 8.030407079339185615E-16, -0.02000000000000002123 ) ) ;
#219 = LOCAL_TIME ( 12, 43, 54.00000000000000000, #14 ) ;
#220 = DIRECTION ( 'NONE',  ( -2.438088387897960049E-29, 3.491481338843145188E-15, 1.000000000000000000 ) ) ;
#221 = CARTESIAN_POINT ( 'NONE',  ( -0.1049999999999997741, 7.681258945454874055E-16, -5.249639473182155366E-30 ) ) ;
#222 = ADVANCED_FACE ( 'NONE', ( #243 ), #329, .T. ) ;
#223 = AXIS2_PLACEMENT_3D ( 'NONE', #86, #220, #331 ) ;
#224 = CARTESIAN_POINT ( 'NONE',  ( 4.890937612370273194E-29, -6.982962677686291165E-15, -2.000000000000000000 ) ) ;
#225 = ORIENTED_EDGE ( 'NONE', *, *, #170, .F. ) ;
#226 = DIRECTION ( 'NONE',  ( 1.000000000000000000, -6.982962677686270655E-15, 0.000000000000000000 ) ) ;
#227 = ORIENTED_EDGE ( 'NONE', *, *, #266, .T. ) ;
#228 = EDGE_CURVE ( 'NONE', #106, #67, #18, .T. ) ;
#229 = DIRECTION ( 'NONE',  ( -2.445468806185136597E-29, 3.491481338843145583E-15, 1.000000000000000000 ) ) ;
#230 = ORIENTED_EDGE ( 'NONE', *, *, #140, .F. ) ;
#231 = DIRECTION ( 'NONE',  ( 1.000000000000000000, -6.982962677686266711E-15, 4.876176775795935793E-29 ) ) ;
#232 = ORIENTED_EDGE ( 'NONE', *, *, #17, .T. ) ;
#233 = ORIENTED_EDGE ( 'NONE', *, *, #192, .T. ) ;
#234 =( LENGTH_UNIT ( ) NAMED_UNIT ( * ) SI_UNIT ( $, .METRE. ) );
#235 = LINE ( 'NONE', #186, #32 ) ;
#236 = EDGE_LOOP ( 'NONE', ( #177, #85, #179, #289 ) ) ;
#237 = CARTESIAN_POINT ( 'NONE',  ( -0.1250000000000000000, -7.840524927407739710E-15, -3.000000000000000444 ) ) ;
#238 = DIRECTION ( 'NONE',  ( 1.000000000000000000, 0.000000000000000000, 0.000000000000000000 ) ) ;
#239 = PLANE ( 'NONE',  #252 ) ;
#240 = ORIENTED_EDGE ( 'NONE', *, *, #79, .T. ) ;
#241 = SECURITY_CLASSIFICATION_LEVEL ( 'unclassified' ) ;
#242 = EDGE_CURVE ( 'NONE', #141, #92, #297, .T. ) ;
#243 = FACE_OUTER_BOUND ( 'NONE', #27, .T. ) ;
#244 = CONICAL_SURFACE ( 'NONE', #87, 0.1249999999999997363, 0.7853981633974471688 ) ;
#245 = CIRCLE ( 'NONE', #362, 0.1049999999999997741 ) ;
#246 = CARTESIAN_POINT ( 'NONE',  ( 0.1239999999999999991, -7.848850049719387701E-15, -2.000000000000000000 ) ) ;
#247 = CARTESIAN_POINT ( 'NONE',  ( 4.888492143564087591E-29, -6.979471196347447369E-15, -1.998999999999999888 ) ) ;
#248 = ADVANCED_FACE ( 'NONE', ( #214 ), #325, .T. ) ;
#249 = FACE_OUTER_BOUND ( 'NONE', #236, .T. ) ;
#250 = EDGE_LOOP ( 'NONE', ( #280, #62, #227, #1 ) ) ;
#251 = VERTEX_POINT ( 'NONE', #194 ) ;
#252 = AXIS2_PLACEMENT_3D ( 'NONE', #136, #137, #112 ) ;
#253 = VERTEX_POINT ( 'NONE', #302 ) ;
#254 = PLANE ( 'NONE',  #9 ) ;
#255 = ORIENTED_EDGE ( 'NONE', *, *, #242, .T. ) ;
#256 = CIRCLE ( 'NONE', #160, 0.1250000000000000000 ) ;
#257 = DIRECTION ( 'NONE',  ( -2.445468806185136597E-29, 3.491481338843145583E-15, 1.000000000000000000 ) ) ;
#258 = EDGE_LOOP ( 'NONE', ( #23, #240 ) ) ;
#259 = CARTESIAN_POINT ( 'NONE',  ( 0.000000000000000000, 0.000000000000000000, 0.000000000000000000 ) ) ;
#260 = VERTEX_POINT ( 'NONE', #246 ) ;
#261 = CONICAL_SURFACE ( 'NONE', #306, 0.1239999999999999991, 0.7853981633974141952 ) ;
#262 = SECURITY_CLASSIFICATION ( '', '', #241 ) ;
#263 = CARTESIAN_POINT ( 'NONE',  ( -0.1250000000000000000, -7.840524927407739710E-15, -2.000000000000000000 ) ) ;
#264 = ORIENTED_EDGE ( 'NONE', *, *, #25, .F. ) ;
#265 = APPROVAL_STATUS ( 'not_yet_approved' ) ;
#266 = EDGE_CURVE ( 'NONE', #253, #141, #303, .T. ) ;
#267 = DIRECTION ( 'NONE',  ( -2.445468806185136877E-29, 3.491481338843145188E-15, 1.000000000000000000 ) ) ;
#268 = PERSON_AND_ORGANIZATION_ROLE ( 'creator' ) ;
#269 = MANIFOLD_SOLID_BREP ( 'Body-Move/Copy2[1]', #2 ) ;
#270 = DATE_AND_TIME ( #42, #95 ) ;
#271 = VECTOR ( 'NONE', #41, 39.37007874015748143 ) ;
#272 = ADVANCED_BREP_SHAPE_REPRESENTATION ( '34825', ( #269, #163, #355 ), #69 ) ;
#273 = DIRECTION ( 'NONE',  ( -1.000000000000000000, 6.982962677686267499E-15, 0.000000000000000000 ) ) ;
#274 = EDGE_LOOP ( 'NONE', ( #30, #154, #122, #365 ) ) ;
#275 = CALENDAR_DATE ( 2024, 27, 2 ) ;
#276 = AXIS2_PLACEMENT_3D ( 'NONE', #58, #279, #226 ) ;
#277 = AXIS2_PLACEMENT_3D ( 'NONE', #247, #358, #138 ) ;
#278 = CARTESIAN_POINT ( 'NONE',  ( 0.1239999999999999991, -7.848850049719387701E-15, -2.000000000000000000 ) ) ;
#279 = DIRECTION ( 'NONE',  ( -2.445468806185136597E-29, 3.491481338843145583E-15, 1.000000000000000000 ) ) ;
#280 = ORIENTED_EDGE ( 'NONE', *, *, #283, .F. ) ;
#281 = CONICAL_SURFACE ( 'NONE', #60, 0.1239999999999999991, 0.7853981633974141952 ) ;
#282 = PRODUCT_DEFINITION_FORMATION_WITH_SPECIFIED_SOURCE ( 'ANY', '', #364, .NOT_KNOWN. ) ;
#283 = EDGE_CURVE ( 'NONE', #99, #92, #47, .T. ) ;
#284 = ORIENTED_EDGE ( 'NONE', *, *, #64, .F. ) ;
#285 = CARTESIAN_POINT ( 'NONE',  ( 4.890937612370278413E-31, -6.982962677686297772E-17, -0.02000000000000002123 ) ) ;
#286 = ORIENTED_EDGE ( 'NONE', *, *, #161, .F. ) ;
#287 = DIRECTION ( 'NONE',  ( -2.445468806185136597E-29, 3.491481338843145583E-15, 1.000000000000000000 ) ) ;
#288 = ORIENTED_EDGE ( 'NONE', *, *, #109, .T. ) ;
#289 = ORIENTED_EDGE ( 'NONE', *, *, #228, .F. ) ;
#290 = CALENDAR_DATE ( 2024, 27, 2 ) ;
#291 = DIRECTION ( 'NONE',  ( 2.445468806185136597E-29, -3.491481338843145583E-15, -1.000000000000000000 ) ) ;
#292 = EDGE_LOOP ( 'NONE', ( #346, #145 ) ) ;
#293 = APPLICATION_PROTOCOL_DEFINITION ( 'international standard', 'config_control_design', 1994, #300 ) ;
#294 = CARTESIAN_POINT ( 'NONE',  ( -0.1250000000000000000, 8.881784197001252323E-16, -6.148668862818632227E-30 ) ) ;
#295 = EDGE_CURVE ( 'NONE', #253, #99, #196, .T. ) ;
#296 = PERSON_AND_ORGANIZATION ( #52, #188 ) ;
#297 = CIRCLE ( 'NONE', #183, 0.1249999999999997363 ) ;
#298 = ADVANCED_FACE ( 'NONE', ( #249 ), #359, .T. ) ;
#299 = COORDINATED_UNIVERSAL_TIME_OFFSET ( 5, 0, .BEHIND. ) ;
#300 = APPLICATION_CONTEXT ( 'configuration controlled 3d designs of mechanical parts and assemblies' ) ;
#301 = DIRECTION ( 'NONE',  ( 2.445468806185136597E-29, -3.491481338843145583E-15, -1.000000000000000000 ) ) ;
#302 = CARTESIAN_POINT ( 'NONE',  ( 0.1250000000000000000, -7.852341531058230708E-15, -1.998999999999999888 ) ) ;
#303 = LINE ( 'NONE', #164, #153 ) ;
#304 = PLANE ( 'NONE',  #223 ) ;
#305 = APPROVAL ( #322, 'UNSPECIFIED' ) ;
#306 = AXIS2_PLACEMENT_3D ( 'NONE', #127, #5, #105 ) ;
#307 = ADVANCED_FACE ( 'NONE', ( #124 ), #56, .T. ) ;
#308 = DIRECTION ( 'NONE',  ( 0.7071067811865232589, -2.468850131082003836E-15, 0.7071067811865715536 ) ) ;
#309 = VERTEX_POINT ( 'NONE', #221 ) ;
#310 = ADVANCED_FACE ( 'NONE', ( #88 ), #3, .T. ) ;
#311 = EDGE_LOOP ( 'NONE', ( #336, #125, #255, #65 ) ) ;
#312 = AXIS2_PLACEMENT_3D ( 'NONE', #285, #229, #175 ) ;
#313 = CC_DESIGN_APPROVAL ( #330, ( #282 ) ) ;
#314 = PRODUCT_RELATED_PRODUCT_CATEGORY ( 'detail', '', ( #364 ) ) ;
#315 = CARTESIAN_POINT ( 'NONE',  ( 0.1250000000000000000, -1.134731435124021969E-14, -3.000000000000000444 ) ) ;
#316 = EDGE_LOOP ( 'NONE', ( #288, #151, #63, #264 ) ) ;
#317 = PERSON_AND_ORGANIZATION ( #52, #188 ) ;
#318 = AXIS2_PLACEMENT_3D ( 'NONE', #101, #342, #174 ) ;
#319 = CARTESIAN_POINT ( 'NONE',  ( 7.336406418555409790E-29, -1.047444401652943635E-14, -3.000000000000000444 ) ) ;
#320 = CARTESIAN_POINT ( 'NONE',  ( 0.1249999999999997363, -9.273918764983025741E-16, -0.02000000000000002123 ) ) ;
#321 = LENGTH_MEASURE_WITH_UNIT ( LENGTH_MEASURE( 0.02539999999999999897 ), #234 );
#322 = APPROVAL_STATUS ( 'not_yet_approved' ) ;
#323 = AXIS2_PLACEMENT_3D ( 'NONE', #337, #22, #26 ) ;
#324 = APPROVAL_PERSON_ORGANIZATION ( #44, #75, #116 ) ;
#325 = CYLINDRICAL_SURFACE ( 'NONE', #33, 0.1249999999999998612 ) ;
#326 = PERSON_AND_ORGANIZATION_ROLE ( 'classification_officer' ) ;
#327 = CARTESIAN_POINT ( 'NONE',  ( 0.1250000000000000000, -8.728703347107833388E-16, 6.095220969744919741E-30 ) ) ;
#328 = DIRECTION ( 'NONE',  ( -0.7071067811865466846, 2.468850131082247989E-15, -0.7071067811865483499 ) ) ;
#329 = CONICAL_SURFACE ( 'NONE', #21, 0.1249999999999997363, 0.7853981633974471688 ) ;
#330 = APPROVAL ( #265, 'UNSPECIFIED' ) ;
#331 = DIRECTION ( 'NONE',  ( 1.000000000000000000, -6.982962677686265922E-15, 4.876176775795935793E-29 ) ) ;
#332 = ORIENTED_EDGE ( 'NONE', *, *, #295, .T. ) ;
#333 = DIRECTION ( 'NONE',  ( -2.445468806185136597E-29, 3.491481338843145583E-15, 1.000000000000000000 ) ) ;
#334 = ORIENTED_EDGE ( 'NONE', *, *, #283, .T. ) ;
#335 = ADVANCED_FACE ( 'NONE', ( #97 ), #304, .F. ) ;
#336 = ORIENTED_EDGE ( 'NONE', *, *, #123, .F. ) ;
#337 = CARTESIAN_POINT ( 'NONE',  ( 0.000000000000000000, 0.000000000000000000, 0.000000000000000000 ) ) ;
#338 = AXIS2_PLACEMENT_3D ( 'NONE', #73, #77, #209 ) ;
#339 = CARTESIAN_POINT ( 'NONE',  ( 0.000000000000000000, 0.000000000000000000, 0.000000000000000000 ) ) ;
#340 = CC_DESIGN_PERSON_AND_ORGANIZATION_ASSIGNMENT ( #317, #104, ( #108 ) ) ;
#341 = EDGE_LOOP ( 'NONE', ( #156, #284 ) ) ;
#342 = DIRECTION ( 'NONE',  ( 2.438088387897960049E-29, -3.491481338843145188E-15, -1.000000000000000000 ) ) ;
#343 = DIRECTION ( 'NONE',  ( -2.445468806185136877E-29, 3.491481338843145188E-15, 1.000000000000000000 ) ) ;
#344 = CARTESIAN_POINT ( 'NONE',  ( 8.728703347108321496E-16, 0.1249999999999930195, -2.000000000000000444 ) ) ;
#345 = DIMENSIONAL_EXPONENTS ( 1.000000000000000000, 0.000000000000000000, 0.000000000000000000, 0.000000000000000000, 0.000000000000000000, 0.000000000000000000, 0.000000000000000000 ) ;
#346 = ORIENTED_EDGE ( 'NONE', *, *, #204, .T. ) ;
#347 = PERSON_AND_ORGANIZATION ( #52, #188 ) ;
#348 = FACE_OUTER_BOUND ( 'NONE', #202, .T. ) ;
#349 = DATE_AND_TIME ( #167, #131 ) ;
#350 = CARTESIAN_POINT ( 'NONE',  ( 0.1249999999999997363, -9.273918764983025741E-16, -0.02000000000000002123 ) ) ;
#351 = DATE_TIME_ROLE ( 'creation_date' ) ;
#352 = DIRECTION ( 'NONE',  ( 1.000000000000000000, -6.982962677686265922E-15, 4.876176775795935232E-29 ) ) ;
#353 =( NAMED_UNIT ( * ) PLANE_ANGLE_UNIT ( ) SI_UNIT ( $, .RADIAN. ) );
#354 = AXIS2_PLACEMENT_3D ( 'NONE', #319, #71, #212 ) ;
#355 = AXIS2_PLACEMENT_3D ( 'NONE', #259, #132, #238 ) ;
#356 =( NAMED_UNIT ( * ) SI_UNIT ( $, .STERADIAN. ) SOLID_ANGLE_UNIT ( ) );
#357 = DATE_TIME_ROLE ( 'classification_date' ) ;
#358 = DIRECTION ( 'NONE',  ( -2.445468806185136597E-29, 3.491481338843145583E-15, 1.000000000000000000 ) ) ;
#359 = CYLINDRICAL_SURFACE ( 'NONE', #16, 0.1250000000000000000 ) ;
#360 = EDGE_CURVE ( 'NONE', #149, #106, #46, .T. ) ;
#361 = VERTEX_POINT ( 'NONE', #13 ) ;
#362 = AXIS2_PLACEMENT_3D ( 'NONE', #197, #217, #352 ) ;
#363 = EDGE_LOOP ( 'NONE', ( #31, #59 ) ) ;
#364 = PRODUCT ( '34825', '34825', '', ( #11 ) ) ;
#365 = ORIENTED_EDGE ( 'NONE', *, *, #79, .F. ) ;
#366 = FACE_OUTER_BOUND ( 'NONE', #199, .T. ) ;
ENDSEC;
END-ISO-10303-21;
