ISO-10303-21;
HEADER;
FILE_DESCRIPTION (( 'STEP AP203' ),
    '1' );
FILE_NAME ('36530.STEP',
    '2024-02-27T19:30:20',
    ( '' ),
    ( '' ),
    'SwSTEP 2.0',
    'SolidWorks 2023',
    '' );
FILE_SCHEMA (( 'CONFIG_CONTROL_DESIGN' ));
ENDSEC;

DATA;
#1 = ORIENTED_EDGE ( 'NONE', *, *, #8, .F. ) ;
#2 = ORIENTED_EDGE ( 'NONE', *, *, #174, .T. ) ;
#3 = CALENDAR_DATE ( 2024, 27, 2 ) ;
#4 = CARTESIAN_POINT ( 'NONE',  ( 0.000000000000000000, 0.000000000000000000, 0.000000000000000000 ) ) ;
#5 = ORIENTED_EDGE ( 'NONE', *, *, #46, .F. ) ;
#6 = PLANE ( 'NONE',  #40 ) ;
#7 = DIRECTION ( 'NONE',  ( -2.445468806185136597E-29, 3.491481338843145583E-15, 1.000000000000000000 ) ) ;
#8 = EDGE_CURVE ( 'NONE', #47, #129, #198, .T. ) ;
#9 = DATE_AND_TIME ( #3, #229 ) ;
#10 = DIRECTION ( 'NONE',  ( 1.000000000000000000, -6.982962677686269077E-15, 0.000000000000000000 ) ) ;
#11 = CIRCLE ( 'NONE', #16, 0.1874999999999996947 ) ;
#12 = CYLINDRICAL_SURFACE ( 'NONE', #237, 0.1874999999999999722 ) ;
#13 = CYLINDRICAL_SURFACE ( 'NONE', #352, 0.1874999999999998057 ) ;
#14 = APPLICATION_CONTEXT ( 'configuration controlled 3d designs of mechanical parts and assemblies' ) ;
#15 = CARTESIAN_POINT ( 'NONE',  ( 3.971441341244662488E-29, -5.670165694281269206E-15, -1.624000000000000110 ) ) ;
#16 = AXIS2_PLACEMENT_3D ( 'NONE', #170, #68, #322 ) ;
#17 = VERTEX_POINT ( 'NONE', #347 ) ;
#18 =( NAMED_UNIT ( * ) PLANE_ANGLE_UNIT ( ) SI_UNIT ( $, .RADIAN. ) );
#19 = CLOSED_SHELL ( 'NONE', ( #255, #250, #360, #193, #361, #365, #28, #307 ) ) ;
#20 = CC_DESIGN_APPROVAL ( #162, ( #118 ) ) ;
#21 = ORIENTED_EDGE ( 'NONE', *, *, #224, .F. ) ;
#22 = PERSON_AND_ORGANIZATION_ROLE ( 'design_owner' ) ;
#23 = FACE_OUTER_BOUND ( 'NONE', #50, .T. ) ;
#24 = CIRCLE ( 'NONE', #248, 0.1874999999999999722 ) ;
#25 = DIRECTION ( 'NONE',  ( 2.445468806185136597E-29, -3.491481338843145583E-15, -1.000000000000000000 ) ) ;
#26 = ADVANCED_BREP_SHAPE_REPRESENTATION ( '36530', ( #320, #74, #311 ), #116 ) ;
#27 = VERTEX_POINT ( 'NONE', #206 ) ;
#28 = ADVANCED_FACE ( 'NONE', ( #59 ), #99, .F. ) ;
#29 = DIRECTION ( 'NONE',  ( 1.000000000000000000, -6.982962677686269077E-15, 0.000000000000000000 ) ) ;
#30 = AXIS2_PLACEMENT_3D ( 'NONE', #256, #159, #43 ) ;
#31 = CARTESIAN_POINT ( 'NONE',  ( 0.1874999999999999167, -6.979471196347443425E-15, -1.624000000000000110 ) ) ;
#32 = VECTOR ( 'NONE', #136, 39.37007874015748143 ) ;
#33 = CALENDAR_DATE ( 2024, 27, 2 ) ;
#34 = EDGE_CURVE ( 'NONE', #82, #230, #228, .T. ) ;
#35 = LENGTH_MEASURE_WITH_UNIT ( LENGTH_MEASURE( 0.02539999999999999897 ), #271 );
#36 = CARTESIAN_POINT ( 'NONE',  ( 1.169646248512447623E-15, 0.1674999999999997047, -6.040314304616777037E-16 ) ) ;
#37 = EDGE_CURVE ( 'NONE', #362, #47, #153, .T. ) ;
#38 = CYLINDRICAL_SURFACE ( 'NONE', #265, 0.1874999999999998057 ) ;
#39 = CARTESIAN_POINT ( 'NONE',  ( 3.973886810050848091E-29, -5.673657175620113002E-15, -1.625000000000000222 ) ) ;
#40 = AXIS2_PLACEMENT_3D ( 'NONE', #36, #355, #89 ) ;
#41 = APPLICATION_PROTOCOL_DEFINITION ( 'international standard', 'config_control_design', 1994, #304 ) ;
#42 = EDGE_LOOP ( 'NONE', ( #1, #249, #254, #133 ) ) ;
#43 = DIRECTION ( 'NONE',  ( -1.000000000000000000, 6.982962677686265922E-15, -4.876176775795935793E-29 ) ) ;
#44 = AXIS2_PLACEMENT_3D ( 'NONE', #212, #65, #246 ) ;
#45 = LINE ( 'NONE', #187, #128 ) ;
#46 = EDGE_CURVE ( 'NONE', #27, #258, #244, .T. ) ;
#47 = VERTEX_POINT ( 'NONE', #272 ) ;
#48 = VECTOR ( 'NONE', #79, 39.37007874015748143 ) ;
#49 = APPROVAL_PERSON_ORGANIZATION ( #211, #85, #354 ) ;
#50 = EDGE_LOOP ( 'NONE', ( #152, #341 ) ) ;
#51 = DIRECTION ( 'NONE',  ( 1.000000000000000000, -6.982962677686265922E-15, 0.000000000000000000 ) ) ;
#52 = ORIENTED_EDGE ( 'NONE', *, *, #64, .T. ) ;
#53 = CIRCLE ( 'NONE', #154, 0.1874999999999999722 ) ;
#54 = SECURITY_CLASSIFICATION ( '', '', #251 ) ;
#55 = DIRECTION ( 'NONE',  ( -2.445468806185136877E-29, 3.491481338843145188E-15, 1.000000000000000000 ) ) ;
#56 = ADVANCED_FACE ( 'NONE', ( #141 ), #275, .T. ) ;
#57 = DATE_AND_TIME ( #328, #266 ) ;
#58 = CARTESIAN_POINT ( 'NONE',  ( 0.000000000000000000, 0.000000000000000000, 0.000000000000000000 ) ) ;
#59 = FACE_OUTER_BOUND ( 'NONE', #122, .T. ) ;
#60 = PERSON_AND_ORGANIZATION ( #243, #225 ) ;
#61 = DIRECTION ( 'NONE',  ( 1.000000000000000000, -6.982962677686269077E-15, 0.000000000000000000 ) ) ;
#62 = PERSON_AND_ORGANIZATION_ROLE ( 'creator' ) ;
#63 = DIRECTION ( 'NONE',  ( -2.445468806185136597E-29, 3.491481338843145583E-15, 1.000000000000000000 ) ) ;
#64 = EDGE_CURVE ( 'NONE', #236, #339, #161, .T. ) ;
#65 = DIRECTION ( 'NONE',  ( -2.445468806185136597E-29, 3.491481338843145583E-15, 1.000000000000000000 ) ) ;
#66 = LINE ( 'NONE', #302, #284 ) ;
#67 = PERSON_AND_ORGANIZATION ( #243, #225 ) ;
#68 = DIRECTION ( 'NONE',  ( -2.445468806185136597E-29, 3.491481338843145583E-15, 1.000000000000000000 ) ) ;
#69 = UNCERTAINTY_MEASURE_WITH_UNIT (LENGTH_MEASURE( 1.000000000000000082E-05 ), #240, 'distance_accuracy_value', 'NONE');
#70 = CIRCLE ( 'NONE', #132, 0.1874999999999999722 ) ;
#71 = DIRECTION ( 'NONE',  ( 0.7071067811865466846, -7.319954787623252890E-15, -0.7071067811865483499 ) ) ;
#72 = PLANE ( 'NONE',  #30 ) ;
#73 = DIRECTION ( 'NONE',  ( -2.445468806185136877E-29, 3.491481338843145188E-15, 1.000000000000000000 ) ) ;
#74 = MANIFOLD_SOLID_BREP ( 'Body-Move/Copy2[2]', #19 ) ;
#75 = CONICAL_SURFACE ( 'NONE', #196, 0.1864999999999999714, 0.7853981633973801113 ) ;
#76 = CIRCLE ( 'NONE', #346, 0.1864999999999999714 ) ;
#77 = LINE ( 'NONE', #283, #48 ) ;
#78 = APPROVAL_STATUS ( 'not_yet_approved' ) ;
#79 = DIRECTION ( 'NONE',  ( -0.7071067811865466846, 2.468850131082247989E-15, -0.7071067811865483499 ) ) ;
#80 = ORIENTED_EDGE ( 'NONE', *, *, #130, .F. ) ;
#81 = VECTOR ( 'NONE', #71, 39.37007874015748143 ) ;
#82 = VERTEX_POINT ( 'NONE', #279 ) ;
#83 = CARTESIAN_POINT ( 'NONE',  ( 4.890937612370292426E-31, -6.982962677686317493E-17, -0.02000000000000007674 ) ) ;
#84 = DIMENSIONAL_EXPONENTS ( 1.000000000000000000, 0.000000000000000000, 0.000000000000000000, 0.000000000000000000, 0.000000000000000000, 0.000000000000000000, 0.000000000000000000 ) ;
#85 = APPROVAL ( #134, 'UNSPECIFIED' ) ;
#86 = FACE_OUTER_BOUND ( 'NONE', #337, .T. ) ;
#87 = DIRECTION ( 'NONE',  ( -2.438088387897960049E-29, 3.491481338843145188E-15, 1.000000000000000000 ) ) ;
#88 = CALENDAR_DATE ( 2024, 27, 2 ) ;
#89 = DIRECTION ( 'NONE',  ( -1.000000000000000000, 6.982962677686265922E-15, -4.876176775795935793E-29 ) ) ;
#90 = CARTESIAN_POINT ( 'NONE',  ( 0.1874999999999999722, -6.982962677686288010E-15, -1.625000000000000222 ) ) ;
#91 = DIRECTION ( 'NONE',  ( 1.000000000000000000, -6.982962677686269077E-15, 0.000000000000000000 ) ) ;
#92 = DIRECTION ( 'NONE',  ( -1.000000000000000000, 6.982962677686266711E-15, 0.000000000000000000 ) ) ;
#93 = DIRECTION ( 'NONE',  ( -2.445468806185136597E-29, 3.491481338843145583E-15, 1.000000000000000000 ) ) ;
#94 = CIRCLE ( 'NONE', #44, 0.1874999999999999722 ) ;
#95 = ORIENTED_EDGE ( 'NONE', *, *, #34, .F. ) ;
#96 = PERSON_AND_ORGANIZATION ( #243, #225 ) ;
#97 = EDGE_CURVE ( 'NONE', #236, #362, #66, .T. ) ;
#98 = ORIENTED_EDGE ( 'NONE', *, *, #37, .T. ) ;
#99 = PLANE ( 'NONE',  #314 ) ;
#100 = ADVANCED_FACE ( 'NONE', ( #117 ), #12, .T. ) ;
#101 = CIRCLE ( 'NONE', #114, 0.1674999999999997047 ) ;
#102 = ORIENTED_EDGE ( 'NONE', *, *, #291, .F. ) ;
#103 = CC_DESIGN_PERSON_AND_ORGANIZATION_ASSIGNMENT ( #67, #179, ( #118 ) ) ;
#104 = EDGE_LOOP ( 'NONE', ( #5, #195, #107, #102 ) ) ;
#105 = DIRECTION ( 'NONE',  ( -1.000000000000000000, 6.982962677686266711E-15, 0.000000000000000000 ) ) ;
#106 = DATE_AND_TIME ( #299, #139 ) ;
#107 = ORIENTED_EDGE ( 'NONE', *, *, #207, .T. ) ;
#108 = ADVANCED_FACE ( 'NONE', ( #331 ), #72, .T. ) ;
#109 = APPROVAL_DATE_TIME ( #106, #162 ) ;
#110 = FACE_OUTER_BOUND ( 'NONE', #261, .T. ) ;
#111 = ORIENTED_EDGE ( 'NONE', *, *, #312, .T. ) ;
#112 = DIRECTION ( 'NONE',  ( -2.445468806185136597E-29, 3.491481338843145583E-15, 1.000000000000000000 ) ) ;
#113 = PERSON_AND_ORGANIZATION ( #243, #225 ) ;
#114 = AXIS2_PLACEMENT_3D ( 'NONE', #336, #191, #227 ) ;
#115 = CARTESIAN_POINT ( 'NONE',  ( -0.1864999999999999714, -4.343196519079303759E-15, -1.625000000000000222 ) ) ;
#116 =( GEOMETRIC_REPRESENTATION_CONTEXT ( 3 ) GLOBAL_UNCERTAINTY_ASSIGNED_CONTEXT ( ( #69 ) ) GLOBAL_UNIT_ASSIGNED_CONTEXT ( ( #240, #18, #358 ) ) REPRESENTATION_CONTEXT ( 'NONE', 'WORKASPACE' ) );
#117 = FACE_OUTER_BOUND ( 'NONE', #214, .T. ) ;
#118 = PRODUCT_DEFINITION ( 'UNKNOWN', '', #364, #267 ) ;
#119 = EDGE_CURVE ( 'NONE', #230, #164, #262, .T. ) ;
#120 = DIRECTION ( 'NONE',  ( -2.445468806185136597E-29, 3.491481338843145583E-15, 1.000000000000000000 ) ) ;
#121 = EDGE_LOOP ( 'NONE', ( #222, #158, #156, #169 ) ) ;
#122 = EDGE_LOOP ( 'NONE', ( #173, #202 ) ) ;
#123 = AXIS2_PLACEMENT_3D ( 'NONE', #149, #332, #184 ) ;
#124 = LOCAL_TIME ( 14, 30, 20.00000000000000000, #321 ) ;
#125 = ORIENTED_EDGE ( 'NONE', *, *, #97, .T. ) ;
#126 = DIRECTION ( 'NONE',  ( 1.000000000000000000, 0.000000000000000000, 0.000000000000000000 ) ) ;
#127 = ORIENTED_EDGE ( 'NONE', *, *, #34, .T. ) ;
#128 = VECTOR ( 'NONE', #73, 39.37007874015748143 ) ;
#129 = VERTEX_POINT ( 'NONE', #223 ) ;
#130 = EDGE_CURVE ( 'NONE', #362, #164, #45, .T. ) ;
#131 = ORIENTED_EDGE ( 'NONE', *, *, #313, .F. ) ;
#132 = AXIS2_PLACEMENT_3D ( 'NONE', #146, #278, #10 ) ;
#133 = ORIENTED_EDGE ( 'NONE', *, *, #166, .F. ) ;
#134 = APPROVAL_STATUS ( 'not_yet_approved' ) ;
#135 = ORIENTED_EDGE ( 'NONE', *, *, #330, .T. ) ;
#136 = DIRECTION ( 'NONE',  ( -2.445468806185136877E-29, 3.491481338843145188E-15, 1.000000000000000000 ) ) ;
#137 = AXIS2_PLACEMENT_3D ( 'NONE', #264, #318, #200 ) ;
#138 = PERSON_AND_ORGANIZATION_ROLE ( 'design_supplier' ) ;
#139 = LOCAL_TIME ( 14, 30, 20.00000000000000000, #194 ) ;
#140 = CARTESIAN_POINT ( 'NONE',  ( -0.1864999999999999714, -4.348494973427526161E-15, -1.625000000000000222 ) ) ;
#141 = FACE_OUTER_BOUND ( 'NONE', #104, .T. ) ;
#142 = DATE_AND_TIME ( #33, #124 ) ;
#143 = DIRECTION ( 'NONE',  ( 1.000000000000000000, -6.982962677686266711E-15, 4.876176775795935793E-29 ) ) ;
#144 = DIRECTION ( 'NONE',  ( 1.000000000000000000, -6.982962677686266711E-15, 4.876176775795935793E-29 ) ) ;
#145 = DATE_AND_TIME ( #88, #221 ) ;
#146 = CARTESIAN_POINT ( 'NONE',  ( 6.113672015462842613E-29, -8.728703347107864943E-15, -2.500000000000000000 ) ) ;
#147 = DIRECTION ( 'NONE',  ( 0.7071067811864992780, -2.468850131081751401E-15, 0.7071067811865957564 ) ) ;
#148 = FACE_OUTER_BOUND ( 'NONE', #234, .T. ) ;
#149 = CARTESIAN_POINT ( 'NONE',  ( 3.971441341244662488E-29, -5.670165694281269206E-15, -1.624000000000000110 ) ) ;
#150 = CARTESIAN_POINT ( 'NONE',  ( 0.1874999999999996947, -1.356173001359023297E-15, -0.02000000000000007674 ) ) ;
#151 = DIRECTION ( 'NONE',  ( 0.000000000000000000, 0.000000000000000000, 1.000000000000000000 ) ) ;
#152 = ORIENTED_EDGE ( 'NONE', *, *, #282, .T. ) ;
#153 = CIRCLE ( 'NONE', #123, 0.1874999999999999167 ) ;
#154 = AXIS2_PLACEMENT_3D ( 'NONE', #301, #181, #281 ) ;
#155 = CARTESIAN_POINT ( 'NONE',  ( 4.890937612370292426E-31, -6.982962677686317493E-17, -0.02000000000000007674 ) ) ;
#156 = ORIENTED_EDGE ( 'NONE', *, *, #224, .T. ) ;
#157 = DIRECTION ( 'NONE',  ( -2.445468806185136597E-29, 3.491481338843145583E-15, 1.000000000000000000 ) ) ;
#158 = ORIENTED_EDGE ( 'NONE', *, *, #119, .T. ) ;
#159 = DIRECTION ( 'NONE',  ( 2.438088387897960049E-29, -3.491481338843145188E-15, -1.000000000000000000 ) ) ;
#160 = EDGE_CURVE ( 'NONE', #230, #82, #101, .T. ) ;
#161 = CIRCLE ( 'NONE', #309, 0.1864999999999999714 ) ;
#162 = APPROVAL ( #78, 'UNSPECIFIED' ) ;
#163 = CARTESIAN_POINT ( 'NONE',  ( -0.1874999999999998057, 1.332267629550186468E-15, -9.223003294227938181E-30 ) ) ;
#164 = VERTEX_POINT ( 'NONE', #308 ) ;
#165 = PLANE ( 'NONE',  #137 ) ;
#166 = EDGE_CURVE ( 'NONE', #129, #164, #345, .T. ) ;
#167 = AXIS2_PLACEMENT_3D ( 'NONE', #155, #157, #359 ) ;
#168 = CC_DESIGN_APPROVAL ( #268, ( #364 ) ) ;
#169 = ORIENTED_EDGE ( 'NONE', *, *, #174, .F. ) ;
#170 = CARTESIAN_POINT ( 'NONE',  ( 4.890937612370292426E-31, -6.982962677686317493E-17, -0.02000000000000007674 ) ) ;
#171 = COORDINATED_UNIVERSAL_TIME_OFFSET ( 5, 0, .BEHIND. ) ;
#172 = DIRECTION ( 'NONE',  ( 1.000000000000000000, -6.982962677686266711E-15, 4.876176775795935793E-29 ) ) ;
#173 = ORIENTED_EDGE ( 'NONE', *, *, #64, .F. ) ;
#174 = EDGE_CURVE ( 'NONE', #82, #129, #77, .T. ) ;
#175 = PERSON_AND_ORGANIZATION ( #243, #225 ) ;
#176 = DIRECTION ( 'NONE',  ( -0.7071067811864992780, 7.493145998870180611E-15, 0.7071067811865957564 ) ) ;
#177 = CONICAL_SURFACE ( 'NONE', #287, 0.1874999999999996947, 0.7853981633974471688 ) ;
#178 = APPROVAL_PERSON_ORGANIZATION ( #342, #162, #338 ) ;
#179 = PERSON_AND_ORGANIZATION_ROLE ( 'creator' ) ;
#180 = EDGE_CURVE ( 'NONE', #47, #362, #325, .T. ) ;
#181 = DIRECTION ( 'NONE',  ( -2.445468806185136597E-29, 3.491481338843145583E-15, 1.000000000000000000 ) ) ;
#182 = DIRECTION ( 'NONE',  ( -2.445468806185136597E-29, 3.491481338843145583E-15, 1.000000000000000000 ) ) ;
#183 = CARTESIAN_POINT ( 'NONE',  ( -0.1874999999999999722, -5.868912631813800729E-15, -1.625000000000000222 ) ) ;
#184 = DIRECTION ( 'NONE',  ( 1.000000000000000000, -6.982962677686265922E-15, 0.000000000000000000 ) ) ;
#185 = CARTESIAN_POINT ( 'NONE',  ( 3.973886810050848091E-29, -5.673657175620113002E-15, -1.625000000000000222 ) ) ;
#186 = CARTESIAN_POINT ( 'NONE',  ( -0.1874999999999999722, 1.332267629550187651E-15, -9.223003294227946589E-30 ) ) ;
#187 = CARTESIAN_POINT ( 'NONE',  ( 0.1874999999999998057, -1.309305502066173628E-15, 9.142831454617369803E-30 ) ) ;
#188 = ADVANCED_FACE ( 'NONE', ( #23 ), #165, .F. ) ;
#189 = CARTESIAN_POINT ( 'NONE',  ( 0.000000000000000000, 0.000000000000000000, 0.000000000000000000 ) ) ;
#190 = APPROVAL_PERSON_ORGANIZATION ( #175, #268, #277 ) ;
#191 = DIRECTION ( 'NONE',  ( -2.445468806185136597E-29, 3.491481338843145583E-15, 1.000000000000000000 ) ) ;
#192 = PRODUCT ( '36530', '36530', '', ( #286 ) ) ;
#193 = ADVANCED_FACE ( 'NONE', ( #290 ), #177, .T. ) ;
#194 = COORDINATED_UNIVERSAL_TIME_OFFSET ( 5, 0, .BEHIND. ) ;
#195 = ORIENTED_EDGE ( 'NONE', *, *, #270, .T. ) ;
#196 = AXIS2_PLACEMENT_3D ( 'NONE', #185, #120, #215 ) ;
#197 = CONICAL_SURFACE ( 'NONE', #238, 0.1874999999999996947, 0.7853981633974471688 ) ;
#198 = LINE ( 'NONE', #163, #257 ) ;
#199 = EDGE_LOOP ( 'NONE', ( #343, #95, #2, #239 ) ) ;
#200 = DIRECTION ( 'NONE',  ( -1.000000000000000000, 6.982962677686265922E-15, -4.876176775795935793E-29 ) ) ;
#201 = AXIS2_PLACEMENT_3D ( 'NONE', #220, #216, #210 ) ;
#202 = ORIENTED_EDGE ( 'NONE', *, *, #312, .F. ) ;
#203 = APPROVAL_DATE_TIME ( #57, #85 ) ;
#204 = CARTESIAN_POINT ( 'NONE',  ( 3.973886810050848091E-29, -5.673657175620113002E-15, -1.625000000000000222 ) ) ;
#205 = CC_DESIGN_DATE_AND_TIME_ASSIGNMENT ( #145, #209, ( #118 ) ) ;
#206 = CARTESIAN_POINT ( 'NONE',  ( -0.1874999999999999722, -5.868912631813800729E-15, -2.500000000000000000 ) ) ;
#207 = EDGE_CURVE ( 'NONE', #17, #289, #233, .T. ) ;
#208 = ORIENTED_EDGE ( 'NONE', *, *, #37, .F. ) ;
#209 = DATE_TIME_ROLE ( 'creation_date' ) ;
#210 = DIRECTION ( 'NONE',  ( 1.000000000000000000, -6.982962677686266711E-15, 4.875370901645449596E-29 ) ) ;
#211 = PERSON_AND_ORGANIZATION ( #243, #225 ) ;
#212 = CARTESIAN_POINT ( 'NONE',  ( 6.113672015462842613E-29, -8.728703347107864943E-15, -2.500000000000000000 ) ) ;
#213 = CARTESIAN_POINT ( 'NONE',  ( 0.000000000000000000, 0.000000000000000000, 0.000000000000000000 ) ) ;
#214 = EDGE_LOOP ( 'NONE', ( #285, #366, #292, #226 ) ) ;
#215 = DIRECTION ( 'NONE',  ( 1.000000000000000000, -6.982962677686269077E-15, 0.000000000000000000 ) ) ;
#216 = DIRECTION ( 'NONE',  ( -2.445468806185136597E-29, 3.491481338843145583E-15, 1.000000000000000000 ) ) ;
#217 = LINE ( 'NONE', #140, #298 ) ;
#218 = DIRECTION ( 'NONE',  ( 1.000000000000000000, -6.982962677686266711E-15, 4.876176775795935793E-29 ) ) ;
#219 = CC_DESIGN_DATE_AND_TIME_ASSIGNMENT ( #142, #349, ( #54 ) ) ;
#220 = CARTESIAN_POINT ( 'NONE',  ( 9.394662729016977403E-46, -1.341308853342402453E-31, -3.841661241090370459E-17 ) ) ;
#221 = LOCAL_TIME ( 14, 30, 20.00000000000000000, #296 ) ;
#222 = ORIENTED_EDGE ( 'NONE', *, *, #160, .F. ) ;
#223 = CARTESIAN_POINT ( 'NONE',  ( -0.1874999999999996947, 1.239475875289309738E-15, -0.02000000000000007674 ) ) ;
#224 = EDGE_CURVE ( 'NONE', #164, #129, #11, .T. ) ;
#225 = ORGANIZATION ( 'UNSPECIFIED', 'UNSPECIFIED', '' ) ;
#226 = ORIENTED_EDGE ( 'NONE', *, *, #207, .F. ) ;
#227 = DIRECTION ( 'NONE',  ( 1.000000000000000000, -6.982962677686266711E-15, 4.875370901645449596E-29 ) ) ;
#228 = CIRCLE ( 'NONE', #201, 0.1674999999999997047 ) ;
#229 = LOCAL_TIME ( 14, 30, 20.00000000000000000, #305 ) ;
#230 = VERTEX_POINT ( 'NONE', #306 ) ;
#231 = APPLICATION_PROTOCOL_DEFINITION ( 'international standard', 'config_control_design', 1994, #14 ) ;
#232 = ORIENTED_EDGE ( 'NONE', *, *, #160, .T. ) ;
#233 = LINE ( 'NONE', #344, #273 ) ;
#234 = EDGE_LOOP ( 'NONE', ( #127, #232 ) ) ;
#235 = PERSON_AND_ORGANIZATION_ROLE ( 'classification_officer' ) ;
#236 = VERTEX_POINT ( 'NONE', #294 ) ;
#237 = AXIS2_PLACEMENT_3D ( 'NONE', #356, #93, #218 ) ;
#238 = AXIS2_PLACEMENT_3D ( 'NONE', #252, #297, #92 ) ;
#239 = ORIENTED_EDGE ( 'NONE', *, *, #166, .T. ) ;
#240 =( CONVERSION_BASED_UNIT ( 'INCH', #35 ) LENGTH_UNIT ( ) NAMED_UNIT ( #84 ) );
#241 = PERSON_AND_ORGANIZATION ( #243, #225 ) ;
#242 = DIRECTION ( 'NONE',  ( -2.445468806185136597E-29, 3.491481338843145583E-15, 1.000000000000000000 ) ) ;
#243 = PERSON ( 'UNSPECIFIED', 'UNSPECIFIED', 'UNSPECIFIED', ('UNSPECIFIED'), ('UNSPECIFIED'), ('UNSPECIFIED') ) ;
#244 = LINE ( 'NONE', #186, #32 ) ;
#245 = APPROVAL_DATE_TIME ( #9, #268 ) ;
#246 = DIRECTION ( 'NONE',  ( 1.000000000000000000, -6.982962677686269077E-15, 0.000000000000000000 ) ) ;
#247 = DIRECTION ( 'NONE',  ( 1.000000000000000000, -6.982962677686265922E-15, 4.876176775795935793E-29 ) ) ;
#248 = AXIS2_PLACEMENT_3D ( 'NONE', #324, #112, #61 ) ;
#249 = ORIENTED_EDGE ( 'NONE', *, *, #180, .T. ) ;
#250 = ADVANCED_FACE ( 'NONE', ( #274 ), #38, .T. ) ;
#251 = SECURITY_CLASSIFICATION_LEVEL ( 'unclassified' ) ;
#252 = CARTESIAN_POINT ( 'NONE',  ( 4.890937612370292426E-31, -6.982962677686317493E-17, -0.02000000000000007674 ) ) ;
#253 = DIRECTION ( 'NONE',  ( -2.445468806185136597E-29, 3.491481338843145583E-15, 1.000000000000000000 ) ) ;
#254 = ORIENTED_EDGE ( 'NONE', *, *, #130, .T. ) ;
#255 = ADVANCED_FACE ( 'NONE', ( #86 ), #75, .T. ) ;
#256 = CARTESIAN_POINT ( 'NONE',  ( 1.309305502066235948E-15, 0.1874999999999912292, -2.500000000000000444 ) ) ;
#257 = VECTOR ( 'NONE', #288, 39.37007874015748143 ) ;
#258 = VERTEX_POINT ( 'NONE', #183 ) ;
#259 = CC_DESIGN_SECURITY_CLASSIFICATION ( #54, ( #364 ) ) ;
#260 = CC_DESIGN_PERSON_AND_ORGANIZATION_ASSIGNMENT ( #60, #62, ( #364 ) ) ;
#261 = EDGE_LOOP ( 'NONE', ( #357, #111, #125, #269 ) ) ;
#262 = LINE ( 'NONE', #150, #81 ) ;
#263 = AXIS2_PLACEMENT_3D ( 'NONE', #15, #317, #51 ) ;
#264 = CARTESIAN_POINT ( 'NONE',  ( 1.309305502066214648E-15, 0.1874999999999943101, -1.625000000000000888 ) ) ;
#265 = AXIS2_PLACEMENT_3D ( 'NONE', #4, #351, #143 ) ;
#266 = LOCAL_TIME ( 14, 30, 20.00000000000000000, #171 ) ;
#267 = DESIGN_CONTEXT ( 'detailed design', #14, 'design' ) ;
#268 = APPROVAL ( #293, 'UNSPECIFIED' ) ;
#269 = ORIENTED_EDGE ( 'NONE', *, *, #180, .F. ) ;
#270 = EDGE_CURVE ( 'NONE', #27, #17, #94, .T. ) ;
#271 =( LENGTH_UNIT ( ) NAMED_UNIT ( * ) SI_UNIT ( $, .METRE. ) );
#272 = CARTESIAN_POINT ( 'NONE',  ( -0.1874999999999998890, -1.537730030978877615E-15, -1.624000000000000110 ) ) ;
#273 = VECTOR ( 'NONE', #55, 39.37007874015748143 ) ;
#274 = FACE_OUTER_BOUND ( 'NONE', #326, .T. ) ;
#275 = CYLINDRICAL_SURFACE ( 'NONE', #363, 0.1874999999999999722 ) ;
#276 = CARTESIAN_POINT ( 'NONE',  ( 3.973886810050848091E-29, -5.673657175620113002E-15, -1.625000000000000222 ) ) ;
#277 = APPROVAL_ROLE ( '' ) ;
#278 = DIRECTION ( 'NONE',  ( -2.445468806185136597E-29, 3.491481338843145583E-15, 1.000000000000000000 ) ) ;
#279 = CARTESIAN_POINT ( 'NONE',  ( -0.1674999999999997047, 1.204561061900878483E-15, -3.841661241091200612E-17 ) ) ;
#280 = CC_DESIGN_APPROVAL ( #85, ( #54 ) ) ;
#281 = DIRECTION ( 'NONE',  ( 1.000000000000000000, -6.982962677686269077E-15, 0.000000000000000000 ) ) ;
#282 = EDGE_CURVE ( 'NONE', #289, #258, #24, .T. ) ;
#283 = CARTESIAN_POINT ( 'NONE',  ( -0.1874999999999996947, 1.239475875289309738E-15, -0.02000000000000007674 ) ) ;
#284 = VECTOR ( 'NONE', #147, 39.37007874015748143 ) ;
#285 = ORIENTED_EDGE ( 'NONE', *, *, #313, .T. ) ;
#286 = MECHANICAL_CONTEXT ( 'NONE', #304, 'mechanical' ) ;
#287 = AXIS2_PLACEMENT_3D ( 'NONE', #83, #25, #105 ) ;
#288 = DIRECTION ( 'NONE',  ( -2.445468806185136877E-29, 3.491481338843145188E-15, 1.000000000000000000 ) ) ;
#289 = VERTEX_POINT ( 'NONE', #90 ) ;
#290 = FACE_OUTER_BOUND ( 'NONE', #199, .T. ) ;
#291 = EDGE_CURVE ( 'NONE', #258, #289, #53, .T. ) ;
#292 = ORIENTED_EDGE ( 'NONE', *, *, #282, .F. ) ;
#293 = APPROVAL_STATUS ( 'not_yet_approved' ) ;
#294 = CARTESIAN_POINT ( 'NONE',  ( 0.1864999999999999714, -6.975979715008601996E-15, -1.625000000000000222 ) ) ;
#295 = CC_DESIGN_PERSON_AND_ORGANIZATION_ASSIGNMENT ( #241, #235, ( #54 ) ) ;
#296 = COORDINATED_UNIVERSAL_TIME_OFFSET ( 5, 0, .BEHIND. ) ;
#297 = DIRECTION ( 'NONE',  ( 2.445468806185136597E-29, -3.491481338843145583E-15, -1.000000000000000000 ) ) ;
#298 = VECTOR ( 'NONE', #176, 39.37007874015748143 ) ;
#299 = CALENDAR_DATE ( 2024, 27, 2 ) ;
#300 = FACE_OUTER_BOUND ( 'NONE', #42, .T. ) ;
#301 = CARTESIAN_POINT ( 'NONE',  ( 3.973886810050848091E-29, -5.673657175620113002E-15, -1.625000000000000222 ) ) ;
#302 = CARTESIAN_POINT ( 'NONE',  ( 0.1864999999999999714, -6.975979715008601996E-15, -1.625000000000000222 ) ) ;
#303 = ORIENTED_EDGE ( 'NONE', *, *, #97, .F. ) ;
#304 = APPLICATION_CONTEXT ( 'configuration controlled 3d designs of mechanical parts and assemblies' ) ;
#305 = COORDINATED_UNIVERSAL_TIME_OFFSET ( 5, 0, .BEHIND. ) ;
#306 = CARTESIAN_POINT ( 'NONE',  ( 0.1674999999999997047, -1.252653207992876711E-15, -3.841661241089523050E-17 ) ) ;
#307 = ADVANCED_FACE ( 'NONE', ( #148 ), #6, .F. ) ;
#308 = CARTESIAN_POINT ( 'NONE',  ( 0.1874999999999996947, -1.356173001359023297E-15, -0.02000000000000007674 ) ) ;
#309 = AXIS2_PLACEMENT_3D ( 'NONE', #276, #7, #91 ) ;
#310 = ORIENTED_EDGE ( 'NONE', *, *, #8, .T. ) ;
#311 = AXIS2_PLACEMENT_3D ( 'NONE', #189, #151, #126 ) ;
#312 = EDGE_CURVE ( 'NONE', #339, #236, #76, .T. ) ;
#313 = EDGE_CURVE ( 'NONE', #17, #27, #70, .T. ) ;
#314 = AXIS2_PLACEMENT_3D ( 'NONE', #39, #87, #247 ) ;
#315 = CC_DESIGN_PERSON_AND_ORGANIZATION_ASSIGNMENT ( #96, #22, ( #192 ) ) ;
#316 = PRODUCT_DEFINITION_SHAPE ( 'NONE', 'NONE',  #118 ) ;
#317 = DIRECTION ( 'NONE',  ( -2.445468806185136597E-29, 3.491481338843145583E-15, 1.000000000000000000 ) ) ;
#318 = DIRECTION ( 'NONE',  ( 2.438088387897960049E-29, -3.491481338843145188E-15, -1.000000000000000000 ) ) ;
#319 = DIRECTION ( 'NONE',  ( 1.000000000000000000, -6.982962677686269077E-15, 0.000000000000000000 ) ) ;
#320 = MANIFOLD_SOLID_BREP ( 'Body-Move/Copy2[1]', #333 ) ;
#321 = COORDINATED_UNIVERSAL_TIME_OFFSET ( 5, 0, .BEHIND. ) ;
#322 = DIRECTION ( 'NONE',  ( 1.000000000000000000, -6.982962677686266711E-15, 0.000000000000000000 ) ) ;
#323 = SHAPE_DEFINITION_REPRESENTATION ( #316, #26 ) ;
#324 = CARTESIAN_POINT ( 'NONE',  ( 3.973886810050848091E-29, -5.673657175620113002E-15, -1.625000000000000222 ) ) ;
#325 = CIRCLE ( 'NONE', #263, 0.1874999999999999167 ) ;
#326 = EDGE_LOOP ( 'NONE', ( #98, #310, #21, #80 ) ) ;
#327 = CARTESIAN_POINT ( 'NONE',  ( 3.973886810050848091E-29, -5.673657175620113002E-15, -1.625000000000000222 ) ) ;
#328 = CALENDAR_DATE ( 2024, 27, 2 ) ;
#329 = FACE_OUTER_BOUND ( 'NONE', #121, .T. ) ;
#330 = EDGE_CURVE ( 'NONE', #339, #47, #217, .T. ) ;
#331 = FACE_OUTER_BOUND ( 'NONE', #350, .T. ) ;
#332 = DIRECTION ( 'NONE',  ( -2.445468806185136597E-29, 3.491481338843145583E-15, 1.000000000000000000 ) ) ;
#333 = CLOSED_SHELL ( 'NONE', ( #100, #108, #188, #56 ) ) ;
#334 = CONICAL_SURFACE ( 'NONE', #340, 0.1864999999999999714, 0.7853981633973801113 ) ;
#335 = CC_DESIGN_PERSON_AND_ORGANIZATION_ASSIGNMENT ( #113, #138, ( #364 ) ) ;
#336 = CARTESIAN_POINT ( 'NONE',  ( 9.394662729016977403E-46, -1.341308853342402453E-31, -3.841661241090370459E-17 ) ) ;
#337 = EDGE_LOOP ( 'NONE', ( #52, #135, #208, #303 ) ) ;
#338 = APPROVAL_ROLE ( '' ) ;
#339 = VERTEX_POINT ( 'NONE', #115 ) ;
#340 = AXIS2_PLACEMENT_3D ( 'NONE', #327, #242, #29 ) ;
#341 = ORIENTED_EDGE ( 'NONE', *, *, #291, .T. ) ;
#342 = PERSON_AND_ORGANIZATION ( #243, #225 ) ;
#343 = ORIENTED_EDGE ( 'NONE', *, *, #119, .F. ) ;
#344 = CARTESIAN_POINT ( 'NONE',  ( 0.1874999999999999722, -1.309305502066174811E-15, 9.142831454617378210E-30 ) ) ;
#345 = CIRCLE ( 'NONE', #167, 0.1874999999999996947 ) ;
#346 = AXIS2_PLACEMENT_3D ( 'NONE', #204, #253, #319 ) ;
#347 = CARTESIAN_POINT ( 'NONE',  ( 0.1874999999999999722, -1.003800884917403995E-14, -2.500000000000000000 ) ) ;
#348 = ORIENTED_EDGE ( 'NONE', *, *, #270, .F. ) ;
#349 = DATE_TIME_ROLE ( 'classification_date' ) ;
#350 = EDGE_LOOP ( 'NONE', ( #131, #348 ) ) ;
#351 = DIRECTION ( 'NONE',  ( -2.445468806185136597E-29, 3.491481338843145583E-15, 1.000000000000000000 ) ) ;
#352 = AXIS2_PLACEMENT_3D ( 'NONE', #58, #63, #172 ) ;
#353 = PRODUCT_RELATED_PRODUCT_CATEGORY ( 'detail', '', ( #192 ) ) ;
#354 = APPROVAL_ROLE ( '' ) ;
#355 = DIRECTION ( 'NONE',  ( 2.438088387897960049E-29, -3.491481338843145188E-15, -1.000000000000000000 ) ) ;
#356 = CARTESIAN_POINT ( 'NONE',  ( 0.000000000000000000, 0.000000000000000000, 0.000000000000000000 ) ) ;
#357 = ORIENTED_EDGE ( 'NONE', *, *, #330, .F. ) ;
#358 =( NAMED_UNIT ( * ) SI_UNIT ( $, .STERADIAN. ) SOLID_ANGLE_UNIT ( ) );
#359 = DIRECTION ( 'NONE',  ( 1.000000000000000000, -6.982962677686266711E-15, 0.000000000000000000 ) ) ;
#360 = ADVANCED_FACE ( 'NONE', ( #329 ), #197, .T. ) ;
#361 = ADVANCED_FACE ( 'NONE', ( #300 ), #13, .T. ) ;
#362 = VERTEX_POINT ( 'NONE', #31 ) ;
#363 = AXIS2_PLACEMENT_3D ( 'NONE', #213, #182, #144 ) ;
#364 = PRODUCT_DEFINITION_FORMATION_WITH_SPECIFIED_SOURCE ( 'ANY', '', #192, .NOT_KNOWN. ) ;
#365 = ADVANCED_FACE ( 'NONE', ( #110 ), #334, .T. ) ;
#366 = ORIENTED_EDGE ( 'NONE', *, *, #46, .T. ) ;
ENDSEC;
END-ISO-10303-21;
