ISO-10303-21;
HEADER;
FILE_DESCRIPTION (( 'STEP AP203' ),
    '1' );
FILE_NAME ('36591.STEP',
    '2024-02-21T19:05:45',
    ( '' ),
    ( '' ),
    'SwSTEP 2.0',
    'SolidWorks 2023',
    '' );
FILE_SCHEMA (( 'CONFIG_CONTROL_DESIGN' ));
ENDSEC;

DATA;
#1 = CLOSED_SHELL ( 'NONE', ( #309, #178, #165, #390, #98 ) ) ;
#2 = ADVANCED_FACE ( 'NONE', ( #13 ), #204, .T. ) ;
#3 = LINE ( 'NONE', #156, #9 ) ;
#4 = EDGE_CURVE ( 'NONE', #360, #139, #30, .T. ) ;
#5 = VERTEX_POINT ( 'NONE', #86 ) ;
#6 = DIRECTION ( 'NONE',  ( 1.000000000000000000, -6.982962677686269077E-15, 0.000000000000000000 ) ) ;
#7 = CALENDAR_DATE ( 2024, 21, 2 ) ;
#8 = ORIENTED_EDGE ( 'NONE', *, *, #313, .F. ) ;
#9 = VECTOR ( 'NONE', #379, 39.37007874015748143 ) ;
#10 = ORIENTED_EDGE ( 'NONE', *, *, #398, .T. ) ;
#11 = AXIS2_PLACEMENT_3D ( 'NONE', #399, #207, #203 ) ;
#12 = PERSON_AND_ORGANIZATION ( #211, #388 ) ;
#13 = FACE_OUTER_BOUND ( 'NONE', #223, .T. ) ;
#14 = PERSON_AND_ORGANIZATION_ROLE ( 'creator' ) ;
#15 = CARTESIAN_POINT ( 'NONE',  ( 1.769251412042697971E-15, 0.2489999999999930047, -2.000000000000000888 ) ) ;
#16 = CALENDAR_DATE ( 2024, 21, 2 ) ;
#17 = EDGE_CURVE ( 'NONE', #115, #404, #107, .T. ) ;
#18 = ORIENTED_EDGE ( 'NONE', *, *, #254, .F. ) ;
#19 = CIRCLE ( 'NONE', #45, 0.2500000000000000555 ) ;
#20 = DIRECTION ( 'NONE',  ( 2.443199021105205549E-29, -3.494731800265750636E-15, -1.000000000000000000 ) ) ;
#21 = LOCAL_TIME ( 14, 5, 45.00000000000000000, #39 ) ;
#22 = CARTESIAN_POINT ( 'NONE',  ( 4.886398042210411659E-29, -6.989463600531501271E-15, -2.000000000000000000 ) ) ;
#23 = CARTESIAN_POINT ( 'NONE',  ( 7.005286640641522422E-29, -1.094862638466948349E-14, -2.999999999999999556 ) ) ;
#24 = AXIS2_PLACEMENT_3D ( 'NONE', #289, #97, #253 ) ;
#25 = LINE ( 'NONE', #375, #128 ) ;
#26 = DIRECTION ( 'NONE',  ( 1.000000000000000000, -6.982962677686269077E-15, 0.000000000000000000 ) ) ;
#27 = DIRECTION ( 'NONE',  ( -6.982962677686265133E-15, -1.000000000000000000, 3.291383124896702687E-15 ) ) ;
#28 = EDGE_CURVE ( 'NONE', #404, #238, #215, .T. ) ;
#29 = CIRCLE ( 'NONE', #322, 0.2500000000000000000 ) ;
#30 = CIRCLE ( 'NONE', #265, 0.2500000000000000555 ) ;
#31 = FACE_OUTER_BOUND ( 'NONE', #35, .T. ) ;
#32 = CARTESIAN_POINT ( 'NONE',  ( 0.2500000000000000000, -1.745740669421566678E-15, 1.219044193948983948E-29 ) ) ;
#33 = ORIENTED_EDGE ( 'NONE', *, *, #359, .T. ) ;
#34 = DIRECTION ( 'NONE',  ( 4.937700262164541731E-15, 0.7071067811865442421, -0.7071067811865507924 ) ) ;
#35 = EDGE_LOOP ( 'NONE', ( #172, #366, #18, #53, #216 ) ) ;
#36 = CIRCLE ( 'NONE', #64, 0.2500000000000000555 ) ;
#37 = CARTESIAN_POINT ( 'NONE',  ( 1.606081415867835151E-15, 0.2299999999999991496, -3.637577245171777162E-16 ) ) ;
#38 = ORIENTED_EDGE ( 'NONE', *, *, #324, .T. ) ;
#39 = COORDINATED_UNIVERSAL_TIME_OFFSET ( 5, 0, .BEHIND. ) ;
#40 = ORIENTED_EDGE ( 'NONE', *, *, #271, .T. ) ;
#41 = CALENDAR_DATE ( 2024, 21, 2 ) ;
#42 = CARTESIAN_POINT ( 'NONE',  ( -0.2500000000000000000, 1.776356839400250465E-15, -1.229733772563726445E-29 ) ) ;
#43 = EDGE_CURVE ( 'NONE', #383, #196, #402, .T. ) ;
#44 = DATE_TIME_ROLE ( 'creation_date' ) ;
#45 = AXIS2_PLACEMENT_3D ( 'NONE', #348, #99, #6 ) ;
#46 = ORIENTED_EDGE ( 'NONE', *, *, #184, .T. ) ;
#47 = AXIS2_PLACEMENT_3D ( 'NONE', #22, #91, #176 ) ;
#48 = PERSON_AND_ORGANIZATION ( #211, #388 ) ;
#49 = DIRECTION ( 'NONE',  ( -2.445468806185136597E-29, 3.491481338843145583E-15, 1.000000000000000000 ) ) ;
#50 = EDGE_CURVE ( 'NONE', #290, #5, #362, .T. ) ;
#51 = PERSON_AND_ORGANIZATION_ROLE ( 'creator' ) ;
#52 = ORIENTED_EDGE ( 'NONE', *, *, #264, .T. ) ;
#53 = ORIENTED_EDGE ( 'NONE', *, *, #367, .F. ) ;
#54 = AXIS2_PLACEMENT_3D ( 'NONE', #308, #209, #26 ) ;
#55 = CYLINDRICAL_SURFACE ( 'NONE', #136, 0.2500000000000000000 ) ;
#56 = CARTESIAN_POINT ( 'NONE',  ( 4.886398042210422449E-31, -6.989463600531517098E-17, -0.02000000000000004552 ) ) ;
#57 = DIRECTION ( 'NONE',  ( 6.982962677686265922E-15, 1.000000000000000000, -4.370956789862818783E-15 ) ) ;
#58 = AXIS2_PLACEMENT_3D ( 'NONE', #239, #117, #57 ) ;
#59 = PLANE ( 'NONE',  #47 ) ;
#60 = EDGE_CURVE ( 'NONE', #305, #5, #90, .T. ) ;
#61 = DIRECTION ( 'NONE',  ( -2.443199021105205549E-29, 3.494731800265750636E-15, 1.000000000000000000 ) ) ;
#62 = CARTESIAN_POINT ( 'NONE',  ( -1.738757706743831360E-15, -0.2490000000000069935, -1.999999999999999112 ) ) ;
#63 = ORIENTED_EDGE ( 'NONE', *, *, #43, .T. ) ;
#64 = AXIS2_PLACEMENT_3D ( 'NONE', #214, #61, #101 ) ;
#65 = LINE ( 'NONE', #32, #337 ) ;
#66 = VERTEX_POINT ( 'NONE', #76 ) ;
#67 = DIRECTION ( 'NONE',  ( 6.982962677686265922E-15, 1.000000000000000000, -3.494731800265750636E-15 ) ) ;
#68 = EDGE_LOOP ( 'NONE', ( #171, #157, #232, #164 ) ) ;
#69 = UNCERTAINTY_MEASURE_WITH_UNIT (LENGTH_MEASURE( 1.000000000000000082E-05 ), #161, 'distance_accuracy_value', 'NONE');
#70 = LINE ( 'NONE', #191, #208 ) ;
#71 = ORIENTED_EDGE ( 'NONE', *, *, #43, .F. ) ;
#72 = AXIS2_PLACEMENT_3D ( 'NONE', #177, #151, #244 ) ;
#73 = CARTESIAN_POINT ( 'NONE',  ( 0.000000000000000000, 0.000000000000000000, 0.000000000000000000 ) ) ;
#74 = ORIENTED_EDGE ( 'NONE', *, *, #398, .F. ) ;
#75 = CC_DESIGN_PERSON_AND_ORGANIZATION_ASSIGNMENT ( #48, #233, ( #79 ) ) ;
#76 = CARTESIAN_POINT ( 'NONE',  ( 1.745740669421638858E-15, 0.2499999999999893419, -3.000000000000000888 ) ) ;
#77 = APPLICATION_PROTOCOL_DEFINITION ( 'international standard', 'config_control_design', 1994, #152 ) ;
#78 = ORIENTED_EDGE ( 'NONE', *, *, #254, .T. ) ;
#79 = PRODUCT ( '36591', '36591', '', ( #231 ) ) ;
#80 = CALENDAR_DATE ( 2024, 21, 2 ) ;
#81 = AXIS2_PLACEMENT_3D ( 'NONE', #179, #339, #373 ) ;
#82 = ORIENTED_EDGE ( 'NONE', *, *, #28, .F. ) ;
#83 = MANIFOLD_SOLID_BREP ( 'Body-Move/Copy2[1]', #1 ) ;
#84 = APPROVAL ( #85, 'UNSPECIFIED' ) ;
#85 = APPROVAL_STATUS ( 'not_yet_approved' ) ;
#86 = CARTESIAN_POINT ( 'NONE',  ( 1.776356839400276103E-15, 0.2499999999999932276, -1.999000000000000776 ) ) ;
#87 = DIRECTION ( 'NONE',  ( -6.982962677686265922E-15, -1.000000000000000000, 3.494731800265750636E-15 ) ) ;
#88 = CARTESIAN_POINT ( 'NONE',  ( 1.675911042644701210E-15, 0.2299999999999991496, 7.627286502676420826E-17 ) ) ;
#89 = AXIS2_PLACEMENT_3D ( 'NONE', #37, #256, #67 ) ;
#90 = CIRCLE ( 'NONE', #186, 0.2500000000000002220 ) ;
#91 = DIRECTION ( 'NONE',  ( -2.443199021105205269E-29, 3.494731800265750636E-15, 1.000000000000000000 ) ) ;
#92 = DIRECTION ( 'NONE',  ( -2.443199021105205549E-29, 3.494731800265750636E-15, 1.000000000000000000 ) ) ;
#93 = DIRECTION ( 'NONE',  ( -2.443199021105205549E-29, 3.494731800265750636E-15, 1.000000000000000000 ) ) ;
#94 = CIRCLE ( 'NONE', #401, 0.2500000000000001110 ) ;
#95 = ADVANCED_FACE ( 'NONE', ( #201 ), #194, .T. ) ;
#96 = DIRECTION ( 'NONE',  ( -2.443199021105205549E-29, 3.494731800265750636E-15, 1.000000000000000000 ) ) ;
#97 = DIRECTION ( 'NONE',  ( -2.443199021105205549E-29, 3.494731800265750636E-15, 1.000000000000000000 ) ) ;
#98 = ADVANCED_FACE ( 'NONE', ( #242 ), #55, .T. ) ;
#99 = DIRECTION ( 'NONE',  ( -2.445468806185136597E-29, 3.491481338843145583E-15, 1.000000000000000000 ) ) ;
#100 = ORIENTED_EDGE ( 'NONE', *, *, #190, .F. ) ;
#101 = DIRECTION ( 'NONE',  ( -6.982962677686265133E-15, -1.000000000000000000, 3.500180241882336472E-15 ) ) ;
#102 = PLANE ( 'NONE',  #89 ) ;
#103 = EDGE_LOOP ( 'NONE', ( #78, #220 ) ) ;
#104 = EDGE_CURVE ( 'NONE', #160, #331, #285, .T. ) ;
#105 = AXIS2_PLACEMENT_3D ( 'NONE', #291, #353, #183 ) ;
#106 = APPROVAL_ROLE ( '' ) ;
#107 = LINE ( 'NONE', #42, #369 ) ;
#108 = ORIENTED_EDGE ( 'NONE', *, *, #158, .F. ) ;
#109 = APPROVAL_DATE_TIME ( #392, #410 ) ;
#110 = CC_DESIGN_PERSON_AND_ORGANIZATION_ASSIGNMENT ( #142, #51, ( #409 ) ) ;
#111 = ORIENTED_EDGE ( 'NONE', *, *, #50, .T. ) ;
#112 = CONICAL_SURFACE ( 'NONE', #311, 0.2500000000000000555, 0.7853981633974471688 ) ;
#113 = DIRECTION ( 'NONE',  ( 1.000000000000000000, -6.982962677686266711E-15, 0.000000000000000000 ) ) ;
#114 = PERSON_AND_ORGANIZATION_ROLE ( 'design_supplier' ) ;
#115 = VERTEX_POINT ( 'NONE', #146 ) ;
#116 = FACE_OUTER_BOUND ( 'NONE', #352, .T. ) ;
#117 = DIRECTION ( 'NONE',  ( -1.000000000000000000, 6.982962677686265922E-15, -4.883557194083113462E-29 ) ) ;
#118 = APPROVAL_PERSON_ORGANIZATION ( #12, #84, #106 ) ;
#119 = CARTESIAN_POINT ( 'NONE',  ( 7.005286640641522422E-29, -1.094862638466948349E-14, -2.999999999999999556 ) ) ;
#120 = CARTESIAN_POINT ( 'NONE',  ( 0.000000000000000000, 0.000000000000000000, 0.000000000000000000 ) ) ;
#121 = ADVANCED_FACE ( 'NONE', ( #210 ), #112, .T. ) ;
#122 = CYLINDRICAL_SURFACE ( 'NONE', #72, 0.2500000000000001110 ) ;
#123 = CONICAL_SURFACE ( 'NONE', #283, 0.2489999999999999991, 0.7853981633975336552 ) ;
#124 = DIRECTION ( 'NONE',  ( -2.443199021105205549E-29, 3.494731800265750636E-15, 1.000000000000000000 ) ) ;
#125 = CARTESIAN_POINT ( 'NONE',  ( -1.715124499442882496E-15, -0.2500000000000001110, -0.01999999999999917122 ) ) ;
#126 = DIRECTION ( 'NONE',  ( 1.000000000000000000, -6.982962677686266711E-15, 0.000000000000000000 ) ) ;
#127 = AXIS2_PLACEMENT_3D ( 'NONE', #229, #336, #87 ) ;
#128 = VECTOR ( 'NONE', #343, 39.37007874015748143 ) ;
#129 = CARTESIAN_POINT ( 'NONE',  ( -1.776356839400179073E-15, -0.2500000000000107692, -2.999999999999998668 ) ) ;
#130 = DIRECTION ( 'NONE',  ( -2.445468806185136597E-29, 3.491481338843145583E-15, 1.000000000000000000 ) ) ;
#131 = ORIENTED_EDGE ( 'NONE', *, *, #378, .T. ) ;
#132 = APPROVAL_STATUS ( 'not_yet_approved' ) ;
#133 = EDGE_LOOP ( 'NONE', ( #8, #321, #52, #198 ) ) ;
#134 = CIRCLE ( 'NONE', #217, 0.2500000000000000555 ) ;
#135 =( NAMED_UNIT ( * ) PLANE_ANGLE_UNIT ( ) SI_UNIT ( $, .RADIAN. ) );
#136 = AXIS2_PLACEMENT_3D ( 'NONE', #377, #340, #280 ) ;
#137 = ORIENTED_EDGE ( 'NONE', *, *, #313, .T. ) ;
#138 = DATE_AND_TIME ( #80, #286 ) ;
#139 = VERTEX_POINT ( 'NONE', #150 ) ;
#140 = LOCAL_TIME ( 14, 5, 45.00000000000000000, #387 ) ;
#141 = DIRECTION ( 'NONE',  ( 5.024295867788490741E-15, 0.7071067811866103003, 0.7071067811864847341 ) ) ;
#142 = PERSON_AND_ORGANIZATION ( #211, #388 ) ;
#143 = AXIS2_PLACEMENT_3D ( 'NONE', #219, #345, #386 ) ;
#144 = DIRECTION ( 'NONE',  ( -6.982962677686266711E-15, -1.000000000000000000, 3.278217592397113101E-15 ) ) ;
#145 = CC_DESIGN_PERSON_AND_ORGANIZATION_ASSIGNMENT ( #355, #163, ( #170 ) ) ;
#146 = CARTESIAN_POINT ( 'NONE',  ( -0.2500000000000000555, -6.952346507707613689E-15, -2.999999999999999556 ) ) ;
#147 = LINE ( 'NONE', #368, #226 ) ;
#148 =( GEOMETRIC_REPRESENTATION_CONTEXT ( 3 ) GLOBAL_UNCERTAINTY_ASSIGNED_CONTEXT ( ( #69 ) ) GLOBAL_UNIT_ASSIGNED_CONTEXT ( ( #161, #135, #327 ) ) REPRESENTATION_CONTEXT ( 'NONE', 'WORKASPACE' ) );
#149 = ADVANCED_FACE ( 'NONE', ( #341 ), #59, .F. ) ;
#150 = CARTESIAN_POINT ( 'NONE',  ( 0.2500000000000000555, -1.047444401652943162E-14, -2.999999999999999556 ) ) ;
#151 = DIRECTION ( 'NONE',  ( -2.443199021105205549E-29, 3.494731800265750636E-15, 1.000000000000000000 ) ) ;
#152 = APPLICATION_CONTEXT ( 'configuration controlled 3d designs of mechanical parts and assemblies' ) ;
#153 = CARTESIAN_POINT ( 'NONE',  ( 4.883954843189305518E-29, -6.985968868731234384E-15, -1.998999999999999888 ) ) ;
#154 = FACE_OUTER_BOUND ( 'NONE', #257, .T. ) ;
#155 = CARTESIAN_POINT ( 'NONE',  ( 4.886398042210411659E-29, -6.989463600531501271E-15, -2.000000000000000000 ) ) ;
#156 = CARTESIAN_POINT ( 'NONE',  ( -1.745740669421567467E-15, -0.2500000000000001110, 8.736829500664381520E-16 ) ) ;
#157 = ORIENTED_EDGE ( 'NONE', *, *, #190, .T. ) ;
#158 = EDGE_CURVE ( 'NONE', #139, #66, #166, .T. ) ;
#159 = LINE ( 'NONE', #125, #185 ) ;
#160 = VERTEX_POINT ( 'NONE', #307 ) ;
#161 =( CONVERSION_BASED_UNIT ( 'INCH', #197 ) LENGTH_UNIT ( ) NAMED_UNIT ( #356 ) );
#162 = ORIENTED_EDGE ( 'NONE', *, *, #237, .T. ) ;
#163 = PERSON_AND_ORGANIZATION_ROLE ( 'classification_officer' ) ;
#164 = ORIENTED_EDGE ( 'NONE', *, *, #378, .F. ) ;
#165 = ADVANCED_FACE ( 'NONE', ( #405 ), #277, .T. ) ;
#166 = CIRCLE ( 'NONE', #54, 0.2500000000000000555 ) ;
#167 = DATE_AND_TIME ( #7, #21 ) ;
#168 = CARTESIAN_POINT ( 'NONE',  ( 4.886398042210422449E-31, -6.989463600531517098E-17, -0.02000000000000004552 ) ) ;
#169 = PERSON_AND_ORGANIZATION ( #211, #388 ) ;
#170 = SECURITY_CLASSIFICATION ( '', '', #325 ) ;
#171 = ORIENTED_EDGE ( 'NONE', *, *, #60, .T. ) ;
#172 = ORIENTED_EDGE ( 'NONE', *, *, #288, .T. ) ;
#173 = CIRCLE ( 'NONE', #180, 0.2500000000000002220 ) ;
#174 = EDGE_CURVE ( 'NONE', #225, #66, #263, .T. ) ;
#175 = DIRECTION ( 'NONE',  ( -6.982962677686265922E-15, -1.000000000000000000, 3.494731800265750636E-15 ) ) ;
#176 = DIRECTION ( 'NONE',  ( -6.982962677686265922E-15, -1.000000000000000000, 3.494731800265750636E-15 ) ) ;
#177 = CARTESIAN_POINT ( 'NONE',  ( 0.000000000000000000, 0.000000000000000000, 0.000000000000000000 ) ) ;
#178 = ADVANCED_FACE ( 'NONE', ( #116 ), #403, .T. ) ;
#179 = CARTESIAN_POINT ( 'NONE',  ( 4.886398042210411659E-29, -6.989463600531501271E-15, -2.000000000000000000 ) ) ;
#180 = AXIS2_PLACEMENT_3D ( 'NONE', #153, #411, #320 ) ;
#181 = FACE_OUTER_BOUND ( 'NONE', #68, .T. ) ;
#182 = FACE_OUTER_BOUND ( 'NONE', #332, .T. ) ;
#183 = DIRECTION ( 'NONE',  ( -1.000000000000000000, 6.982962677686265922E-15, -4.876176775795935793E-29 ) ) ;
#184 = EDGE_CURVE ( 'NONE', #225, #360, #94, .T. ) ;
#185 = VECTOR ( 'NONE', #284, 39.37007874015748143 ) ;
#186 = AXIS2_PLACEMENT_3D ( 'NONE', #200, #357, #144 ) ;
#187 = CARTESIAN_POINT ( 'NONE',  ( -1.715124499442882496E-15, -0.2500000000000001110, -0.01999999999999917122 ) ) ;
#188 = ORIENTED_EDGE ( 'NONE', *, *, #4, .T. ) ;
#189 =( LENGTH_UNIT ( ) NAMED_UNIT ( * ) SI_UNIT ( $, .METRE. ) );
#190 = EDGE_CURVE ( 'NONE', #5, #160, #147, .T. ) ;
#191 = CARTESIAN_POINT ( 'NONE',  ( 1.745740669421567269E-15, 0.2499999999999999722, -0.02000000000000092329 ) ) ;
#192 = ORIENTED_EDGE ( 'NONE', *, *, #237, .F. ) ;
#193 = COORDINATED_UNIVERSAL_TIME_OFFSET ( 5, 0, .BEHIND. ) ;
#194 = CYLINDRICAL_SURFACE ( 'NONE', #300, 0.2500000000000001110 ) ;
#195 = APPROVAL_STATUS ( 'not_yet_approved' ) ;
#196 = VERTEX_POINT ( 'NONE', #88 ) ;
#197 = LENGTH_MEASURE_WITH_UNIT ( LENGTH_MEASURE( 0.02539999999999999897 ), #189 );
#198 = ORIENTED_EDGE ( 'NONE', *, *, #104, .T. ) ;
#199 = DATE_AND_TIME ( #16, #202 ) ;
#200 = CARTESIAN_POINT ( 'NONE',  ( 4.883954843189305518E-29, -6.985968868731234384E-15, -1.998999999999999888 ) ) ;
#201 = FACE_OUTER_BOUND ( 'NONE', #274, .T. ) ;
#202 = LOCAL_TIME ( 14, 5, 45.00000000000000000, #330 ) ;
#203 = DIRECTION ( 'NONE',  ( -6.982962677686265133E-15, -1.000000000000000000, 3.500180241882336472E-15 ) ) ;
#204 = CONICAL_SURFACE ( 'NONE', #371, 0.2500000000000000555, 0.7853981633974471688 ) ;
#205 = MANIFOLD_SOLID_BREP ( 'Body-Move/Copy2[2]', #279 ) ;
#206 = DIRECTION ( 'NONE',  ( 6.982962677686265922E-15, 1.000000000000000000, -4.370956789862818783E-15 ) ) ;
#207 = DIRECTION ( 'NONE',  ( -2.443199021105205549E-29, 3.494731800265750636E-15, 1.000000000000000000 ) ) ;
#208 = VECTOR ( 'NONE', #34, 39.37007874015748143 ) ;
#209 = DIRECTION ( 'NONE',  ( -2.445468806185136597E-29, 3.491481338843145583E-15, 1.000000000000000000 ) ) ;
#210 = FACE_OUTER_BOUND ( 'NONE', #133, .T. ) ;
#211 = PERSON ( 'UNSPECIFIED', 'UNSPECIFIED', 'UNSPECIFIED', ('UNSPECIFIED'), ('UNSPECIFIED'), ('UNSPECIFIED') ) ;
#212 = APPROVAL ( #195, 'UNSPECIFIED' ) ;
#213 = CARTESIAN_POINT ( 'NONE',  ( -0.2500000000000000000, -6.952346507707612900E-15, -2.000000000000000000 ) ) ;
#214 = CARTESIAN_POINT ( 'NONE',  ( 4.886398042210422449E-31, -6.989463600531517098E-17, -0.02000000000000004552 ) ) ;
#215 = CIRCLE ( 'NONE', #227, 0.2500000000000000000 ) ;
#216 = ORIENTED_EDGE ( 'NONE', *, *, #158, .T. ) ;
#217 = AXIS2_PLACEMENT_3D ( 'NONE', #251, #130, #292 ) ;
#218 = VECTOR ( 'NONE', #141, 39.37007874015748143 ) ;
#219 = CARTESIAN_POINT ( 'NONE',  ( 0.000000000000000000, 0.000000000000000000, 0.000000000000000000 ) ) ;
#220 = ORIENTED_EDGE ( 'NONE', *, *, #28, .T. ) ;
#221 = EDGE_CURVE ( 'NONE', #394, #290, #395, .T. ) ;
#222 = DIRECTION ( 'NONE',  ( -2.443199021105205549E-29, 3.494731800265750636E-15, 1.000000000000000000 ) ) ;
#223 = EDGE_LOOP ( 'NONE', ( #71, #137, #33, #374 ) ) ;
#224 = DIRECTION ( 'NONE',  ( -6.982962677686265133E-15, -1.000000000000000000, 3.291383124896702687E-15 ) ) ;
#225 = VERTEX_POINT ( 'NONE', #312 ) ;
#226 = VECTOR ( 'NONE', #93, 39.37007874015748143 ) ;
#227 = AXIS2_PLACEMENT_3D ( 'NONE', #234, #397, #113 ) ;
#228 = APPLICATION_PROTOCOL_DEFINITION ( 'international standard', 'config_control_design', 1994, #333 ) ;
#229 = CARTESIAN_POINT ( 'NONE',  ( -2.150164611260211022E-44, 3.075577788737799528E-30, 8.800611790878838489E-16 ) ) ;
#230 = ADVANCED_FACE ( 'NONE', ( #181 ), #122, .T. ) ;
#231 = MECHANICAL_CONTEXT ( 'NONE', #333, 'mechanical' ) ;
#232 = ORIENTED_EDGE ( 'NONE', *, *, #359, .F. ) ;
#233 = PERSON_AND_ORGANIZATION_ROLE ( 'design_owner' ) ;
#234 = CARTESIAN_POINT ( 'NONE',  ( 4.890937612370273194E-29, -6.982962677686291165E-15, -2.000000000000000000 ) ) ;
#235 = APPROVAL_PERSON_ORGANIZATION ( #358, #212, #361 ) ;
#236 = ORIENTED_EDGE ( 'NONE', *, *, #104, .F. ) ;
#237 = EDGE_CURVE ( 'NONE', #394, #305, #25, .T. ) ;
#238 = VERTEX_POINT ( 'NONE', #314 ) ;
#239 = CARTESIAN_POINT ( 'NONE',  ( 7.005286640641522422E-29, -1.094862638466948349E-14, -2.999999999999999556 ) ) ;
#240 = CIRCLE ( 'NONE', #24, 0.2489999999999999991 ) ;
#241 = DIRECTION ( 'NONE',  ( -7.105427357601001859E-15, -1.000000000000000000, 0.000000000000000000 ) ) ;
#242 = FACE_OUTER_BOUND ( 'NONE', #389, .T. ) ;
#243 = ORIENTED_EDGE ( 'NONE', *, *, #271, .F. ) ;
#244 = DIRECTION ( 'NONE',  ( -6.982962677686266711E-15, -1.000000000000000000, 3.494731800265751030E-15 ) ) ;
#245 = ADVANCED_BREP_SHAPE_REPRESENTATION ( '36591', ( #83, #205, #246 ), #148 ) ;
#246 = AXIS2_PLACEMENT_3D ( 'NONE', #73, #266, #298 ) ;
#247 = DIRECTION ( 'NONE',  ( 1.000000000000000000, -6.982962677686265922E-15, 4.883557194083112340E-29 ) ) ;
#248 = EDGE_CURVE ( 'NONE', #196, #383, #363, .T. ) ;
#249 = DESIGN_CONTEXT ( 'detailed design', #152, 'design' ) ;
#250 = PLANE ( 'NONE',  #105 ) ;
#251 = CARTESIAN_POINT ( 'NONE',  ( 7.336406418555408669E-29, -1.047444401652943478E-14, -2.999999999999999556 ) ) ;
#252 = ADVANCED_FACE ( 'NONE', ( #182 ), #102, .F. ) ;
#253 = DIRECTION ( 'NONE',  ( -6.982962677686265133E-15, -1.000000000000000000, 3.291383124896702687E-15 ) ) ;
#254 = EDGE_CURVE ( 'NONE', #238, #404, #29, .T. ) ;
#255 = ORIENTED_EDGE ( 'NONE', *, *, #324, .F. ) ;
#256 = DIRECTION ( 'NONE',  ( 2.443199021105205269E-29, -3.494731800265750636E-15, -1.000000000000000000 ) ) ;
#257 = EDGE_LOOP ( 'NONE', ( #299, #111, #329, #192 ) ) ;
#258 = CARTESIAN_POINT ( 'NONE',  ( 1.772804125721499264E-15, 0.2489999999999930047, -2.000000000000000888 ) ) ;
#259 = ORIENTED_EDGE ( 'NONE', *, *, #174, .T. ) ;
#260 = CC_DESIGN_SECURITY_CLASSIFICATION ( #170, ( #409 ) ) ;
#261 = APPROVAL_ROLE ( '' ) ;
#262 = ORIENTED_EDGE ( 'NONE', *, *, #248, .T. ) ;
#263 = CIRCLE ( 'NONE', #347, 0.2500000000000001110 ) ;
#264 = EDGE_CURVE ( 'NONE', #196, #160, #70, .T. ) ;
#265 = AXIS2_PLACEMENT_3D ( 'NONE', #269, #49, #393 ) ;
#266 = DIRECTION ( 'NONE',  ( 0.000000000000000000, 0.000000000000000000, 1.000000000000000000 ) ) ;
#267 = EDGE_LOOP ( 'NONE', ( #365, #74 ) ) ;
#268 = CALENDAR_DATE ( 2024, 21, 2 ) ;
#269 = CARTESIAN_POINT ( 'NONE',  ( 7.336406418555408669E-29, -1.047444401652943478E-14, -2.999999999999999556 ) ) ;
#270 = COORDINATED_UNIVERSAL_TIME_OFFSET ( 5, 0, .BEHIND. ) ;
#271 = EDGE_CURVE ( 'NONE', #5, #305, #173, .T. ) ;
#272 = EDGE_LOOP ( 'NONE', ( #335, #259, #108, #346 ) ) ;
#273 = PERSON_AND_ORGANIZATION ( #211, #388 ) ;
#274 = EDGE_LOOP ( 'NONE', ( #100, #40, #131, #236 ) ) ;
#275 = SHAPE_DEFINITION_REPRESENTATION ( #297, #245 ) ;
#276 = DIRECTION ( 'NONE',  ( 6.982962677686265133E-15, 1.000000000000000000, -3.500180241882336472E-15 ) ) ;
#277 = SPHERICAL_SURFACE ( 'NONE', #370, 0.2500000000000001110 ) ;
#278 = AXIS2_PLACEMENT_3D ( 'NONE', #380, #124, #224 ) ;
#279 = CLOSED_SHELL ( 'NONE', ( #385, #230, #2, #121, #95, #349, #149, #252 ) ) ;
#280 = DIRECTION ( 'NONE',  ( 1.000000000000000000, -6.982962677686266711E-15, 4.876176775795935793E-29 ) ) ;
#281 = CARTESIAN_POINT ( 'NONE',  ( -2.150164611260211022E-44, 3.075577788737799528E-30, 8.800611790878838489E-16 ) ) ;
#282 = CC_DESIGN_DATE_AND_TIME_ASSIGNMENT ( #167, #301, ( #170 ) ) ;
#283 = AXIS2_PLACEMENT_3D ( 'NONE', #155, #222, #27 ) ;
#284 = DIRECTION ( 'NONE',  ( -4.851104656540957964E-15, -0.7071067811865491270, -0.7071067811865459074 ) ) ;
#285 = CIRCLE ( 'NONE', #11, 0.2500000000000000555 ) ;
#286 = LOCAL_TIME ( 14, 5, 45.00000000000000000, #193 ) ;
#287 = CYLINDRICAL_SURFACE ( 'NONE', #143, 0.2500000000000000000 ) ;
#288 = EDGE_CURVE ( 'NONE', #66, #115, #134, .T. ) ;
#289 = CARTESIAN_POINT ( 'NONE',  ( 4.886398042210411659E-29, -6.989463600531501271E-15, -2.000000000000000000 ) ) ;
#290 = VERTEX_POINT ( 'NONE', #258 ) ;
#291 = CARTESIAN_POINT ( 'NONE',  ( 1.745740669421615390E-15, 0.2499999999999930334, -2.000000000000000888 ) ) ;
#292 = DIRECTION ( 'NONE',  ( 1.000000000000000000, -6.982962677686269077E-15, 0.000000000000000000 ) ) ;
#293 = EDGE_LOOP ( 'NONE', ( #326, #10, #162, #243 ) ) ;
#294 = PERSON_AND_ORGANIZATION ( #211, #388 ) ;
#295 = DIRECTION ( 'NONE',  ( 2.443199021105205549E-29, -3.494731800265750636E-15, -1.000000000000000000 ) ) ;
#296 = PRODUCT_DEFINITION ( 'UNKNOWN', '', #409, #249 ) ;
#297 = PRODUCT_DEFINITION_SHAPE ( 'NONE', 'NONE',  #296 ) ;
#298 = DIRECTION ( 'NONE',  ( 1.000000000000000000, 0.000000000000000000, 0.000000000000000000 ) ) ;
#299 = ORIENTED_EDGE ( 'NONE', *, *, #221, .T. ) ;
#300 = AXIS2_PLACEMENT_3D ( 'NONE', #120, #92, #310 ) ;
#301 = DATE_TIME_ROLE ( 'classification_date' ) ;
#302 = DIRECTION ( 'NONE',  ( 6.982962677686265133E-15, 1.000000000000000000, -3.500180241882336472E-15 ) ) ;
#303 = CC_DESIGN_PERSON_AND_ORGANIZATION_ASSIGNMENT ( #169, #14, ( #296 ) ) ;
#304 = DIRECTION ( 'NONE',  ( -2.445468806185136877E-29, 3.491481338843145188E-15, 1.000000000000000000 ) ) ;
#305 = VERTEX_POINT ( 'NONE', #412 ) ;
#306 = LOCAL_TIME ( 14, 5, 45.00000000000000000, #270 ) ;
#307 = CARTESIAN_POINT ( 'NONE',  ( 1.745740669421567269E-15, 0.2499999999999999722, -0.02000000000000092329 ) ) ;
#308 = CARTESIAN_POINT ( 'NONE',  ( 7.336406418555408669E-29, -1.047444401652943478E-14, -2.999999999999999556 ) ) ;
#309 = ADVANCED_FACE ( 'NONE', ( #31 ), #287, .T. ) ;
#310 = DIRECTION ( 'NONE',  ( -6.982962677686266711E-15, -1.000000000000000000, 3.494731800265751030E-15 ) ) ;
#311 = AXIS2_PLACEMENT_3D ( 'NONE', #56, #20, #276 ) ;
#312 = CARTESIAN_POINT ( 'NONE',  ( 7.627343420802548648E-29, -1.180618863439092967E-14, -3.250000000000000000 ) ) ;
#313 = EDGE_CURVE ( 'NONE', #383, #331, #159, .T. ) ;
#314 = CARTESIAN_POINT ( 'NONE',  ( 0.2500000000000000000, -8.728703347107857054E-15, -2.000000000000000000 ) ) ;
#315 = CC_DESIGN_APPROVAL ( #410, ( #170 ) ) ;
#316 = DIRECTION ( 'NONE',  ( -2.445468806185136877E-29, 3.491481338843145188E-15, 1.000000000000000000 ) ) ;
#317 = CARTESIAN_POINT ( 'NONE',  ( 4.890937612370273194E-29, -6.982962677686291165E-15, -2.000000000000000000 ) ) ;
#318 = FACE_OUTER_BOUND ( 'NONE', #293, .T. ) ;
#319 = ORIENTED_EDGE ( 'NONE', *, *, #17, .F. ) ;
#320 = DIRECTION ( 'NONE',  ( -6.982962677686266711E-15, -1.000000000000000000, 3.278217592397113101E-15 ) ) ;
#321 = ORIENTED_EDGE ( 'NONE', *, *, #248, .F. ) ;
#322 = AXIS2_PLACEMENT_3D ( 'NONE', #317, #408, #126 ) ;
#323 = ORIENTED_EDGE ( 'NONE', *, *, #174, .F. ) ;
#324 = EDGE_CURVE ( 'NONE', #115, #360, #19, .T. ) ;
#325 = SECURITY_CLASSIFICATION_LEVEL ( 'unclassified' ) ;
#326 = ORIENTED_EDGE ( 'NONE', *, *, #50, .F. ) ;
#327 =( NAMED_UNIT ( * ) SI_UNIT ( $, .STERADIAN. ) SOLID_ANGLE_UNIT ( ) );
#328 = APPROVAL_PERSON_ORGANIZATION ( #294, #410, #261 ) ;
#329 = ORIENTED_EDGE ( 'NONE', *, *, #60, .F. ) ;
#330 = COORDINATED_UNIVERSAL_TIME_OFFSET ( 5, 0, .BEHIND. ) ;
#331 = VERTEX_POINT ( 'NONE', #187 ) ;
#332 = EDGE_LOOP ( 'NONE', ( #262, #63 ) ) ;
#333 = APPLICATION_CONTEXT ( 'configuration controlled 3d designs of mechanical parts and assemblies' ) ;
#334 = APPROVAL_DATE_TIME ( #138, #84 ) ;
#335 = ORIENTED_EDGE ( 'NONE', *, *, #184, .F. ) ;
#336 = DIRECTION ( 'NONE',  ( -2.443199021105205549E-29, 3.494731800265750636E-15, 1.000000000000000000 ) ) ;
#337 = VECTOR ( 'NONE', #316, 39.37007874015748143 ) ;
#338 = PRODUCT_RELATED_PRODUCT_CATEGORY ( 'detail', '', ( #79 ) ) ;
#339 = DIRECTION ( 'NONE',  ( -2.443199021105205549E-29, 3.494731800265750636E-15, 1.000000000000000000 ) ) ;
#340 = DIRECTION ( 'NONE',  ( -2.445468806185136597E-29, 3.491481338843145583E-15, 1.000000000000000000 ) ) ;
#341 = FACE_OUTER_BOUND ( 'NONE', #267, .T. ) ;
#342 = CC_DESIGN_PERSON_AND_ORGANIZATION_ASSIGNMENT ( #273, #114, ( #409 ) ) ;
#343 = DIRECTION ( 'NONE',  ( -4.937700262164969294E-15, -0.7071067811866054154, 0.7071067811864896191 ) ) ;
#344 = DIRECTION ( 'NONE',  ( -1.000000000000000000, 7.105427357601001070E-15, -4.926315508542082329E-29 ) ) ;
#345 = DIRECTION ( 'NONE',  ( -2.445468806185136597E-29, 3.491481338843145583E-15, 1.000000000000000000 ) ) ;
#346 = ORIENTED_EDGE ( 'NONE', *, *, #4, .F. ) ;
#347 = AXIS2_PLACEMENT_3D ( 'NONE', #372, #247, #406 ) ;
#348 = CARTESIAN_POINT ( 'NONE',  ( 7.336406418555408669E-29, -1.047444401652943478E-14, -2.999999999999999556 ) ) ;
#349 = ADVANCED_FACE ( 'NONE', ( #318 ), #376, .T. ) ;
#350 = ORIENTED_EDGE ( 'NONE', *, *, #367, .T. ) ;
#351 = CC_DESIGN_APPROVAL ( #84, ( #409 ) ) ;
#352 = EDGE_LOOP ( 'NONE', ( #323, #46, #255, #391 ) ) ;
#353 = DIRECTION ( 'NONE',  ( 2.438088387897960049E-29, -3.491481338843145188E-15, -1.000000000000000000 ) ) ;
#354 = CC_DESIGN_DATE_AND_TIME_ASSIGNMENT ( #199, #44, ( #296 ) ) ;
#355 = PERSON_AND_ORGANIZATION ( #211, #388 ) ;
#356 = DIMENSIONAL_EXPONENTS ( 1.000000000000000000, 0.000000000000000000, 0.000000000000000000, 0.000000000000000000, 0.000000000000000000, 0.000000000000000000, 0.000000000000000000 ) ;
#357 = DIRECTION ( 'NONE',  ( -2.443199021105205549E-29, 3.494731800265750636E-15, 1.000000000000000000 ) ) ;
#358 = PERSON_AND_ORGANIZATION ( #211, #388 ) ;
#359 = EDGE_CURVE ( 'NONE', #331, #160, #36, .T. ) ;
#360 = VERTEX_POINT ( 'NONE', #129 ) ;
#361 = APPROVAL_ROLE ( '' ) ;
#362 = LINE ( 'NONE', #15, #218 ) ;
#363 = CIRCLE ( 'NONE', #381, 0.2299999999999991496 ) ;
#364 = DATE_AND_TIME ( #41, #306 ) ;
#365 = ORIENTED_EDGE ( 'NONE', *, *, #221, .F. ) ;
#366 = ORIENTED_EDGE ( 'NONE', *, *, #17, .T. ) ;
#367 = EDGE_CURVE ( 'NONE', #139, #238, #65, .T. ) ;
#368 = CARTESIAN_POINT ( 'NONE',  ( 1.776356839400251254E-15, 0.2500000000000001110, -8.736829500664381520E-16 ) ) ;
#369 = VECTOR ( 'NONE', #304, 39.37007874015748143 ) ;
#370 = AXIS2_PLACEMENT_3D ( 'NONE', #23, #400, #206 ) ;
#371 = AXIS2_PLACEMENT_3D ( 'NONE', #168, #295, #302 ) ;
#372 = CARTESIAN_POINT ( 'NONE',  ( 7.005286640641522422E-29, -1.094862638466948349E-14, -2.999999999999999556 ) ) ;
#373 = DIRECTION ( 'NONE',  ( -6.982962677686265133E-15, -1.000000000000000000, 3.291383124896702687E-15 ) ) ;
#374 = ORIENTED_EDGE ( 'NONE', *, *, #264, .F. ) ;
#375 = CARTESIAN_POINT ( 'NONE',  ( -1.738757706743831360E-15, -0.2490000000000069935, -1.999999999999999112 ) ) ;
#376 = CONICAL_SURFACE ( 'NONE', #278, 0.2489999999999999991, 0.7853981633975336552 ) ;
#377 = CARTESIAN_POINT ( 'NONE',  ( 0.000000000000000000, 0.000000000000000000, 0.000000000000000000 ) ) ;
#378 = EDGE_CURVE ( 'NONE', #305, #331, #3, .T. ) ;
#379 = DIRECTION ( 'NONE',  ( -2.443199021105205549E-29, 3.494731800265750636E-15, 1.000000000000000000 ) ) ;
#380 = CARTESIAN_POINT ( 'NONE',  ( 4.886398042210411659E-29, -6.989463600531501271E-15, -2.000000000000000000 ) ) ;
#381 = AXIS2_PLACEMENT_3D ( 'NONE', #281, #96, #175 ) ;
#382 = FACE_OUTER_BOUND ( 'NONE', #103, .T. ) ;
#383 = VERTEX_POINT ( 'NONE', #384 ) ;
#384 = CARTESIAN_POINT ( 'NONE',  ( -1.646519519465164404E-15, -0.2299999999999991496, 1.683849493149003588E-15 ) ) ;
#385 = ADVANCED_FACE ( 'NONE', ( #154 ), #123, .T. ) ;
#386 = DIRECTION ( 'NONE',  ( 1.000000000000000000, -6.982962677686266711E-15, 4.876176775795935793E-29 ) ) ;
#387 = COORDINATED_UNIVERSAL_TIME_OFFSET ( 5, 0, .BEHIND. ) ;
#388 = ORGANIZATION ( 'UNSPECIFIED', 'UNSPECIFIED', '' ) ;
#389 = EDGE_LOOP ( 'NONE', ( #319, #38, #188, #350, #82 ) ) ;
#390 = ADVANCED_FACE ( 'NONE', ( #382 ), #250, .F. ) ;
#391 = ORIENTED_EDGE ( 'NONE', *, *, #288, .F. ) ;
#392 = DATE_AND_TIME ( #268, #140 ) ;
#393 = DIRECTION ( 'NONE',  ( 1.000000000000000000, -6.982962677686269077E-15, 0.000000000000000000 ) ) ;
#394 = VERTEX_POINT ( 'NONE', #62 ) ;
#395 = CIRCLE ( 'NONE', #81, 0.2489999999999999991 ) ;
#396 = APPROVAL_DATE_TIME ( #364, #212 ) ;
#397 = DIRECTION ( 'NONE',  ( -2.445468806185136597E-29, 3.491481338843145583E-15, 1.000000000000000000 ) ) ;
#398 = EDGE_CURVE ( 'NONE', #290, #394, #240, .T. ) ;
#399 = CARTESIAN_POINT ( 'NONE',  ( 4.886398042210422449E-31, -6.989463600531517098E-17, -0.02000000000000004552 ) ) ;
#400 = DIRECTION ( 'NONE',  ( -1.000000000000000000, 6.982962677686265922E-15, -4.883557194083113462E-29 ) ) ;
#401 = AXIS2_PLACEMENT_3D ( 'NONE', #119, #344, #241 ) ;
#402 = CIRCLE ( 'NONE', #127, 0.2299999999999991496 ) ;
#403 = SPHERICAL_SURFACE ( 'NONE', #58, 0.2500000000000001110 ) ;
#404 = VERTEX_POINT ( 'NONE', #213 ) ;
#405 = FACE_OUTER_BOUND ( 'NONE', #272, .T. ) ;
#406 = DIRECTION ( 'NONE',  ( 6.982962677686266711E-15, 1.000000000000000000, 0.000000000000000000 ) ) ;
#407 = CC_DESIGN_APPROVAL ( #212, ( #296 ) ) ;
#408 = DIRECTION ( 'NONE',  ( -2.445468806185136597E-29, 3.491481338843145583E-15, 1.000000000000000000 ) ) ;
#409 = PRODUCT_DEFINITION_FORMATION_WITH_SPECIFIED_SOURCE ( 'ANY', '', #79, .NOT_KNOWN. ) ;
#410 = APPROVAL ( #132, 'UNSPECIFIED' ) ;
#411 = DIRECTION ( 'NONE',  ( -2.443199021105205549E-29, 3.494731800265750636E-15, 1.000000000000000000 ) ) ;
#412 = CARTESIAN_POINT ( 'NONE',  ( -1.745740669421519346E-15, -0.2500000000000072164, -1.998999999999999000 ) ) ;
ENDSEC;
END-ISO-10303-21;
