ISO-10303-21;
HEADER;
FILE_DESCRIPTION (( 'STEP AP203' ),
    '1' );
FILE_NAME ('37095.STEP',
    '2024-02-27T20:28:43',
    ( '' ),
    ( '' ),
    'SwSTEP 2.0',
    'SolidWorks 2023',
    '' );
FILE_SCHEMA (( 'CONFIG_CONTROL_DESIGN' ));
ENDSEC;

DATA;
#1 = ADVANCED_FACE ( 'NONE', ( #17 ), #81, .T. ) ;
#2 = FACE_OUTER_BOUND ( 'NONE', #304, .T. ) ;
#3 = AXIS2_PLACEMENT_3D ( 'NONE', #182, #123, #189 ) ;
#4 = ORIENTED_EDGE ( 'NONE', *, *, #362, .F. ) ;
#5 = EDGE_CURVE ( 'NONE', #74, #233, #120, .T. ) ;
#6 =( NAMED_UNIT ( * ) PLANE_ANGLE_UNIT ( ) SI_UNIT ( $, .RADIAN. ) );
#7 = APPLICATION_CONTEXT ( 'configuration controlled 3d designs of mechanical parts and assemblies' ) ;
#8 = DIRECTION ( 'NONE',  ( 1.000000000000000000, -6.982962677686266711E-15, 0.000000000000000000 ) ) ;
#9 = CARTESIAN_POINT ( 'NONE',  ( 0.3750000000000000555, -1.352599870667833977E-14, -3.124000000000000998 ) ) ;
#10 = APPLICATION_PROTOCOL_DEFINITION ( 'international standard', 'config_control_design', 1994, #7 ) ;
#11 = CLOSED_SHELL ( 'NONE', ( #250, #339, #166, #202 ) ) ;
#12 = CARTESIAN_POINT ( 'NONE',  ( 0.3739999999999999991, -1.352250722533949360E-14, -3.125000000000000000 ) ) ;
#13 = EDGE_LOOP ( 'NONE', ( #97, #70, #156, #218 ) ) ;
#14 = CYLINDRICAL_SURFACE ( 'NONE', #36, 0.3749999999999998335 ) ;
#15 = PERSON_AND_ORGANIZATION_ROLE ( 'creator' ) ;
#16 = FACE_OUTER_BOUND ( 'NONE', #26, .T. ) ;
#17 = FACE_OUTER_BOUND ( 'NONE', #92, .T. ) ;
#18 = CIRCLE ( 'NONE', #316, 0.3739999999999999991 ) ;
#19 = FACE_OUTER_BOUND ( 'NONE', #58, .T. ) ;
#20 = ORIENTED_EDGE ( 'NONE', *, *, #100, .T. ) ;
#21 = DIRECTION ( 'NONE',  ( -2.445468806185136597E-29, 3.491481338843145583E-15, 1.000000000000000000 ) ) ;
#22 = ADVANCED_FACE ( 'NONE', ( #134 ), #137, .T. ) ;
#23 = APPROVAL_DATE_TIME ( #45, #175 ) ;
#24 = CARTESIAN_POINT ( 'NONE',  ( 0.3749999999999998335, -2.618611004132348439E-15, 1.828566290923475082E-29 ) ) ;
#25 = CC_DESIGN_PERSON_AND_ORGANIZATION_ASSIGNMENT ( #283, #300, ( #199 ) ) ;
#26 = EDGE_LOOP ( 'NONE', ( #282, #187, #312, #267 ) ) ;
#27 = AXIS2_PLACEMENT_3D ( 'NONE', #93, #21, #122 ) ;
#28 = ORIENTED_EDGE ( 'NONE', *, *, #333, .F. ) ;
#29 = ADVANCED_FACE ( 'NONE', ( #289 ), #114, .T. ) ;
#30 = CARTESIAN_POINT ( 'NONE',  ( 0.000000000000000000, 0.000000000000000000, 0.000000000000000000 ) ) ;
#31 = CARTESIAN_POINT ( 'NONE',  ( 7.642090019328551865E-29, -1.091087918388483118E-14, -3.125000000000000000 ) ) ;
#32 = VECTOR ( 'NONE', #171, 39.37007874015748143 ) ;
#33 = AXIS2_PLACEMENT_3D ( 'NONE', #138, #345, #56 ) ;
#34 = CARTESIAN_POINT ( 'NONE',  ( 4.890937612370289799E-31, -6.982962677686315028E-17, -0.02000000000000006981 ) ) ;
#35 = CARTESIAN_POINT ( 'NONE',  ( -0.3749999999999999445, -2.824073405561048066E-15, -3.124000000000000998 ) ) ;
#36 = AXIS2_PLACEMENT_3D ( 'NONE', #204, #64, #65 ) ;
#37 = LOCAL_TIME ( 15, 28, 43.00000000000000000, #309 ) ;
#38 = CC_DESIGN_DATE_AND_TIME_ASSIGNMENT ( #214, #155, ( #199 ) ) ;
#39 = DIRECTION ( 'NONE',  ( -2.445468806185136597E-29, 3.491481338843145583E-15, 1.000000000000000000 ) ) ;
#40 = COORDINATED_UNIVERSAL_TIME_OFFSET ( 5, 0, .BEHIND. ) ;
#41 = VERTEX_POINT ( 'NONE', #200 ) ;
#42 = FACE_OUTER_BOUND ( 'NONE', #177, .T. ) ;
#43 = APPLICATION_PROTOCOL_DEFINITION ( 'international standard', 'config_control_design', 1994, #360 ) ;
#44 = CARTESIAN_POINT ( 'NONE',  ( -0.3549999999999996492, 2.513866563967052703E-15, 4.268512490082953109E-18 ) ) ;
#45 = DATE_AND_TIME ( #273, #255 ) ;
#46 = VERTEX_POINT ( 'NONE', #251 ) ;
#47 = CARTESIAN_POINT ( 'NONE',  ( -0.3749999999999998335, 2.664535259100374514E-15, -1.844600658845588757E-29 ) ) ;
#48 = PERSON_AND_ORGANIZATION ( #69, #98 ) ;
#49 = VERTEX_POINT ( 'NONE', #209 ) ;
#50 = EDGE_CURVE ( 'NONE', #164, #129, #266, .T. ) ;
#51 = CLOSED_SHELL ( 'NONE', ( #301, #245, #71, #29, #22, #1, #111, #224 ) ) ;
#52 = LINE ( 'NONE', #332, #106 ) ;
#53 = AXIS2_PLACEMENT_3D ( 'NONE', #349, #39, #317 ) ;
#54 = CALENDAR_DATE ( 2024, 27, 2 ) ;
#55 = VERTEX_POINT ( 'NONE', #9 ) ;
#56 = DIRECTION ( 'NONE',  ( 1.000000000000000000, -6.982962677686265133E-15, 0.000000000000000000 ) ) ;
#57 = CARTESIAN_POINT ( 'NONE',  ( 4.890937612370289799E-31, -6.982962677686315028E-17, -0.02000000000000006981 ) ) ;
#58 = EDGE_LOOP ( 'NONE', ( #118, #249 ) ) ;
#59 = CIRCLE ( 'NONE', #181, 0.3739999999999999991 ) ;
#60 = EDGE_CURVE ( 'NONE', #233, #74, #337, .T. ) ;
#61 = CARTESIAN_POINT ( 'NONE',  ( 2.618611004132448230E-15, 0.3749999999999861222, -4.000000000000000888 ) ) ;
#62 = AXIS2_PLACEMENT_3D ( 'NONE', #310, #198, #127 ) ;
#63 = DIRECTION ( 'NONE',  ( -2.445468806185136597E-29, 3.491481338843145583E-15, 1.000000000000000000 ) ) ;
#64 = DIRECTION ( 'NONE',  ( -2.445468806185136597E-29, 3.491481338843145583E-15, 1.000000000000000000 ) ) ;
#65 = DIRECTION ( 'NONE',  ( 1.000000000000000000, -6.982962677686265922E-15, 4.876176775795935793E-29 ) ) ;
#66 = PRODUCT_DEFINITION_SHAPE ( 'NONE', 'NONE',  #356 ) ;
#67 = CIRCLE ( 'NONE', #159, 0.3750000000000000555 ) ;
#68 = FACE_OUTER_BOUND ( 'NONE', #274, .T. ) ;
#69 = PERSON ( 'UNSPECIFIED', 'UNSPECIFIED', 'UNSPECIFIED', ('UNSPECIFIED'), ('UNSPECIFIED'), ('UNSPECIFIED') ) ;
#70 = ORIENTED_EDGE ( 'NONE', *, *, #169, .T. ) ;
#71 = ADVANCED_FACE ( 'NONE', ( #119 ), #96, .T. ) ;
#72 = CARTESIAN_POINT ( 'NONE',  ( 7.642090019328551865E-29, -1.091087918388483118E-14, -3.125000000000000000 ) ) ;
#73 = APPROVAL_ROLE ( '' ) ;
#74 = VERTEX_POINT ( 'NONE', #348 ) ;
#75 = CC_DESIGN_APPROVAL ( #292, ( #356 ) ) ;
#76 = ORIENTED_EDGE ( 'NONE', *, *, #116, .F. ) ;
#77 = DIRECTION ( 'NONE',  ( -0.7071067811868130271, 7.493145998871311837E-15, 0.7071067811862817853 ) ) ;
#78 = ADVANCED_BREP_SHAPE_REPRESENTATION ( '37095', ( #265, #261, #243 ), #259 ) ;
#79 = ORIENTED_EDGE ( 'NONE', *, *, #227, .T. ) ;
#80 = ORIENTED_EDGE ( 'NONE', *, *, #5, .T. ) ;
#81 = CONICAL_SURFACE ( 'NONE', #62, 0.3739999999999999991, 0.7853981633978239785 ) ;
#82 = DIRECTION ( 'NONE',  ( -2.445468806185136597E-29, 3.491481338843145583E-15, 1.000000000000000000 ) ) ;
#83 = PERSON_AND_ORGANIZATION ( #69, #98 ) ;
#84 = ORIENTED_EDGE ( 'NONE', *, *, #333, .T. ) ;
#85 = LINE ( 'NONE', #197, #32 ) ;
#86 = AXIS2_PLACEMENT_3D ( 'NONE', #165, #140, #173 ) ;
#87 = CARTESIAN_POINT ( 'NONE',  ( 9.781875224740546387E-29, -1.396592535537258233E-14, -4.000000000000000000 ) ) ;
#88 = DIRECTION ( 'NONE',  ( 0.7071067811865461294, -7.319954787623251312E-15, -0.7071067811865489050 ) ) ;
#89 = AXIS2_PLACEMENT_3D ( 'NONE', #336, #82, #195 ) ;
#90 = CARTESIAN_POINT ( 'NONE',  ( 4.890937612370289799E-31, -6.982962677686315028E-17, -0.02000000000000006981 ) ) ;
#91 = UNCERTAINTY_MEASURE_WITH_UNIT (LENGTH_MEASURE( 1.000000000000000082E-05 ), #353, 'distance_accuracy_value', 'NONE');
#92 = EDGE_LOOP ( 'NONE', ( #192, #216, #20, #331 ) ) ;
#93 = CARTESIAN_POINT ( 'NONE',  ( 7.639644550522368504E-29, -1.090738770254598975E-14, -3.124000000000000998 ) ) ;
#94 = DIRECTION ( 'NONE',  ( -2.445468806185136597E-29, 3.491481338843145583E-15, 1.000000000000000000 ) ) ;
#95 =( LENGTH_UNIT ( ) NAMED_UNIT ( * ) SI_UNIT ( $, .METRE. ) );
#96 = CONICAL_SURFACE ( 'NONE', #344, 0.3749999999999996114, 0.7853981633974463916 ) ;
#97 = ORIENTED_EDGE ( 'NONE', *, *, #185, .F. ) ;
#98 = ORGANIZATION ( 'UNSPECIFIED', 'UNSPECIFIED', '' ) ;
#99 = CARTESIAN_POINT ( 'NONE',  ( 0.3750000000000000555, -1.658453635950493392E-14, -4.000000000000000000 ) ) ;
#100 = EDGE_CURVE ( 'NONE', #103, #55, #205, .T. ) ;
#101 = ORIENTED_EDGE ( 'NONE', *, *, #60, .T. ) ;
#102 = DIRECTION ( 'NONE',  ( 2.438088387897960049E-29, -3.491481338843145188E-15, -1.000000000000000000 ) ) ;
#103 = VERTEX_POINT ( 'NONE', #12 ) ;
#104 = DIRECTION ( 'NONE',  ( -1.000000000000000000, 6.982962677686265922E-15, -4.876176775795935793E-29 ) ) ;
#105 = PERSON_AND_ORGANIZATION_ROLE ( 'design_supplier' ) ;
#106 = VECTOR ( 'NONE', #77, 39.37007874015748854 ) ;
#107 = DIRECTION ( 'NONE',  ( 1.000000000000000000, -6.982962677686266711E-15, 0.000000000000000000 ) ) ;
#108 = ORIENTED_EDGE ( 'NONE', *, *, #256, .F. ) ;
#109 = VECTOR ( 'NONE', #299, 39.37007874015748143 ) ;
#110 = CC_DESIGN_APPROVAL ( #175, ( #199 ) ) ;
#111 = ADVANCED_FACE ( 'NONE', ( #68 ), #178, .F. ) ;
#112 = DIRECTION ( 'NONE',  ( -1.000000000000000000, 6.982962677686266711E-15, 0.000000000000000000 ) ) ;
#113 = DIRECTION ( 'NONE',  ( -2.445468806185136597E-29, 3.491481338843145583E-15, 1.000000000000000000 ) ) ;
#114 = CONICAL_SURFACE ( 'NONE', #330, 0.3749999999999996114, 0.7853981633974463916 ) ;
#115 = CYLINDRICAL_SURFACE ( 'NONE', #86, 0.3750000000000000555 ) ;
#116 = EDGE_CURVE ( 'NONE', #55, #121, #172, .T. ) ;
#117 = DIRECTION ( 'NONE',  ( 1.000000000000000000, -6.982962677686266711E-15, 0.000000000000000000 ) ) ;
#118 = ORIENTED_EDGE ( 'NONE', *, *, #314, .T. ) ;
#119 = FACE_OUTER_BOUND ( 'NONE', #366, .T. ) ;
#120 = CIRCLE ( 'NONE', #135, 0.3749999999999996114 ) ;
#121 = VERTEX_POINT ( 'NONE', #35 ) ;
#122 = DIRECTION ( 'NONE',  ( 1.000000000000000000, -6.982962677686266711E-15, 0.000000000000000000 ) ) ;
#123 = DIRECTION ( 'NONE',  ( -2.438088387897960049E-29, 3.491481338843145188E-15, 1.000000000000000000 ) ) ;
#124 = PERSON_AND_ORGANIZATION ( #69, #98 ) ;
#125 = DATE_TIME_ROLE ( 'creation_date' ) ;
#126 = VECTOR ( 'NONE', #257, 39.37007874015748143 ) ;
#127 = DIRECTION ( 'NONE',  ( 1.000000000000000000, -6.982962677686265133E-15, 0.000000000000000000 ) ) ;
#128 = DIRECTION ( 'NONE',  ( -2.445468806185136597E-29, 3.491481338843145583E-15, 1.000000000000000000 ) ) ;
#129 = VERTEX_POINT ( 'NONE', #262 ) ;
#130 = CARTESIAN_POINT ( 'NONE',  ( -1.043851414335219820E-46, 1.490343170380447200E-32, 4.268512490100411279E-18 ) ) ;
#131 = DATE_AND_TIME ( #133, #161 ) ;
#132 = DIRECTION ( 'NONE',  ( -2.445468806185136877E-29, 3.491481338843145188E-15, 1.000000000000000000 ) ) ;
#133 = CALENDAR_DATE ( 2024, 27, 2 ) ;
#134 = FACE_OUTER_BOUND ( 'NONE', #13, .T. ) ;
#135 = AXIS2_PLACEMENT_3D ( 'NONE', #57, #168, #223 ) ;
#136 = ORIENTED_EDGE ( 'NONE', *, *, #290, .T. ) ;
#137 = CYLINDRICAL_SURFACE ( 'NONE', #144, 0.3749999999999998335 ) ;
#138 = CARTESIAN_POINT ( 'NONE',  ( 7.642090019328551865E-29, -1.091087918388483118E-14, -3.125000000000000000 ) ) ;
#139 = AXIS2_PLACEMENT_3D ( 'NONE', #61, #226, #343 ) ;
#140 = DIRECTION ( 'NONE',  ( -2.445468806185136597E-29, 3.491481338843145583E-15, 1.000000000000000000 ) ) ;
#141 = LINE ( 'NONE', #143, #126 ) ;
#142 = EDGE_CURVE ( 'NONE', #49, #103, #59, .T. ) ;
#143 = CARTESIAN_POINT ( 'NONE',  ( -0.3750000000000000555, 2.664535259100376091E-15, -1.844600658845589598E-29 ) ) ;
#144 = AXIS2_PLACEMENT_3D ( 'NONE', #30, #63, #174 ) ;
#145 = DIRECTION ( 'NONE',  ( -2.445468806185136877E-29, 3.491481338843145188E-15, 1.000000000000000000 ) ) ;
#146 = LENGTH_MEASURE_WITH_UNIT ( LENGTH_MEASURE( 0.02539999999999999897 ), #95 );
#147 = CARTESIAN_POINT ( 'NONE',  ( 0.000000000000000000, 0.000000000000000000, 0.000000000000000000 ) ) ;
#148 = EDGE_LOOP ( 'NONE', ( #4, #285 ) ) ;
#149 = VECTOR ( 'NONE', #321, 39.37007874015748854 ) ;
#150 = PRODUCT_DEFINITION_FORMATION_WITH_SPECIFIED_SOURCE ( 'ANY', '', #320, .NOT_KNOWN. ) ;
#151 = CALENDAR_DATE ( 2024, 27, 2 ) ;
#152 = EDGE_LOOP ( 'NONE', ( #302, #326, #84, #101 ) ) ;
#153 = APPROVAL_DATE_TIME ( #240, #292 ) ;
#154 = DIRECTION ( 'NONE',  ( -2.445468806185136597E-29, 3.491481338843145583E-15, 1.000000000000000000 ) ) ;
#155 = DATE_TIME_ROLE ( 'classification_date' ) ;
#156 = ORIENTED_EDGE ( 'NONE', *, *, #256, .T. ) ;
#157 = CARTESIAN_POINT ( 'NONE',  ( 7.642090019328551865E-29, -1.091087918388483118E-14, -3.125000000000000000 ) ) ;
#158 = APPROVAL_STATUS ( 'not_yet_approved' ) ;
#159 = AXIS2_PLACEMENT_3D ( 'NONE', #253, #113, #281 ) ;
#160 = ORIENTED_EDGE ( 'NONE', *, *, #50, .F. ) ;
#161 = LOCAL_TIME ( 15, 28, 43.00000000000000000, #361 ) ;
#162 = DIRECTION ( 'NONE',  ( 1.000000000000000000, -6.982962677686265922E-15, 4.876176775795935793E-29 ) ) ;
#163 = COORDINATED_UNIVERSAL_TIME_OFFSET ( 5, 0, .BEHIND. ) ;
#164 = VERTEX_POINT ( 'NONE', #99 ) ;
#165 = CARTESIAN_POINT ( 'NONE',  ( 0.000000000000000000, 0.000000000000000000, 0.000000000000000000 ) ) ;
#166 = ADVANCED_FACE ( 'NONE', ( #19 ), #272, .F. ) ;
#167 = SHAPE_DEFINITION_REPRESENTATION ( #66, #78 ) ;
#168 = DIRECTION ( 'NONE',  ( -2.445468806185136597E-29, 3.491481338843145583E-15, 1.000000000000000000 ) ) ;
#169 = EDGE_CURVE ( 'NONE', #121, #55, #313, .T. ) ;
#170 = PLANE ( 'NONE',  #139 ) ;
#171 = DIRECTION ( 'NONE',  ( -0.7071067811865461294, 2.468850131082242072E-15, -0.7071067811865489050 ) ) ;
#172 = CIRCLE ( 'NONE', #213, 0.3750000000000000555 ) ;
#173 = DIRECTION ( 'NONE',  ( 1.000000000000000000, -6.982962677686265922E-15, 4.876176775795935793E-29 ) ) ;
#174 = DIRECTION ( 'NONE',  ( 1.000000000000000000, -6.982962677686265922E-15, 4.876176775795935793E-29 ) ) ;
#175 = APPROVAL ( #158, 'UNSPECIFIED' ) ;
#176 = AXIS2_PLACEMENT_3D ( 'NONE', #31, #221, #107 ) ;
#177 = EDGE_LOOP ( 'NONE', ( #355, #220, #244, #108 ) ) ;
#178 = PLANE ( 'NONE',  #3 ) ;
#179 = CALENDAR_DATE ( 2024, 27, 2 ) ;
#180 = FACE_OUTER_BOUND ( 'NONE', #207, .T. ) ;
#181 = AXIS2_PLACEMENT_3D ( 'NONE', #72, #128, #184 ) ;
#182 = CARTESIAN_POINT ( 'NONE',  ( 7.642090019328551865E-29, -1.091087918388483118E-14, -3.125000000000000000 ) ) ;
#183 =( NAMED_UNIT ( * ) SI_UNIT ( $, .STERADIAN. ) SOLID_ANGLE_UNIT ( ) );
#184 = DIRECTION ( 'NONE',  ( 1.000000000000000000, -6.982962677686265133E-15, 0.000000000000000000 ) ) ;
#185 = EDGE_CURVE ( 'NONE', #121, #233, #208, .T. ) ;
#186 = PERSON_AND_ORGANIZATION ( #69, #98 ) ;
#187 = ORIENTED_EDGE ( 'NONE', *, *, #346, .T. ) ;
#188 = DIRECTION ( 'NONE',  ( 1.000000000000000000, -6.982962677686265133E-15, 0.000000000000000000 ) ) ;
#189 = DIRECTION ( 'NONE',  ( 1.000000000000000000, -6.982962677686265922E-15, 4.876176775795935793E-29 ) ) ;
#190 = VERTEX_POINT ( 'NONE', #44 ) ;
#191 = AXIS2_PLACEMENT_3D ( 'NONE', #130, #278, #296 ) ;
#192 = ORIENTED_EDGE ( 'NONE', *, *, #194, .F. ) ;
#193 = LOCAL_TIME ( 15, 28, 43.00000000000000000, #271 ) ;
#194 = EDGE_CURVE ( 'NONE', #49, #121, #52, .T. ) ;
#195 = DIRECTION ( 'NONE',  ( 1.000000000000000000, -6.982962677686265922E-15, 4.876231632511992667E-29 ) ) ;
#196 = ORIENTED_EDGE ( 'NONE', *, *, #314, .F. ) ;
#197 = CARTESIAN_POINT ( 'NONE',  ( -0.3749999999999996114, 2.548781377355483957E-15, -0.02000000000000006981 ) ) ;
#198 = DIRECTION ( 'NONE',  ( -2.445468806185136597E-29, 3.491481338843145583E-15, 1.000000000000000000 ) ) ;
#199 = SECURITY_CLASSIFICATION ( '', '', #222 ) ;
#200 = CARTESIAN_POINT ( 'NONE',  ( -0.3750000000000000555, -9.773867010528330269E-15, -3.125000000000000000 ) ) ;
#201 = DIRECTION ( 'NONE',  ( -2.445468806185136597E-29, 3.491481338843145583E-15, 1.000000000000000000 ) ) ;
#202 = ADVANCED_FACE ( 'NONE', ( #16 ), #217, .T. ) ;
#203 = CIRCLE ( 'NONE', #53, 0.3750000000000000555 ) ;
#204 = CARTESIAN_POINT ( 'NONE',  ( 0.000000000000000000, 0.000000000000000000, 0.000000000000000000 ) ) ;
#205 = LINE ( 'NONE', #232, #149 ) ;
#206 = PERSON_AND_ORGANIZATION_ROLE ( 'design_owner' ) ;
#207 = EDGE_LOOP ( 'NONE', ( #350, #79 ) ) ;
#208 = LINE ( 'NONE', #47, #109 ) ;
#209 = CARTESIAN_POINT ( 'NONE',  ( -0.3739999999999999991, -8.248150897793834876E-15, -3.125000000000000000 ) ) ;
#210 = DIRECTION ( 'NONE',  ( 1.000000000000000000, 0.000000000000000000, 0.000000000000000000 ) ) ;
#211 = CARTESIAN_POINT ( 'NONE',  ( -0.3749999999999996114, 2.548781377355483957E-15, -0.02000000000000006981 ) ) ;
#212 = EDGE_CURVE ( 'NONE', #103, #49, #18, .T. ) ;
#213 = AXIS2_PLACEMENT_3D ( 'NONE', #341, #252, #8 ) ;
#214 = DATE_AND_TIME ( #54, #37 ) ;
#215 = DESIGN_CONTEXT ( 'detailed design', #7, 'design' ) ;
#216 = ORIENTED_EDGE ( 'NONE', *, *, #142, .T. ) ;
#217 = CYLINDRICAL_SURFACE ( 'NONE', #229, 0.3750000000000000555 ) ;
#218 = ORIENTED_EDGE ( 'NONE', *, *, #60, .F. ) ;
#219 = CARTESIAN_POINT ( 'NONE',  ( 0.000000000000000000, 0.000000000000000000, 0.000000000000000000 ) ) ;
#220 = ORIENTED_EDGE ( 'NONE', *, *, #185, .T. ) ;
#221 = DIRECTION ( 'NONE',  ( -2.445468806185136597E-29, 3.491481338843145583E-15, 1.000000000000000000 ) ) ;
#222 = SECURITY_CLASSIFICATION_LEVEL ( 'unclassified' ) ;
#223 = DIRECTION ( 'NONE',  ( 1.000000000000000000, -6.982962677686266711E-15, 0.000000000000000000 ) ) ;
#224 = ADVANCED_FACE ( 'NONE', ( #180 ), #335, .F. ) ;
#225 = CONICAL_SURFACE ( 'NONE', #33, 0.3739999999999999991, 0.7853981633978239785 ) ;
#226 = DIRECTION ( 'NONE',  ( 2.438088387897960049E-29, -3.491481338843145188E-15, -1.000000000000000000 ) ) ;
#227 = EDGE_CURVE ( 'NONE', #358, #190, #254, .T. ) ;
#228 = DIMENSIONAL_EXPONENTS ( 1.000000000000000000, 0.000000000000000000, 0.000000000000000000, 0.000000000000000000, 0.000000000000000000, 0.000000000000000000, 0.000000000000000000 ) ;
#229 = AXIS2_PLACEMENT_3D ( 'NONE', #219, #154, #162 ) ;
#230 = LINE ( 'NONE', #24, #242 ) ;
#231 = EDGE_CURVE ( 'NONE', #190, #358, #364, .T. ) ;
#232 = CARTESIAN_POINT ( 'NONE',  ( 0.3739999999999999991, -1.352250722533949360E-14, -3.125000000000000000 ) ) ;
#233 = VERTEX_POINT ( 'NONE', #211 ) ;
#234 = APPROVAL ( #246, 'UNSPECIFIED' ) ;
#235 = DIRECTION ( 'NONE',  ( 2.445468806185136597E-29, -3.491481338843145583E-15, -1.000000000000000000 ) ) ;
#236 = AXIS2_PLACEMENT_3D ( 'NONE', #327, #305, #104 ) ;
#237 = CC_DESIGN_SECURITY_CLASSIFICATION ( #199, ( #150 ) ) ;
#238 = LOCAL_TIME ( 15, 28, 43.00000000000000000, #40 ) ;
#239 = PERSON_AND_ORGANIZATION ( #69, #98 ) ;
#240 = DATE_AND_TIME ( #179, #193 ) ;
#241 = CC_DESIGN_DATE_AND_TIME_ASSIGNMENT ( #270, #125, ( #356 ) ) ;
#242 = VECTOR ( 'NONE', #132, 39.37007874015748143 ) ;
#243 = AXIS2_PLACEMENT_3D ( 'NONE', #147, #264, #210 ) ;
#244 = ORIENTED_EDGE ( 'NONE', *, *, #5, .F. ) ;
#245 = ADVANCED_FACE ( 'NONE', ( #42 ), #14, .T. ) ;
#246 = APPROVAL_STATUS ( 'not_yet_approved' ) ;
#247 = ORIENTED_EDGE ( 'NONE', *, *, #142, .F. ) ;
#248 = LINE ( 'NONE', #347, #291 ) ;
#249 = ORIENTED_EDGE ( 'NONE', *, *, #323, .T. ) ;
#250 = ADVANCED_FACE ( 'NONE', ( #340 ), #115, .T. ) ;
#251 = CARTESIAN_POINT ( 'NONE',  ( -0.3750000000000000555, -9.773867010528330269E-15, -4.000000000000000000 ) ) ;
#252 = DIRECTION ( 'NONE',  ( -2.445468806185136597E-29, 3.491481338843145583E-15, 1.000000000000000000 ) ) ;
#253 = CARTESIAN_POINT ( 'NONE',  ( 7.642090019328551865E-29, -1.091087918388483118E-14, -3.125000000000000000 ) ) ;
#254 = CIRCLE ( 'NONE', #191, 0.3549999999999996492 ) ;
#255 = LOCAL_TIME ( 15, 28, 43.00000000000000000, #163 ) ;
#256 = EDGE_CURVE ( 'NONE', #55, #74, #230, .T. ) ;
#257 = DIRECTION ( 'NONE',  ( -2.445468806185136877E-29, 3.491481338843145188E-15, 1.000000000000000000 ) ) ;
#258 = AXIS2_PLACEMENT_3D ( 'NONE', #359, #102, #354 ) ;
#259 =( GEOMETRIC_REPRESENTATION_CONTEXT ( 3 ) GLOBAL_UNCERTAINTY_ASSIGNED_CONTEXT ( ( #91 ) ) GLOBAL_UNIT_ASSIGNED_CONTEXT ( ( #353, #6, #183 ) ) REPRESENTATION_CONTEXT ( 'NONE', 'WORKASPACE' ) );
#260 = ORIENTED_EDGE ( 'NONE', *, *, #212, .T. ) ;
#261 = MANIFOLD_SOLID_BREP ( 'Body-Move/Copy2[2]', #51 ) ;
#262 = CARTESIAN_POINT ( 'NONE',  ( 0.3750000000000000555, -1.352949018801718119E-14, -3.125000000000000000 ) ) ;
#263 = CARTESIAN_POINT ( 'NONE',  ( 0.3750000000000000555, -2.618611004132350016E-15, 1.828566290923476203E-29 ) ) ;
#264 = DIRECTION ( 'NONE',  ( 0.000000000000000000, 0.000000000000000000, 1.000000000000000000 ) ) ;
#265 = MANIFOLD_SOLID_BREP ( 'Body-Move/Copy2[1]', #11 ) ;
#266 = LINE ( 'NONE', #263, #275 ) ;
#267 = ORIENTED_EDGE ( 'NONE', *, *, #323, .F. ) ;
#268 = AXIS2_PLACEMENT_3D ( 'NONE', #90, #328, #117 ) ;
#269 = CARTESIAN_POINT ( 'NONE',  ( 4.890937612370289799E-31, -6.982962677686315028E-17, -0.02000000000000006981 ) ) ;
#270 = DATE_AND_TIME ( #151, #238 ) ;
#271 = COORDINATED_UNIVERSAL_TIME_OFFSET ( 5, 0, .BEHIND. ) ;
#272 = PLANE ( 'NONE',  #258 ) ;
#273 = CALENDAR_DATE ( 2024, 27, 2 ) ;
#274 = EDGE_LOOP ( 'NONE', ( #277, #247 ) ) ;
#275 = VECTOR ( 'NONE', #145, 39.37007874015748143 ) ;
#276 = APPROVAL_ROLE ( '' ) ;
#277 = ORIENTED_EDGE ( 'NONE', *, *, #212, .F. ) ;
#278 = DIRECTION ( 'NONE',  ( -2.445468806185136597E-29, 3.491481338843145583E-15, 1.000000000000000000 ) ) ;
#279 = PERSON_AND_ORGANIZATION_ROLE ( 'creator' ) ;
#280 = ORIENTED_EDGE ( 'NONE', *, *, #362, .T. ) ;
#281 = DIRECTION ( 'NONE',  ( 1.000000000000000000, -6.982962677686266711E-15, 0.000000000000000000 ) ) ;
#282 = ORIENTED_EDGE ( 'NONE', *, *, #290, .F. ) ;
#283 = PERSON_AND_ORGANIZATION ( #69, #98 ) ;
#284 = EDGE_CURVE ( 'NONE', #358, #74, #248, .T. ) ;
#285 = ORIENTED_EDGE ( 'NONE', *, *, #346, .F. ) ;
#286 = PRODUCT_RELATED_PRODUCT_CATEGORY ( 'detail', '', ( #320 ) ) ;
#287 = CARTESIAN_POINT ( 'NONE',  ( 0.3549999999999996492, -2.538996582575037893E-15, 4.268512490117958041E-18 ) ) ;
#288 = CC_DESIGN_PERSON_AND_ORGANIZATION_ASSIGNMENT ( #48, #279, ( #150 ) ) ;
#289 = FACE_OUTER_BOUND ( 'NONE', #152, .T. ) ;
#290 = EDGE_CURVE ( 'NONE', #46, #41, #141, .T. ) ;
#291 = VECTOR ( 'NONE', #88, 39.37007874015748143 ) ;
#292 = APPROVAL ( #322, 'UNSPECIFIED' ) ;
#293 = DIRECTION ( 'NONE',  ( -1.000000000000000000, 6.982962677686266711E-15, 0.000000000000000000 ) ) ;
#294 = CC_DESIGN_PERSON_AND_ORGANIZATION_ASSIGNMENT ( #124, #206, ( #320 ) ) ;
#295 = PERSON_AND_ORGANIZATION ( #69, #98 ) ;
#296 = DIRECTION ( 'NONE',  ( 1.000000000000000000, -6.982962677686265922E-15, 4.876231632511992667E-29 ) ) ;
#297 = APPROVAL_PERSON_ORGANIZATION ( #186, #175, #276 ) ;
#298 = EDGE_LOOP ( 'NONE', ( #280, #136, #196, #160 ) ) ;
#299 = DIRECTION ( 'NONE',  ( -2.445468806185136877E-29, 3.491481338843145188E-15, 1.000000000000000000 ) ) ;
#300 = PERSON_AND_ORGANIZATION_ROLE ( 'classification_officer' ) ;
#301 = ADVANCED_FACE ( 'NONE', ( #2 ), #225, .T. ) ;
#302 = ORIENTED_EDGE ( 'NONE', *, *, #284, .F. ) ;
#303 = APPROVAL_ROLE ( '' ) ;
#304 = EDGE_LOOP ( 'NONE', ( #260, #363, #76, #324 ) ) ;
#305 = DIRECTION ( 'NONE',  ( 2.438088387897960049E-29, -3.491481338843145188E-15, -1.000000000000000000 ) ) ;
#306 = CIRCLE ( 'NONE', #351, 0.3750000000000000555 ) ;
#307 = APPROVAL_DATE_TIME ( #131, #234 ) ;
#308 = ORIENTED_EDGE ( 'NONE', *, *, #227, .F. ) ;
#309 = COORDINATED_UNIVERSAL_TIME_OFFSET ( 5, 0, .BEHIND. ) ;
#310 = CARTESIAN_POINT ( 'NONE',  ( 7.642090019328551865E-29, -1.091087918388483118E-14, -3.125000000000000000 ) ) ;
#311 = FACE_OUTER_BOUND ( 'NONE', #148, .T. ) ;
#312 = ORIENTED_EDGE ( 'NONE', *, *, #50, .T. ) ;
#313 = CIRCLE ( 'NONE', #27, 0.3750000000000000555 ) ;
#314 = EDGE_CURVE ( 'NONE', #129, #41, #319, .T. ) ;
#315 = DIRECTION ( 'NONE',  ( 1.000000000000000000, -6.982962677686266711E-15, 0.000000000000000000 ) ) ;
#316 = AXIS2_PLACEMENT_3D ( 'NONE', #157, #94, #188 ) ;
#317 = DIRECTION ( 'NONE',  ( 1.000000000000000000, -6.982962677686266711E-15, 0.000000000000000000 ) ) ;
#318 = CC_DESIGN_PERSON_AND_ORGANIZATION_ASSIGNMENT ( #83, #105, ( #150 ) ) ;
#319 = CIRCLE ( 'NONE', #176, 0.3750000000000000555 ) ;
#320 = PRODUCT ( '37095', '37095', '', ( #329 ) ) ;
#321 = DIRECTION ( 'NONE',  ( 0.7071067811868130271, -2.468850131085038979E-15, 0.7071067811862817853 ) ) ;
#322 = APPROVAL_STATUS ( 'not_yet_approved' ) ;
#323 = EDGE_CURVE ( 'NONE', #41, #129, #67, .T. ) ;
#324 = ORIENTED_EDGE ( 'NONE', *, *, #100, .F. ) ;
#325 = PERSON_AND_ORGANIZATION ( #69, #98 ) ;
#326 = ORIENTED_EDGE ( 'NONE', *, *, #231, .F. ) ;
#327 = CARTESIAN_POINT ( 'NONE',  ( 2.478951750578621842E-15, 0.3549999999999996492, -1.237341619044265047E-15 ) ) ;
#328 = DIRECTION ( 'NONE',  ( -2.445468806185136597E-29, 3.491481338843145583E-15, 1.000000000000000000 ) ) ;
#329 = MECHANICAL_CONTEXT ( 'NONE', #360, 'mechanical' ) ;
#330 = AXIS2_PLACEMENT_3D ( 'NONE', #34, #342, #112 ) ;
#331 = ORIENTED_EDGE ( 'NONE', *, *, #169, .F. ) ;
#332 = CARTESIAN_POINT ( 'NONE',  ( -0.3739999999999999991, -8.253449352142055701E-15, -3.125000000000000000 ) ) ;
#333 = EDGE_CURVE ( 'NONE', #190, #233, #85, .T. ) ;
#334 = ORIENTED_EDGE ( 'NONE', *, *, #284, .T. ) ;
#335 = PLANE ( 'NONE',  #236 ) ;
#336 = CARTESIAN_POINT ( 'NONE',  ( -1.043851414335219820E-46, 1.490343170380447200E-32, 4.268512490100411279E-18 ) ) ;
#337 = CIRCLE ( 'NONE', #268, 0.3749999999999996114 ) ;
#338 = APPROVAL_PERSON_ORGANIZATION ( #325, #292, #73 ) ;
#339 = ADVANCED_FACE ( 'NONE', ( #311 ), #170, .T. ) ;
#340 = FACE_OUTER_BOUND ( 'NONE', #298, .T. ) ;
#341 = CARTESIAN_POINT ( 'NONE',  ( 7.639644550522368504E-29, -1.090738770254598975E-14, -3.124000000000000998 ) ) ;
#342 = DIRECTION ( 'NONE',  ( 2.445468806185136597E-29, -3.491481338843145583E-15, -1.000000000000000000 ) ) ;
#343 = DIRECTION ( 'NONE',  ( -1.000000000000000000, 6.982962677686265922E-15, -4.876176775795935793E-29 ) ) ;
#344 = AXIS2_PLACEMENT_3D ( 'NONE', #269, #235, #293 ) ;
#345 = DIRECTION ( 'NONE',  ( -2.445468806185136597E-29, 3.491481338843145583E-15, 1.000000000000000000 ) ) ;
#346 = EDGE_CURVE ( 'NONE', #46, #164, #306, .T. ) ;
#347 = CARTESIAN_POINT ( 'NONE',  ( 0.3749999999999996114, -2.642516375941185268E-15, -0.02000000000000006981 ) ) ;
#348 = CARTESIAN_POINT ( 'NONE',  ( 0.3749999999999996114, -2.642516375941185268E-15, -0.02000000000000006981 ) ) ;
#349 = CARTESIAN_POINT ( 'NONE',  ( 9.781875224740546387E-29, -1.396592535537258233E-14, -4.000000000000000000 ) ) ;
#350 = ORIENTED_EDGE ( 'NONE', *, *, #231, .T. ) ;
#351 = AXIS2_PLACEMENT_3D ( 'NONE', #87, #201, #315 ) ;
#352 = CC_DESIGN_PERSON_AND_ORGANIZATION_ASSIGNMENT ( #295, #15, ( #356 ) ) ;
#353 =( CONVERSION_BASED_UNIT ( 'INCH', #146 ) LENGTH_UNIT ( ) NAMED_UNIT ( #228 ) );
#354 = DIRECTION ( 'NONE',  ( -1.000000000000000000, 6.982962677686265922E-15, -4.876176775795935793E-29 ) ) ;
#355 = ORIENTED_EDGE ( 'NONE', *, *, #116, .T. ) ;
#356 = PRODUCT_DEFINITION ( 'UNKNOWN', '', #150, #215 ) ;
#357 = APPROVAL_PERSON_ORGANIZATION ( #239, #234, #303 ) ;
#358 = VERTEX_POINT ( 'NONE', #287 ) ;
#359 = CARTESIAN_POINT ( 'NONE',  ( 2.618611004132426142E-15, 0.3749999999999891198, -3.125000000000001332 ) ) ;
#360 = APPLICATION_CONTEXT ( 'configuration controlled 3d designs of mechanical parts and assemblies' ) ;
#361 = COORDINATED_UNIVERSAL_TIME_OFFSET ( 5, 0, .BEHIND. ) ;
#362 = EDGE_CURVE ( 'NONE', #164, #46, #203, .T. ) ;
#363 = ORIENTED_EDGE ( 'NONE', *, *, #194, .T. ) ;
#364 = CIRCLE ( 'NONE', #89, 0.3549999999999996492 ) ;
#365 = CC_DESIGN_APPROVAL ( #234, ( #150 ) ) ;
#366 = EDGE_LOOP ( 'NONE', ( #308, #334, #80, #28 ) ) ;
ENDSEC;
END-ISO-10303-21;
