ISO-10303-21;
HEADER;
FILE_DESCRIPTION (( 'STEP AP203' ),
    '1' );
FILE_NAME ('38509.STEP',
    '2024-02-27T23:05:01',
    ( '' ),
    ( '' ),
    'SwSTEP 2.0',
    'SolidWorks 2023',
    '' );
FILE_SCHEMA (( 'CONFIG_CONTROL_DESIGN' ));
ENDSEC;

DATA;
#1 = ORIENTED_EDGE ( 'NONE', *, *, #215, .F. ) ;
#2 = DIRECTION ( 'NONE',  ( -2.445468806185136597E-29, 3.491481338843145583E-15, 1.000000000000000000 ) ) ;
#3 = APPROVAL_PERSON_ORGANIZATION ( #144, #42, #147 ) ;
#4 = DIRECTION ( 'NONE',  ( -1.000000000000000000, 6.982962677686265922E-15, -4.876176775795935793E-29 ) ) ;
#5 = DIRECTION ( 'NONE',  ( 1.000000000000000000, -6.982962677686266711E-15, 0.000000000000000000 ) ) ;
#6 = DIRECTION ( 'NONE',  ( -2.445468806185136597E-29, 3.491481338843145583E-15, 1.000000000000000000 ) ) ;
#7 = CALENDAR_DATE ( 2024, 27, 2 ) ;
#8 = AXIS2_PLACEMENT_3D ( 'NONE', #234, #270, #333 ) ;
#9 = LOCAL_TIME ( 18, 5, 1.000000000000000000, #290 ) ;
#10 = CARTESIAN_POINT ( 'NONE',  ( 7.642090019328551865E-29, -1.091087918388483118E-14, -3.125000000000000000 ) ) ;
#11 = CYLINDRICAL_SURFACE ( 'NONE', #348, 0.3750000000000000555 ) ;
#12 = DIRECTION ( 'NONE',  ( 1.000000000000000000, -6.982962677686265922E-15, 4.876176775795935793E-29 ) ) ;
#13 = LINE ( 'NONE', #129, #117 ) ;
#14 = ADVANCED_FACE ( 'NONE', ( #21 ), #317, .T. ) ;
#15 = ORIENTED_EDGE ( 'NONE', *, *, #215, .T. ) ;
#16 = DIRECTION ( 'NONE',  ( 0.000000000000000000, 0.000000000000000000, 1.000000000000000000 ) ) ;
#17 = ORIENTED_EDGE ( 'NONE', *, *, #324, .F. ) ;
#18 = LENGTH_MEASURE_WITH_UNIT ( LENGTH_MEASURE( 0.02539999999999999897 ), #362 );
#19 = CIRCLE ( 'NONE', #150, 0.3750000000000000555 ) ;
#20 = LINE ( 'NONE', #168, #111 ) ;
#21 = FACE_OUTER_BOUND ( 'NONE', #60, .T. ) ;
#22 = CARTESIAN_POINT ( 'NONE',  ( 4.890937612370299433E-31, -6.982962677686328587E-17, -0.02000000000000010797 ) ) ;
#23 = ORIENTED_EDGE ( 'NONE', *, *, #167, .F. ) ;
#24 = COORDINATED_UNIVERSAL_TIME_OFFSET ( 5, 0, .BEHIND. ) ;
#25 = CARTESIAN_POINT ( 'NONE',  ( 2.618611004132448230E-15, 0.3749999999999861222, -4.000000000000000888 ) ) ;
#26 = SECURITY_CLASSIFICATION_LEVEL ( 'unclassified' ) ;
#27 = CARTESIAN_POINT ( 'NONE',  ( 0.000000000000000000, 0.000000000000000000, 0.000000000000000000 ) ) ;
#28 = COORDINATED_UNIVERSAL_TIME_OFFSET ( 5, 0, .BEHIND. ) ;
#29 = EDGE_LOOP ( 'NONE', ( #341, #309, #85, #361 ) ) ;
#30 = PERSON_AND_ORGANIZATION ( #277, #308 ) ;
#31 = CARTESIAN_POINT ( 'NONE',  ( -0.3549999999999995381, 2.513866563967052703E-15, 4.268512490082953109E-18 ) ) ;
#32 = PERSON_AND_ORGANIZATION ( #277, #308 ) ;
#33 = CLOSED_SHELL ( 'NONE', ( #258, #122, #196, #161 ) ) ;
#34 = CIRCLE ( 'NONE', #293, 0.3750000000000000555 ) ;
#35 = CARTESIAN_POINT ( 'NONE',  ( 0.000000000000000000, 0.000000000000000000, 0.000000000000000000 ) ) ;
#36 = PRODUCT_DEFINITION_SHAPE ( 'NONE', 'NONE',  #328 ) ;
#37 = CC_DESIGN_DATE_AND_TIME_ASSIGNMENT ( #207, #180, ( #328 ) ) ;
#38 = APPROVAL_PERSON_ORGANIZATION ( #89, #211, #262 ) ;
#39 = CYLINDRICAL_SURFACE ( 'NONE', #299, 0.3750000000000000555 ) ;
#40 = DIRECTION ( 'NONE',  ( -0.7071067811865453523, 2.468850131082234184E-15, -0.7071067811865496822 ) ) ;
#41 = EDGE_LOOP ( 'NONE', ( #252, #281 ) ) ;
#42 = APPROVAL ( #318, 'UNSPECIFIED' ) ;
#43 = DIRECTION ( 'NONE',  ( -2.445468806185136877E-29, 3.491481338843145188E-15, 1.000000000000000000 ) ) ;
#44 = CC_DESIGN_APPROVAL ( #222, ( #328 ) ) ;
#45 =( CONVERSION_BASED_UNIT ( 'INCH', #18 ) LENGTH_UNIT ( ) NAMED_UNIT ( #181 ) );
#46 = CARTESIAN_POINT ( 'NONE',  ( 0.000000000000000000, 0.000000000000000000, 0.000000000000000000 ) ) ;
#47 = VERTEX_POINT ( 'NONE', #220 ) ;
#48 = DIRECTION ( 'NONE',  ( 2.438088387897960049E-29, -3.491481338843145188E-15, -1.000000000000000000 ) ) ;
#49 = CC_DESIGN_PERSON_AND_ORGANIZATION_ASSIGNMENT ( #104, #340, ( #190 ) ) ;
#50 = AXIS2_PLACEMENT_3D ( 'NONE', #10, #62, #149 ) ;
#51 = CONICAL_SURFACE ( 'NONE', #98, 0.3749999999999995559, 0.7853981633974452814 ) ;
#52 = DIRECTION ( 'NONE',  ( -2.445468806185136597E-29, 3.491481338843145583E-15, 1.000000000000000000 ) ) ;
#53 = FACE_OUTER_BOUND ( 'NONE', #203, .T. ) ;
#54 = DIRECTION ( 'NONE',  ( -2.445468806185136877E-29, 3.491481338843145188E-15, 1.000000000000000000 ) ) ;
#55 = ORIENTED_EDGE ( 'NONE', *, *, #226, .F. ) ;
#56 = CC_DESIGN_PERSON_AND_ORGANIZATION_ASSIGNMENT ( #178, #86, ( #176 ) ) ;
#57 = CARTESIAN_POINT ( 'NONE',  ( -1.043851414335219820E-46, 1.490343170380447200E-32, 4.268512490100411279E-18 ) ) ;
#58 = PERSON_AND_ORGANIZATION_ROLE ( 'classification_officer' ) ;
#59 = CONICAL_SURFACE ( 'NONE', #139, 0.3739999999999999991, 0.7853981633977896726 ) ;
#60 = EDGE_LOOP ( 'NONE', ( #137, #164, #170, #55 ) ) ;
#61 = EDGE_CURVE ( 'NONE', #276, #76, #195, .T. ) ;
#62 = DIRECTION ( 'NONE',  ( -2.445468806185136597E-29, 3.491481338843145583E-15, 1.000000000000000000 ) ) ;
#63 = DIRECTION ( 'NONE',  ( 1.000000000000000000, -6.982962677686266711E-15, 4.876231632511994349E-29 ) ) ;
#64 = FACE_OUTER_BOUND ( 'NONE', #68, .T. ) ;
#65 = CIRCLE ( 'NONE', #93, 0.3549999999999995381 ) ;
#66 = ORIENTED_EDGE ( 'NONE', *, *, #312, .T. ) ;
#67 = DIRECTION ( 'NONE',  ( 2.438088387897960049E-29, -3.491481338843145188E-15, -1.000000000000000000 ) ) ;
#68 = EDGE_LOOP ( 'NONE', ( #82, #66 ) ) ;
#69 = DIRECTION ( 'NONE',  ( -2.445468806185136597E-29, 3.491481338843145583E-15, 1.000000000000000000 ) ) ;
#70 = DESIGN_CONTEXT ( 'detailed design', #126, 'design' ) ;
#71 = DIRECTION ( 'NONE',  ( -1.000000000000000000, 6.982962677686265133E-15, 0.000000000000000000 ) ) ;
#72 = ORIENTED_EDGE ( 'NONE', *, *, #266, .T. ) ;
#73 = AXIS2_PLACEMENT_3D ( 'NONE', #350, #67, #232 ) ;
#74 = APPROVAL_ROLE ( '' ) ;
#75 = PRODUCT_RELATED_PRODUCT_CATEGORY ( 'detail', '', ( #190 ) ) ;
#76 = VERTEX_POINT ( 'NONE', #230 ) ;
#77 = CALENDAR_DATE ( 2024, 27, 2 ) ;
#78 = ORIENTED_EDGE ( 'NONE', *, *, #324, .T. ) ;
#79 = EDGE_CURVE ( 'NONE', #274, #276, #342, .T. ) ;
#80 = LOCAL_TIME ( 18, 5, 1.000000000000000000, #24 ) ;
#81 = DIRECTION ( 'NONE',  ( 2.445468806185136597E-29, -3.491481338843145583E-15, -1.000000000000000000 ) ) ;
#82 = ORIENTED_EDGE ( 'NONE', *, *, #267, .T. ) ;
#83 = CC_DESIGN_DATE_AND_TIME_ASSIGNMENT ( #84, #91, ( #300 ) ) ;
#84 = DATE_AND_TIME ( #204, #130 ) ;
#85 = ORIENTED_EDGE ( 'NONE', *, *, #247, .T. ) ;
#86 = PERSON_AND_ORGANIZATION_ROLE ( 'creator' ) ;
#87 = LOCAL_TIME ( 18, 5, 1.000000000000000000, #344 ) ;
#88 = DIRECTION ( 'NONE',  ( -2.445468806185136597E-29, 3.491481338843145583E-15, 1.000000000000000000 ) ) ;
#89 = PERSON_AND_ORGANIZATION ( #277, #308 ) ;
#90 = DIRECTION ( 'NONE',  ( 1.000000000000000000, -6.982962677686263555E-15, 0.000000000000000000 ) ) ;
#91 = DATE_TIME_ROLE ( 'classification_date' ) ;
#92 = EDGE_CURVE ( 'NONE', #76, #47, #311, .T. ) ;
#93 = AXIS2_PLACEMENT_3D ( 'NONE', #273, #242, #63 ) ;
#94 = LINE ( 'NONE', #127, #162 ) ;
#95 = ADVANCED_FACE ( 'NONE', ( #346 ), #141, .F. ) ;
#96 = DIRECTION ( 'NONE',  ( -2.445468806185136597E-29, 3.491481338843145583E-15, 1.000000000000000000 ) ) ;
#97 = AXIS2_PLACEMENT_3D ( 'NONE', #199, #48, #173 ) ;
#98 = AXIS2_PLACEMENT_3D ( 'NONE', #22, #81, #71 ) ;
#99 = DIRECTION ( 'NONE',  ( 1.000000000000000000, -6.982962677686263555E-15, 0.000000000000000000 ) ) ;
#100 = ORIENTED_EDGE ( 'NONE', *, *, #61, .T. ) ;
#101 = MANIFOLD_SOLID_BREP ( 'Body-Move/Copy2[1]', #33 ) ;
#102 = CARTESIAN_POINT ( 'NONE',  ( -0.3750000000000000555, -9.773867010528330269E-15, -4.000000000000000000 ) ) ;
#103 = ORIENTED_EDGE ( 'NONE', *, *, #247, .F. ) ;
#104 = PERSON_AND_ORGANIZATION ( #277, #308 ) ;
#105 = CC_DESIGN_APPROVAL ( #211, ( #176 ) ) ;
#106 = DIRECTION ( 'NONE',  ( -2.445468806185136877E-29, 3.491481338843145188E-15, 1.000000000000000000 ) ) ;
#107 = EDGE_LOOP ( 'NONE', ( #72, #366, #17, #329 ) ) ;
#108 =( NAMED_UNIT ( * ) PLANE_ANGLE_UNIT ( ) SI_UNIT ( $, .RADIAN. ) );
#109 = DIRECTION ( 'NONE',  ( -2.445468806185136597E-29, 3.491481338843145583E-15, 1.000000000000000000 ) ) ;
#110 = DIRECTION ( 'NONE',  ( -2.438088387897960049E-29, 3.491481338843145188E-15, 1.000000000000000000 ) ) ;
#111 = VECTOR ( 'NONE', #54, 39.37007874015748143 ) ;
#112 = CARTESIAN_POINT ( 'NONE',  ( 9.781875224740546387E-29, -1.396592535537258233E-14, -4.000000000000000000 ) ) ;
#113 = FACE_OUTER_BOUND ( 'NONE', #135, .T. ) ;
#114 = PERSON_AND_ORGANIZATION_ROLE ( 'design_supplier' ) ;
#115 = EDGE_CURVE ( 'NONE', #189, #217, #248, .T. ) ;
#116 = DIRECTION ( 'NONE',  ( 0.7071067811865453523, -7.319954787623248157E-15, -0.7071067811865496822 ) ) ;
#117 = VECTOR ( 'NONE', #116, 39.37007874015748143 ) ;
#118 = CIRCLE ( 'NONE', #249, 0.3749999999999995559 ) ;
#119 = ADVANCED_FACE ( 'NONE', ( #53 ), #319, .F. ) ;
#120 = LINE ( 'NONE', #295, #138 ) ;
#121 = SHAPE_DEFINITION_REPRESENTATION ( #36, #360 ) ;
#122 = ADVANCED_FACE ( 'NONE', ( #289 ), #146, .T. ) ;
#123 =( GEOMETRIC_REPRESENTATION_CONTEXT ( 3 ) GLOBAL_UNCERTAINTY_ASSIGNED_CONTEXT ( ( #185 ) ) GLOBAL_UNIT_ASSIGNED_CONTEXT ( ( #45, #108, #221 ) ) REPRESENTATION_CONTEXT ( 'NONE', 'WORKASPACE' ) );
#124 = EDGE_CURVE ( 'NONE', #334, #157, #19, .T. ) ;
#125 = CARTESIAN_POINT ( 'NONE',  ( 0.3549999999999995381, -2.538996582575037893E-15, 4.268512490117958041E-18 ) ) ;
#126 = APPLICATION_CONTEXT ( 'configuration controlled 3d designs of mechanical parts and assemblies' ) ;
#127 = CARTESIAN_POINT ( 'NONE',  ( -0.3739999999999999991, -8.253449352142054123E-15, -3.124999999999999556 ) ) ;
#128 = EDGE_LOOP ( 'NONE', ( #1, #174, #78, #343 ) ) ;
#129 = CARTESIAN_POINT ( 'NONE',  ( 0.3749999999999995559, -2.642516375941184479E-15, -0.02000000000000010797 ) ) ;
#130 = LOCAL_TIME ( 18, 5, 1.000000000000000000, #28 ) ;
#131 = EDGE_LOOP ( 'NONE', ( #159, #201, #332, #103 ) ) ;
#132 = FACE_OUTER_BOUND ( 'NONE', #107, .T. ) ;
#133 = ORIENTED_EDGE ( 'NONE', *, *, #239, .F. ) ;
#134 = DIRECTION ( 'NONE',  ( 1.000000000000000000, -6.982962677686265133E-15, 0.000000000000000000 ) ) ;
#135 = EDGE_LOOP ( 'NONE', ( #166, #244, #250, #165 ) ) ;
#136 = CARTESIAN_POINT ( 'NONE',  ( -0.3749999999999997780, 2.664535259100374119E-15, -1.844600658845588477E-29 ) ) ;
#137 = ORIENTED_EDGE ( 'NONE', *, *, #353, .F. ) ;
#138 = VECTOR ( 'NONE', #40, 39.37007874015748143 ) ;
#139 = AXIS2_PLACEMENT_3D ( 'NONE', #140, #336, #134 ) ;
#140 = CARTESIAN_POINT ( 'NONE',  ( 7.642090019328550744E-29, -1.091087918388482802E-14, -3.124999999999999556 ) ) ;
#141 = PLANE ( 'NONE',  #97 ) ;
#142 = LINE ( 'NONE', #136, #243 ) ;
#143 = ORIENTED_EDGE ( 'NONE', *, *, #184, .F. ) ;
#144 = PERSON_AND_ORGANIZATION ( #277, #308 ) ;
#145 = ORIENTED_EDGE ( 'NONE', *, *, #79, .T. ) ;
#146 = PLANE ( 'NONE',  #169 ) ;
#147 = APPROVAL_ROLE ( '' ) ;
#148 = DATE_AND_TIME ( #260, #87 ) ;
#149 = DIRECTION ( 'NONE',  ( 1.000000000000000000, -6.982962677686266711E-15, 0.000000000000000000 ) ) ;
#150 = AXIS2_PLACEMENT_3D ( 'NONE', #112, #259, #5 ) ;
#151 = APPROVAL_DATE_TIME ( #148, #42 ) ;
#152 = ADVANCED_FACE ( 'NONE', ( #113 ), #235, .T. ) ;
#153 = FACE_OUTER_BOUND ( 'NONE', #29, .T. ) ;
#154 = CIRCLE ( 'NONE', #352, 0.3749999999999999445 ) ;
#155 = EDGE_CURVE ( 'NONE', #189, #229, #120, .T. ) ;
#156 = DIRECTION ( 'NONE',  ( -2.445468806185136597E-29, 3.491481338843145583E-15, 1.000000000000000000 ) ) ;
#157 = VERTEX_POINT ( 'NONE', #238 ) ;
#158 = CARTESIAN_POINT ( 'NONE',  ( 0.000000000000000000, 0.000000000000000000, 0.000000000000000000 ) ) ;
#159 = ORIENTED_EDGE ( 'NONE', *, *, #191, .T. ) ;
#160 = DIRECTION ( 'NONE',  ( -2.445468806185136597E-29, 3.491481338843145583E-15, 1.000000000000000000 ) ) ;
#161 = ADVANCED_FACE ( 'NONE', ( #153 ), #11, .T. ) ;
#162 = VECTOR ( 'NONE', #216, 39.37007874015748143 ) ;
#163 = APPROVAL_PERSON_ORGANIZATION ( #193, #222, #74 ) ;
#164 = ORIENTED_EDGE ( 'NONE', *, *, #239, .T. ) ;
#165 = ORIENTED_EDGE ( 'NONE', *, *, #226, .T. ) ;
#166 = ORIENTED_EDGE ( 'NONE', *, *, #231, .F. ) ;
#167 = EDGE_CURVE ( 'NONE', #274, #272, #94, .T. ) ;
#168 = CARTESIAN_POINT ( 'NONE',  ( -0.3750000000000000555, 2.664535259100376091E-15, -1.844600658845589598E-29 ) ) ;
#169 = AXIS2_PLACEMENT_3D ( 'NONE', #25, #257, #4 ) ;
#170 = ORIENTED_EDGE ( 'NONE', *, *, #92, .T. ) ;
#171 = DATE_AND_TIME ( #77, #314 ) ;
#172 = DIRECTION ( 'NONE',  ( -2.445468806185136877E-29, 3.491481338843145188E-15, 1.000000000000000000 ) ) ;
#173 = DIRECTION ( 'NONE',  ( -1.000000000000000000, 6.982962677686265922E-15, -4.876176775795935793E-29 ) ) ;
#174 = ORIENTED_EDGE ( 'NONE', *, *, #231, .T. ) ;
#175 = CIRCLE ( 'NONE', #233, 0.3739999999999999991 ) ;
#176 = PRODUCT_DEFINITION_FORMATION_WITH_SPECIFIED_SOURCE ( 'ANY', '', #190, .NOT_KNOWN. ) ;
#177 = DIRECTION ( 'NONE',  ( 1.000000000000000000, -6.982962677686265922E-15, 4.876176775795935793E-29 ) ) ;
#178 = PERSON_AND_ORGANIZATION ( #277, #308 ) ;
#179 = PLANE ( 'NONE',  #73 ) ;
#180 = DATE_TIME_ROLE ( 'creation_date' ) ;
#181 = DIMENSIONAL_EXPONENTS ( 1.000000000000000000, 0.000000000000000000, 0.000000000000000000, 0.000000000000000000, 0.000000000000000000, 0.000000000000000000, 0.000000000000000000 ) ;
#182 = CARTESIAN_POINT ( 'NONE',  ( -0.3739999999999999991, -8.248150897793833298E-15, -3.124999999999999556 ) ) ;
#183 = AXIS2_PLACEMENT_3D ( 'NONE', #223, #6, #284 ) ;
#184 = EDGE_CURVE ( 'NONE', #276, #274, #175, .T. ) ;
#185 = UNCERTAINTY_MEASURE_WITH_UNIT (LENGTH_MEASURE( 1.000000000000000082E-05 ), #45, 'distance_accuracy_value', 'NONE');
#186 = AXIS2_PLACEMENT_3D ( 'NONE', #208, #96, #214 ) ;
#187 = CARTESIAN_POINT ( 'NONE',  ( 0.3750000000000000555, -2.618611004132350016E-15, 1.828566290923476203E-29 ) ) ;
#188 = DIRECTION ( 'NONE',  ( -2.445468806185136597E-29, 3.491481338843145583E-15, 1.000000000000000000 ) ) ;
#189 = VERTEX_POINT ( 'NONE', #31 ) ;
#190 = PRODUCT ( '38509', '38509', '', ( #278 ) ) ;
#191 = EDGE_CURVE ( 'NONE', #157, #334, #358, .T. ) ;
#192 = LINE ( 'NONE', #187, #330 ) ;
#193 = PERSON_AND_ORGANIZATION ( #277, #308 ) ;
#194 = COORDINATED_UNIVERSAL_TIME_OFFSET ( 5, 0, .BEHIND. ) ;
#195 = LINE ( 'NONE', #261, #206 ) ;
#196 = ADVANCED_FACE ( 'NONE', ( #64 ), #179, .F. ) ;
#197 = CARTESIAN_POINT ( 'NONE',  ( 0.000000000000000000, 0.000000000000000000, 0.000000000000000000 ) ) ;
#198 = CIRCLE ( 'NONE', #265, 0.3749999999999995559 ) ;
#199 = CARTESIAN_POINT ( 'NONE',  ( 2.478951750578621448E-15, 0.3549999999999995381, -1.237341619044264849E-15 ) ) ;
#200 = DIRECTION ( 'NONE',  ( 1.000000000000000000, -6.982962677686265133E-15, 0.000000000000000000 ) ) ;
#201 = ORIENTED_EDGE ( 'NONE', *, *, #351, .T. ) ;
#202 = ADVANCED_FACE ( 'NONE', ( #359 ), #283, .T. ) ;
#203 = EDGE_LOOP ( 'NONE', ( #143, #279 ) ) ;
#204 = CALENDAR_DATE ( 2024, 27, 2 ) ;
#205 = ORIENTED_EDGE ( 'NONE', *, *, #167, .T. ) ;
#206 = VECTOR ( 'NONE', #294, 39.37007874015748143 ) ;
#207 = DATE_AND_TIME ( #7, #80 ) ;
#208 = CARTESIAN_POINT ( 'NONE',  ( 9.781875224740546387E-29, -1.396592535537258233E-14, -4.000000000000000000 ) ) ;
#209 = APPROVAL_DATE_TIME ( #325, #211 ) ;
#210 = CARTESIAN_POINT ( 'NONE',  ( -0.3749999999999998890, -2.824073405561048066E-15, -3.124000000000000554 ) ) ;
#211 = APPROVAL ( #321, 'UNSPECIFIED' ) ;
#212 = CARTESIAN_POINT ( 'NONE',  ( -0.3749999999999995559, 2.548781377355483168E-15, -0.02000000000000010797 ) ) ;
#213 = CIRCLE ( 'NONE', #291, 0.3749999999999999445 ) ;
#214 = DIRECTION ( 'NONE',  ( 1.000000000000000000, -6.982962677686266711E-15, 0.000000000000000000 ) ) ;
#215 = EDGE_CURVE ( 'NONE', #217, #189, #65, .T. ) ;
#216 = DIRECTION ( 'NONE',  ( -0.7071067811867889352, 7.493145998871226640E-15, 0.7071067811863060992 ) ) ;
#217 = VERTEX_POINT ( 'NONE', #125 ) ;
#218 = VERTEX_POINT ( 'NONE', #305 ) ;
#219 = APPLICATION_PROTOCOL_DEFINITION ( 'international standard', 'config_control_design', 1994, #126 ) ;
#220 = CARTESIAN_POINT ( 'NONE',  ( 0.3749999999999995559, -2.642516375941184479E-15, -0.02000000000000010797 ) ) ;
#221 =( NAMED_UNIT ( * ) SI_UNIT ( $, .STERADIAN. ) SOLID_ANGLE_UNIT ( ) );
#222 = APPROVAL ( #338, 'UNSPECIFIED' ) ;
#223 = CARTESIAN_POINT ( 'NONE',  ( 7.642090019328550744E-29, -1.091087918388482802E-14, -3.124999999999999556 ) ) ;
#224 = AXIS2_PLACEMENT_3D ( 'NONE', #27, #109, #177 ) ;
#225 = DIRECTION ( 'NONE',  ( 1.000000000000000000, -6.982962677686265922E-15, 4.876176775795935793E-29 ) ) ;
#226 = EDGE_CURVE ( 'NONE', #229, #47, #198, .T. ) ;
#227 = CALENDAR_DATE ( 2024, 27, 2 ) ;
#228 = MANIFOLD_SOLID_BREP ( 'Body-Move/Copy2[2]', #241 ) ;
#229 = VERTEX_POINT ( 'NONE', #212 ) ;
#230 = CARTESIAN_POINT ( 'NONE',  ( 0.3749999999999999445, -1.352599870667833661E-14, -3.124000000000000554 ) ) ;
#231 = EDGE_CURVE ( 'NONE', #217, #47, #13, .T. ) ;
#232 = DIRECTION ( 'NONE',  ( -1.000000000000000000, 6.982962677686265922E-15, -4.876176775795935793E-29 ) ) ;
#233 = AXIS2_PLACEMENT_3D ( 'NONE', #331, #88, #306 ) ;
#234 = CARTESIAN_POINT ( 'NONE',  ( 4.890937612370299433E-31, -6.982962677686328587E-17, -0.02000000000000010797 ) ) ;
#235 = CONICAL_SURFACE ( 'NONE', #8, 0.3749999999999995559, 0.7853981633974452814 ) ;
#236 = AXIS2_PLACEMENT_3D ( 'NONE', #46, #313, #251 ) ;
#237 = DIRECTION ( 'NONE',  ( 1.000000000000000000, -6.982962677686265133E-15, 0.000000000000000000 ) ) ;
#238 = CARTESIAN_POINT ( 'NONE',  ( 0.3750000000000000555, -1.658453635950493392E-14, -4.000000000000000000 ) ) ;
#239 = EDGE_CURVE ( 'NONE', #272, #76, #154, .T. ) ;
#240 = EDGE_LOOP ( 'NONE', ( #23, #145, #100, #133 ) ) ;
#241 = CLOSED_SHELL ( 'NONE', ( #202, #302, #301, #152, #14, #286, #119, #95 ) ) ;
#242 = DIRECTION ( 'NONE',  ( -2.445468806185136597E-29, 3.491481338843145583E-15, 1.000000000000000000 ) ) ;
#243 = VECTOR ( 'NONE', #106, 39.37007874015748143 ) ;
#244 = ORIENTED_EDGE ( 'NONE', *, *, #115, .F. ) ;
#245 = DIRECTION ( 'NONE',  ( -2.445468806185136597E-29, 3.491481338843145583E-15, 1.000000000000000000 ) ) ;
#246 = CARTESIAN_POINT ( 'NONE',  ( 4.890937612370299433E-31, -6.982962677686328587E-17, -0.02000000000000010797 ) ) ;
#247 = EDGE_CURVE ( 'NONE', #157, #218, #192, .T. ) ;
#248 = CIRCLE ( 'NONE', #347, 0.3549999999999995381 ) ;
#249 = AXIS2_PLACEMENT_3D ( 'NONE', #246, #245, #200 ) ;
#250 = ORIENTED_EDGE ( 'NONE', *, *, #155, .T. ) ;
#251 = DIRECTION ( 'NONE',  ( 1.000000000000000000, -6.982962677686265922E-15, 4.876176775795935793E-29 ) ) ;
#252 = ORIENTED_EDGE ( 'NONE', *, *, #191, .F. ) ;
#253 = DIRECTION ( 'NONE',  ( 1.000000000000000000, 0.000000000000000000, 0.000000000000000000 ) ) ;
#254 = EDGE_LOOP ( 'NONE', ( #345, #15 ) ) ;
#255 = APPLICATION_CONTEXT ( 'configuration controlled 3d designs of mechanical parts and assemblies' ) ;
#256 = AXIS2_PLACEMENT_3D ( 'NONE', #349, #188, #354 ) ;
#257 = DIRECTION ( 'NONE',  ( 2.438088387897960049E-29, -3.491481338843145188E-15, -1.000000000000000000 ) ) ;
#258 = ADVANCED_FACE ( 'NONE', ( #304 ), #39, .T. ) ;
#259 = DIRECTION ( 'NONE',  ( -2.445468806185136597E-29, 3.491481338843145583E-15, 1.000000000000000000 ) ) ;
#260 = CALENDAR_DATE ( 2024, 27, 2 ) ;
#261 = CARTESIAN_POINT ( 'NONE',  ( 0.3739999999999999991, -1.352250722533949203E-14, -3.124999999999999556 ) ) ;
#262 = APPROVAL_ROLE ( '' ) ;
#263 = CC_DESIGN_PERSON_AND_ORGANIZATION_ASSIGNMENT ( #30, #58, ( #300 ) ) ;
#264 = DIRECTION ( 'NONE',  ( -2.445468806185136597E-29, 3.491481338843145583E-15, 1.000000000000000000 ) ) ;
#265 = AXIS2_PLACEMENT_3D ( 'NONE', #323, #264, #237 ) ;
#266 = EDGE_CURVE ( 'NONE', #76, #272, #213, .T. ) ;
#267 = EDGE_CURVE ( 'NONE', #218, #364, #335, .T. ) ;
#268 = AXIS2_PLACEMENT_3D ( 'NONE', #287, #110, #225 ) ;
#269 = CC_DESIGN_APPROVAL ( #42, ( #300 ) ) ;
#270 = DIRECTION ( 'NONE',  ( 2.445468806185136597E-29, -3.491481338843145583E-15, -1.000000000000000000 ) ) ;
#271 = CARTESIAN_POINT ( 'NONE',  ( 0.3739999999999999991, -1.352250722533949203E-14, -3.124999999999999556 ) ) ;
#272 = VERTEX_POINT ( 'NONE', #210 ) ;
#273 = CARTESIAN_POINT ( 'NONE',  ( -1.043851414335219820E-46, 1.490343170380447200E-32, 4.268512490100411279E-18 ) ) ;
#274 = VERTEX_POINT ( 'NONE', #182 ) ;
#275 = CARTESIAN_POINT ( 'NONE',  ( 7.639644550522367383E-29, -1.090738770254598817E-14, -3.124000000000000554 ) ) ;
#276 = VERTEX_POINT ( 'NONE', #271 ) ;
#277 = PERSON ( 'UNSPECIFIED', 'UNSPECIFIED', 'UNSPECIFIED', ('UNSPECIFIED'), ('UNSPECIFIED'), ('UNSPECIFIED') ) ;
#278 = MECHANICAL_CONTEXT ( 'NONE', #255, 'mechanical' ) ;
#279 = ORIENTED_EDGE ( 'NONE', *, *, #79, .F. ) ;
#280 = APPLICATION_PROTOCOL_DEFINITION ( 'international standard', 'config_control_design', 1994, #255 ) ;
#281 = ORIENTED_EDGE ( 'NONE', *, *, #124, .F. ) ;
#282 = DIRECTION ( 'NONE',  ( 1.000000000000000000, -6.982962677686266711E-15, 0.000000000000000000 ) ) ;
#283 = CONICAL_SURFACE ( 'NONE', #256, 0.3739999999999999991, 0.7853981633977896726 ) ;
#284 = DIRECTION ( 'NONE',  ( 1.000000000000000000, -6.982962677686265133E-15, 0.000000000000000000 ) ) ;
#285 = APPROVAL_DATE_TIME ( #171, #222 ) ;
#286 = ADVANCED_FACE ( 'NONE', ( #298 ), #59, .T. ) ;
#287 = CARTESIAN_POINT ( 'NONE',  ( 7.642090019328551865E-29, -1.091087918388483118E-14, -3.125000000000000000 ) ) ;
#288 = PERSON_AND_ORGANIZATION_ROLE ( 'creator' ) ;
#289 = FACE_OUTER_BOUND ( 'NONE', #41, .T. ) ;
#290 = COORDINATED_UNIVERSAL_TIME_OFFSET ( 5, 0, .BEHIND. ) ;
#291 = AXIS2_PLACEMENT_3D ( 'NONE', #275, #156, #90 ) ;
#292 = CARTESIAN_POINT ( 'NONE',  ( 0.3749999999999997780, -2.618611004132348044E-15, 1.828566290923474801E-29 ) ) ;
#293 = AXIS2_PLACEMENT_3D ( 'NONE', #310, #52, #282 ) ;
#294 = DIRECTION ( 'NONE',  ( 0.7071067811867889352, -2.468850131084785360E-15, 0.7071067811863060992 ) ) ;
#295 = CARTESIAN_POINT ( 'NONE',  ( -0.3749999999999995559, 2.548781377355483168E-15, -0.02000000000000010797 ) ) ;
#296 = CC_DESIGN_PERSON_AND_ORGANIZATION_ASSIGNMENT ( #32, #114, ( #176 ) ) ;
#297 = PERSON_AND_ORGANIZATION ( #277, #308 ) ;
#298 = FACE_OUTER_BOUND ( 'NONE', #240, .T. ) ;
#299 = AXIS2_PLACEMENT_3D ( 'NONE', #35, #160, #322 ) ;
#300 = SECURITY_CLASSIFICATION ( '', '', #26 ) ;
#301 = ADVANCED_FACE ( 'NONE', ( #307 ), #51, .T. ) ;
#302 = ADVANCED_FACE ( 'NONE', ( #132 ), #316, .T. ) ;
#303 = CC_DESIGN_SECURITY_CLASSIFICATION ( #300, ( #176 ) ) ;
#304 = FACE_OUTER_BOUND ( 'NONE', #131, .T. ) ;
#305 = CARTESIAN_POINT ( 'NONE',  ( 0.3750000000000000555, -1.352949018801718119E-14, -3.125000000000000000 ) ) ;
#306 = DIRECTION ( 'NONE',  ( 1.000000000000000000, -6.982962677686265133E-15, 0.000000000000000000 ) ) ;
#307 = FACE_OUTER_BOUND ( 'NONE', #128, .T. ) ;
#308 = ORGANIZATION ( 'UNSPECIFIED', 'UNSPECIFIED', '' ) ;
#309 = ORIENTED_EDGE ( 'NONE', *, *, #124, .T. ) ;
#310 = CARTESIAN_POINT ( 'NONE',  ( 7.642090019328551865E-29, -1.091087918388483118E-14, -3.125000000000000000 ) ) ;
#311 = LINE ( 'NONE', #292, #326 ) ;
#312 = EDGE_CURVE ( 'NONE', #364, #218, #34, .T. ) ;
#313 = DIRECTION ( 'NONE',  ( -2.445468806185136597E-29, 3.491481338843145583E-15, 1.000000000000000000 ) ) ;
#314 = LOCAL_TIME ( 18, 5, 1.000000000000000000, #194 ) ;
#315 = DIRECTION ( 'NONE',  ( 1.000000000000000000, -6.982962677686266711E-15, 4.876231632511994349E-29 ) ) ;
#316 = CYLINDRICAL_SURFACE ( 'NONE', #236, 0.3749999999999997780 ) ;
#317 = CYLINDRICAL_SURFACE ( 'NONE', #224, 0.3749999999999997780 ) ;
#318 = APPROVAL_STATUS ( 'not_yet_approved' ) ;
#319 = PLANE ( 'NONE',  #268 ) ;
#320 = ORIENTED_EDGE ( 'NONE', *, *, #184, .T. ) ;
#321 = APPROVAL_STATUS ( 'not_yet_approved' ) ;
#322 = DIRECTION ( 'NONE',  ( 1.000000000000000000, -6.982962677686265922E-15, 4.876176775795935793E-29 ) ) ;
#323 = CARTESIAN_POINT ( 'NONE',  ( 4.890937612370299433E-31, -6.982962677686328587E-17, -0.02000000000000010797 ) ) ;
#324 = EDGE_CURVE ( 'NONE', #47, #229, #118, .T. ) ;
#325 = DATE_AND_TIME ( #227, #9 ) ;
#326 = VECTOR ( 'NONE', #172, 39.37007874015748143 ) ;
#327 = CARTESIAN_POINT ( 'NONE',  ( 7.639644550522367383E-29, -1.090738770254598817E-14, -3.124000000000000554 ) ) ;
#328 = PRODUCT_DEFINITION ( 'UNKNOWN', '', #176, #70 ) ;
#329 = ORIENTED_EDGE ( 'NONE', *, *, #92, .F. ) ;
#330 = VECTOR ( 'NONE', #43, 39.37007874015748143 ) ;
#331 = CARTESIAN_POINT ( 'NONE',  ( 7.642090019328550744E-29, -1.091087918388482802E-14, -3.124999999999999556 ) ) ;
#332 = ORIENTED_EDGE ( 'NONE', *, *, #267, .F. ) ;
#333 = DIRECTION ( 'NONE',  ( -1.000000000000000000, 6.982962677686265133E-15, 0.000000000000000000 ) ) ;
#334 = VERTEX_POINT ( 'NONE', #102 ) ;
#335 = CIRCLE ( 'NONE', #50, 0.3750000000000000555 ) ;
#336 = DIRECTION ( 'NONE',  ( -2.445468806185136597E-29, 3.491481338843145583E-15, 1.000000000000000000 ) ) ;
#337 = AXIS2_PLACEMENT_3D ( 'NONE', #197, #16, #253 ) ;
#338 = APPROVAL_STATUS ( 'not_yet_approved' ) ;
#339 = EDGE_LOOP ( 'NONE', ( #320, #205, #357, #363 ) ) ;
#340 = PERSON_AND_ORGANIZATION_ROLE ( 'design_owner' ) ;
#341 = ORIENTED_EDGE ( 'NONE', *, *, #351, .F. ) ;
#342 = CIRCLE ( 'NONE', #183, 0.3739999999999999991 ) ;
#343 = ORIENTED_EDGE ( 'NONE', *, *, #155, .F. ) ;
#344 = COORDINATED_UNIVERSAL_TIME_OFFSET ( 5, 0, .BEHIND. ) ;
#345 = ORIENTED_EDGE ( 'NONE', *, *, #115, .T. ) ;
#346 = FACE_OUTER_BOUND ( 'NONE', #254, .T. ) ;
#347 = AXIS2_PLACEMENT_3D ( 'NONE', #57, #2, #315 ) ;
#348 = AXIS2_PLACEMENT_3D ( 'NONE', #158, #355, #12 ) ;
#349 = CARTESIAN_POINT ( 'NONE',  ( 7.642090019328550744E-29, -1.091087918388482802E-14, -3.124999999999999556 ) ) ;
#350 = CARTESIAN_POINT ( 'NONE',  ( 2.618611004132426142E-15, 0.3749999999999891198, -3.125000000000001332 ) ) ;
#351 = EDGE_CURVE ( 'NONE', #334, #364, #20, .T. ) ;
#352 = AXIS2_PLACEMENT_3D ( 'NONE', #327, #69, #99 ) ;
#353 = EDGE_CURVE ( 'NONE', #272, #229, #142, .T. ) ;
#354 = DIRECTION ( 'NONE',  ( 1.000000000000000000, -6.982962677686265133E-15, 0.000000000000000000 ) ) ;
#355 = DIRECTION ( 'NONE',  ( -2.445468806185136597E-29, 3.491481338843145583E-15, 1.000000000000000000 ) ) ;
#356 = CC_DESIGN_PERSON_AND_ORGANIZATION_ASSIGNMENT ( #297, #288, ( #328 ) ) ;
#357 = ORIENTED_EDGE ( 'NONE', *, *, #266, .F. ) ;
#358 = CIRCLE ( 'NONE', #186, 0.3750000000000000555 ) ;
#359 = FACE_OUTER_BOUND ( 'NONE', #339, .T. ) ;
#360 = ADVANCED_BREP_SHAPE_REPRESENTATION ( '38509', ( #101, #228, #337 ), #123 ) ;
#361 = ORIENTED_EDGE ( 'NONE', *, *, #312, .F. ) ;
#362 =( LENGTH_UNIT ( ) NAMED_UNIT ( * ) SI_UNIT ( $, .METRE. ) );
#363 = ORIENTED_EDGE ( 'NONE', *, *, #61, .F. ) ;
#364 = VERTEX_POINT ( 'NONE', #365 ) ;
#365 = CARTESIAN_POINT ( 'NONE',  ( -0.3750000000000000555, -9.773867010528330269E-15, -3.125000000000000000 ) ) ;
#366 = ORIENTED_EDGE ( 'NONE', *, *, #353, .T. ) ;
ENDSEC;
END-ISO-10303-21;
