ISO-10303-21;
HEADER;
FILE_DESCRIPTION (( 'STEP AP203' ),
    '1' );
FILE_NAME ('39029.STEP',
    '2023-03-21T20:44:46',
    ( '' ),
    ( '' ),
    'SwSTEP 2.0',
    'SolidWorks 2022',
    '' );
FILE_SCHEMA (( 'CONFIG_CONTROL_DESIGN' ));
ENDSEC;

DATA;
#1 = CARTESIAN_POINT ( 'NONE',  ( 4.279570410823989044E-29, -6.110092342975505460E-15, -1.750000000000000222 ) ) ;
#2 = CARTESIAN_POINT ( 'NONE',  ( 0.1171999999999998737, -8.184032258248295679E-16, 5.714879181232830869E-30 ) ) ;
#3 = ORIENTED_EDGE ( 'NONE', *, *, #277, .T. ) ;
#4 = CC_DESIGN_PERSON_AND_ORGANIZATION_ASSIGNMENT ( #269, #128, ( #172 ) ) ;
#5 = PERSON_AND_ORGANIZATION ( #9, #196 ) ;
#6 = DIRECTION ( 'NONE',  ( -2.445468806185136597E-29, 3.491481338843145583E-15, 1.000000000000000000 ) ) ;
#7 = AXIS2_PLACEMENT_3D ( 'NONE', #142, #255, #320 ) ;
#8 = DATE_AND_TIME ( #340, #377 ) ;
#9 = PERSON ( 'UNSPECIFIED', 'UNSPECIFIED', 'UNSPECIFIED', ('UNSPECIFIED'), ('UNSPECIFIED'), ('UNSPECIFIED') ) ;
#10 = EDGE_LOOP ( 'NONE', ( #43, #337, #67, #93 ) ) ;
#11 = PRODUCT_DEFINITION ( 'UNKNOWN', '', #230, #336 ) ;
#12 = PERSON_AND_ORGANIZATION_ROLE ( 'design_supplier' ) ;
#13 = CALENDAR_DATE ( 2023, 21, 3 ) ;
#14 = DATE_AND_TIME ( #279, #164 ) ;
#15 = ORIENTED_EDGE ( 'NONE', *, *, #38, .T. ) ;
#16 = EDGE_CURVE ( 'NONE', #97, #304, #283, .T. ) ;
#17 = CONICAL_SURFACE ( 'NONE', #131, 0.1161999999999999977, 0.7853981633974141952 ) ;
#18 = CIRCLE ( 'NONE', #181, 0.1171999999999997766 ) ;
#19 = APPLICATION_PROTOCOL_DEFINITION ( 'international standard', 'config_control_design', 1994, #95 ) ;
#20 = CARTESIAN_POINT ( 'NONE',  ( 0.000000000000000000, 0.000000000000000000, 0.000000000000000000 ) ) ;
#21 = EDGE_LOOP ( 'NONE', ( #52, #378, #243, #190 ) ) ;
#22 = AXIS2_PLACEMENT_3D ( 'NONE', #227, #350, #186 ) ;
#23 = FACE_OUTER_BOUND ( 'NONE', #21, .T. ) ;
#24 = LOCAL_TIME ( 16, 44, 46.00000000000000000, #309 ) ;
#25 = CARTESIAN_POINT ( 'NONE',  ( -0.09719999999999980045, 7.136587856595348178E-16, -4.868722012043674468E-30 ) ) ;
#26 = DIRECTION ( 'NONE',  ( -2.445468806185136597E-29, 3.491481338843145583E-15, 1.000000000000000000 ) ) ;
#27 = CARTESIAN_POINT ( 'NONE',  ( 0.1171999999999997766, -8.738799921156849272E-16, -0.02000000000000002470 ) ) ;
#28 = DIRECTION ( 'NONE',  ( -1.000000000000000000, 6.982962677686266711E-15, 0.000000000000000000 ) ) ;
#29 = DIRECTION ( 'NONE',  ( 1.000000000000000000, -6.982962677686269866E-15, 0.000000000000000000 ) ) ;
#30 = EDGE_CURVE ( 'NONE', #345, #221, #125, .T. ) ;
#31 = CARTESIAN_POINT ( 'NONE',  ( 4.890937612370279289E-31, -6.982962677686299005E-17, -0.02000000000000002470 ) ) ;
#32 = DIRECTION ( 'NONE',  ( -2.445468806185136597E-29, 3.491481338843145583E-15, 1.000000000000000000 ) ) ;
#33 =( CONVERSION_BASED_UNIT ( 'INCH', #298 ) LENGTH_UNIT ( ) NAMED_UNIT ( #261 ) );
#34 = EDGE_CURVE ( 'NONE', #167, #42, #286, .T. ) ;
#35 = FACE_OUTER_BOUND ( 'NONE', #132, .T. ) ;
#36 = ADVANCED_FACE ( 'NONE', ( #152 ), #17, .T. ) ;
#37 = ORIENTED_EDGE ( 'NONE', *, *, #344, .F. ) ;
#38 = EDGE_CURVE ( 'NONE', #280, #249, #62, .T. ) ;
#39 = DIRECTION ( 'NONE',  ( 0.000000000000000000, 0.000000000000000000, 1.000000000000000000 ) ) ;
#40 = ORIENTED_EDGE ( 'NONE', *, *, #30, .T. ) ;
#41 = APPROVAL_ROLE ( '' ) ;
#42 = VERTEX_POINT ( 'NONE', #210 ) ;
#43 = ORIENTED_EDGE ( 'NONE', *, *, #305, .T. ) ;
#44 = EDGE_CURVE ( 'NONE', #304, #268, #266, .T. ) ;
#45 = EDGE_LOOP ( 'NONE', ( #60, #184, #76 ) ) ;
#46 = COORDINATED_UNIVERSAL_TIME_OFFSET ( 5, 0, .BEHIND. ) ;
#47 = EDGE_LOOP ( 'NONE', ( #37, #165, #333, #166 ) ) ;
#48 = VECTOR ( 'NONE', #318, 39.37007874015748854 ) ;
#49 = EDGE_CURVE ( 'NONE', #42, #167, #275, .T. ) ;
#50 =( GEOMETRIC_REPRESENTATION_CONTEXT ( 3 ) GLOBAL_UNCERTAINTY_ASSIGNED_CONTEXT ( ( #267 ) ) GLOBAL_UNIT_ASSIGNED_CONTEXT ( ( #33, #162, #271 ) ) REPRESENTATION_CONTEXT ( 'NONE', 'WORKASPACE' ) );
#51 = DIRECTION ( 'NONE',  ( 1.000000000000000000, -6.982962677686269866E-15, 0.000000000000000000 ) ) ;
#52 = ORIENTED_EDGE ( 'NONE', *, *, #282, .F. ) ;
#53 = LINE ( 'NONE', #56, #81 ) ;
#54 = EDGE_CURVE ( 'NONE', #308, #97, #110, .T. ) ;
#55 = CARTESIAN_POINT ( 'NONE',  ( -0.1172000000000000125, -2.255459157895921326E-15, -1.749000000000000110 ) ) ;
#56 = CARTESIAN_POINT ( 'NONE',  ( -0.1171999999999997766, 7.485735990479658752E-16, -0.02000000000000002470 ) ) ;
#57 = DIRECTION ( 'NONE',  ( -2.445468806185136597E-29, 3.491481338843145583E-15, 1.000000000000000000 ) ) ;
#58 = DIRECTION ( 'NONE',  ( 1.000000000000000000, -6.982962677686269866E-15, 0.000000000000000000 ) ) ;
#59 = DIRECTION ( 'NONE',  ( -2.445468806185136877E-29, 3.491481338843145188E-15, 1.000000000000000000 ) ) ;
#60 = ORIENTED_EDGE ( 'NONE', *, *, #198, .F. ) ;
#61 = ADVANCED_FACE ( 'NONE', ( #147 ), #379, .F. ) ;
#62 = CIRCLE ( 'NONE', #195, 0.09719999999999980045 ) ;
#63 = DIRECTION ( 'NONE',  ( 1.000000000000000000, -6.982962677686261977E-15, 0.000000000000000000 ) ) ;
#64 = APPROVAL ( #94, 'UNSPECIFIED' ) ;
#65 = ORIENTED_EDGE ( 'NONE', *, *, #102, .T. ) ;
#66 = AXIS2_PLACEMENT_3D ( 'NONE', #388, #361, #83 ) ;
#67 = ORIENTED_EDGE ( 'NONE', *, *, #168, .F. ) ;
#68 = PERSON_AND_ORGANIZATION ( #9, #196 ) ;
#69 = APPROVAL ( #216, 'UNSPECIFIED' ) ;
#70 = AXIS2_PLACEMENT_3D ( 'NONE', #204, #233, #385 ) ;
#71 = EDGE_LOOP ( 'NONE', ( #161, #384 ) ) ;
#72 = ADVANCED_FACE ( 'NONE', ( #23 ), #347, .T. ) ;
#73 = APPLICATION_CONTEXT ( 'configuration controlled 3d designs of mechanical parts and assemblies' ) ;
#74 = PRODUCT_DEFINITION_SHAPE ( 'NONE', 'NONE',  #11 ) ;
#75 = CLOSED_SHELL ( 'NONE', ( #373, #109, #294, #72, #79, #36, #236, #61 ) ) ;
#76 = ORIENTED_EDGE ( 'NONE', *, *, #310, .F. ) ;
#77 = CARTESIAN_POINT ( 'NONE',  ( 6.787439722711036617E-16, 0.09719999999999980045, -3.393719861355530635E-16 ) ) ;
#78 = DIRECTION ( 'NONE',  ( 1.000000000000000000, -6.982962677686265922E-15, 4.876176775795935793E-29 ) ) ;
#79 = ADVANCED_FACE ( 'NONE', ( #146 ), #149, .T. ) ;
#80 = PLANE ( 'NONE',  #70 ) ;
#81 = VECTOR ( 'NONE', #265, 39.37007874015748143 ) ;
#82 = CONICAL_SURFACE ( 'NONE', #114, 751.2258538476929743, 1.518436449235075481 ) ;
#83 = DIRECTION ( 'NONE',  ( 1.000000000000000000, -6.982962677686266711E-15, 0.000000000000000000 ) ) ;
#84 = CARTESIAN_POINT ( 'NONE',  ( 0.1171999999999997766, -8.738799921156849272E-16, -0.02000000000000002470 ) ) ;
#85 = DIRECTION ( 'NONE',  ( 1.000000000000000000, -6.982962677686266711E-15, 4.876176775795935793E-29 ) ) ;
#86 = CARTESIAN_POINT ( 'NONE',  ( 0.1171999999999999986, -8.184032258248304553E-16, 5.714879181232836475E-30 ) ) ;
#87 = FACE_OUTER_BOUND ( 'NONE', #343, .T. ) ;
#88 = FACE_OUTER_BOUND ( 'NONE', #105, .T. ) ;
#89 = SHAPE_DEFINITION_REPRESENTATION ( #74, #351 ) ;
#90 = CONICAL_SURFACE ( 'NONE', #354, 751.2258538476929743, 1.518436449235075481 ) ;
#91 = CARTESIAN_POINT ( 'NONE',  ( 4.279570410823989044E-29, -6.110092342975505460E-15, -1.750000000000000222 ) ) ;
#92 = EDGE_LOOP ( 'NONE', ( #160, #220, #3, #154 ) ) ;
#93 = ORIENTED_EDGE ( 'NONE', *, *, #44, .F. ) ;
#94 = APPROVAL_STATUS ( 'not_yet_approved' ) ;
#95 = APPLICATION_CONTEXT ( 'configuration controlled 3d designs of mechanical parts and assemblies' ) ;
#96 = AXIS2_PLACEMENT_3D ( 'NONE', #77, #171, #357 ) ;
#97 = VERTEX_POINT ( 'NONE', #55 ) ;
#98 = EDGE_CURVE ( 'NONE', #308, #355, #106, .T. ) ;
#99 = PERSON_AND_ORGANIZATION ( #9, #196 ) ;
#100 = ORIENTED_EDGE ( 'NONE', *, *, #30, .F. ) ;
#101 = CONICAL_SURFACE ( 'NONE', #158, 0.1171999999999997766, 0.7853981633974471688 ) ;
#102 = EDGE_CURVE ( 'NONE', #249, #280, #341, .T. ) ;
#103 = EDGE_CURVE ( 'NONE', #355, #308, #352, .T. ) ;
#104 = FACE_OUTER_BOUND ( 'NONE', #201, .T. ) ;
#105 = EDGE_LOOP ( 'NONE', ( #191, #130, #301, #245 ) ) ;
#106 = CIRCLE ( 'NONE', #374, 0.1161999999999999977 ) ;
#107 = CC_DESIGN_APPROVAL ( #64, ( #230 ) ) ;
#108 = PLANE ( 'NONE',  #22 ) ;
#109 = ADVANCED_FACE ( 'NONE', ( #111 ), #257, .T. ) ;
#110 = LINE ( 'NONE', #316, #48 ) ;
#111 = FACE_OUTER_BOUND ( 'NONE', #10, .T. ) ;
#112 = CARTESIAN_POINT ( 'NONE',  ( 6.098609171140841750E-29, -8.707318583953073419E-15, -2.493857808268028720 ) ) ;
#113 = DIRECTION ( 'NONE',  ( -2.445468806185136597E-29, 3.491481338843145583E-15, 1.000000000000000000 ) ) ;
#114 = AXIS2_PLACEMENT_3D ( 'NONE', #205, #325, #175 ) ;
#115 = FACE_OUTER_BOUND ( 'NONE', #45, .T. ) ;
#116 = DIRECTION ( 'NONE',  ( -0.9986295347545742773, 6.790662755453673988E-15, -0.05233595624293509857 ) ) ;
#117 = CC_DESIGN_DATE_AND_TIME_ASSIGNMENT ( #239, #133, ( #172 ) ) ;
#118 = CARTESIAN_POINT ( 'NONE',  ( 6.113672015462842613E-29, -8.728703347107864943E-15, -2.500000000000000000 ) ) ;
#119 = CYLINDRICAL_SURFACE ( 'NONE', #145, 0.1171999999999999986 ) ;
#120 = FACE_OUTER_BOUND ( 'NONE', #71, .T. ) ;
#121 = DIRECTION ( 'NONE',  ( -2.445468806185136597E-29, 3.491481338843145583E-15, 1.000000000000000000 ) ) ;
#122 = DIRECTION ( 'NONE',  ( -2.445468806185136877E-29, 3.491481338843145188E-15, 1.000000000000000000 ) ) ;
#123 = DATE_AND_TIME ( #183, #139 ) ;
#124 = APPROVAL_DATE_TIME ( #8, #64 ) ;
#125 = CIRCLE ( 'NONE', #144, 0.1171999999999999986 ) ;
#126 = CALENDAR_DATE ( 2023, 21, 3 ) ;
#127 = ORIENTED_EDGE ( 'NONE', *, *, #198, .T. ) ;
#128 = PERSON_AND_ORGANIZATION_ROLE ( 'classification_officer' ) ;
#129 = MANIFOLD_SOLID_BREP ( 'Body-Move/Copy2[2]', #75 ) ;
#130 = ORIENTED_EDGE ( 'NONE', *, *, #282, .T. ) ;
#131 = AXIS2_PLACEMENT_3D ( 'NONE', #264, #121, #235 ) ;
#132 = EDGE_LOOP ( 'NONE', ( #311, #127, #100 ) ) ;
#133 = DATE_TIME_ROLE ( 'classification_date' ) ;
#134 = APPROVAL_DATE_TIME ( #14, #192 ) ;
#135 = ORIENTED_EDGE ( 'NONE', *, *, #310, .T. ) ;
#136 = MANIFOLD_SOLID_BREP ( 'Body-Move/Copy2[1]', #169 ) ;
#137 = AXIS2_PLACEMENT_3D ( 'NONE', #231, #141, #85 ) ;
#138 = ORIENTED_EDGE ( 'NONE', *, *, #277, .F. ) ;
#139 = LOCAL_TIME ( 16, 44, 46.00000000000000000, #46 ) ;
#140 = EDGE_LOOP ( 'NONE', ( #65, #15 ) ) ;
#141 = DIRECTION ( 'NONE',  ( -2.445468806185136597E-29, 3.491481338843145583E-15, 1.000000000000000000 ) ) ;
#142 = CARTESIAN_POINT ( 'NONE',  ( 0.000000000000000000, 0.000000000000000000, 0.000000000000000000 ) ) ;
#143 = CC_DESIGN_PERSON_AND_ORGANIZATION_ASSIGNMENT ( #185, #12, ( #230 ) ) ;
#144 = AXIS2_PLACEMENT_3D ( 'NONE', #153, #32, #290 ) ;
#145 = AXIS2_PLACEMENT_3D ( 'NONE', #330, #6, #295 ) ;
#146 = FACE_OUTER_BOUND ( 'NONE', #47, .T. ) ;
#147 = FACE_OUTER_BOUND ( 'NONE', #140, .T. ) ;
#148 = CARTESIAN_POINT ( 'NONE',  ( 0.1171999999999999986, -6.925004087461492514E-15, -1.749000000000000110 ) ) ;
#149 = CYLINDRICAL_SURFACE ( 'NONE', #7, 0.1171999999999998737 ) ;
#150 = DIRECTION ( 'NONE',  ( -1.000000000000000000, 6.982962677686267499E-15, 0.000000000000000000 ) ) ;
#151 = CARTESIAN_POINT ( 'NONE',  ( 0.1161999999999999977, -6.921512606122649506E-15, -1.750000000000000222 ) ) ;
#152 = FACE_OUTER_BOUND ( 'NONE', #92, .T. ) ;
#153 = CARTESIAN_POINT ( 'NONE',  ( 6.113672015462842613E-29, -8.728703347107864943E-15, -2.500000000000000000 ) ) ;
#154 = ORIENTED_EDGE ( 'NONE', *, *, #16, .F. ) ;
#155 = APPROVAL_ROLE ( '' ) ;
#156 = CARTESIAN_POINT ( 'NONE',  ( -6.058465692303467708E-20, -8.707257999296089725E-15, -2.493857808268028720 ) ) ;
#157 = MECHANICAL_CONTEXT ( 'NONE', #73, 'mechanical' ) ;
#158 = AXIS2_PLACEMENT_3D ( 'NONE', #326, #176, #292 ) ;
#159 = APPROVAL_PERSON_ORGANIZATION ( #189, #69, #41 ) ;
#160 = ORIENTED_EDGE ( 'NONE', *, *, #54, .F. ) ;
#161 = ORIENTED_EDGE ( 'NONE', *, *, #103, .F. ) ;
#162 =( NAMED_UNIT ( * ) PLANE_ANGLE_UNIT ( ) SI_UNIT ( $, .RADIAN. ) );
#163 = CIRCLE ( 'NONE', #66, 0.1171999999999997766 ) ;
#164 = LOCAL_TIME ( 16, 44, 46.00000000000000000, #274 ) ;
#165 = ORIENTED_EDGE ( 'NONE', *, *, #16, .T. ) ;
#166 = ORIENTED_EDGE ( 'NONE', *, *, #386, .F. ) ;
#167 = VERTEX_POINT ( 'NONE', #353 ) ;
#168 = EDGE_CURVE ( 'NONE', #268, #244, #163, .T. ) ;
#169 = CLOSED_SHELL ( 'NONE', ( #381, #349, #170, #188, #203 ) ) ;
#170 = ADVANCED_FACE ( 'NONE', ( #115 ), #82, .F. ) ;
#171 = DIRECTION ( 'NONE',  ( 2.438088387897960049E-29, -3.491481338843145188E-15, -1.000000000000000000 ) ) ;
#172 = SECURITY_CLASSIFICATION ( '', '', #242 ) ;
#173 = LINE ( 'NONE', #258, #306 ) ;
#174 = DIRECTION ( 'NONE',  ( -2.445468806185136597E-29, 3.491481338843145583E-15, 1.000000000000000000 ) ) ;
#175 = DIRECTION ( 'NONE',  ( -1.000000000000000000, 6.982962677686267499E-15, 0.000000000000000000 ) ) ;
#176 = DIRECTION ( 'NONE',  ( 2.445468806185136597E-29, -3.491481338843145583E-15, -1.000000000000000000 ) ) ;
#177 = DIRECTION ( 'NONE',  ( 1.000000000000000000, -6.982962677686269866E-15, 0.000000000000000000 ) ) ;
#178 = FACE_OUTER_BOUND ( 'NONE', #380, .T. ) ;
#179 = DIRECTION ( 'NONE',  ( 1.000000000000000000, -6.982962677686269866E-15, 0.000000000000000000 ) ) ;
#180 = AXIS2_PLACEMENT_3D ( 'NONE', #202, #288, #285 ) ;
#181 = AXIS2_PLACEMENT_3D ( 'NONE', #31, #302, #260 ) ;
#182 = DIRECTION ( 'NONE',  ( -2.445468806185136877E-29, 3.491481338843145188E-15, 1.000000000000000000 ) ) ;
#183 = CALENDAR_DATE ( 2023, 21, 3 ) ;
#184 = ORIENTED_EDGE ( 'NONE', *, *, #356, .T. ) ;
#185 = PERSON_AND_ORGANIZATION ( #9, #196 ) ;
#186 = DIRECTION ( 'NONE',  ( -1.000000000000000000, 6.982962677686265922E-15, -4.876176775795935793E-29 ) ) ;
#187 = LINE ( 'NONE', #156, #371 ) ;
#188 = ADVANCED_FACE ( 'NONE', ( #250 ), #383, .T. ) ;
#189 = PERSON_AND_ORGANIZATION ( #9, #196 ) ;
#190 = ORIENTED_EDGE ( 'NONE', *, *, #386, .T. ) ;
#191 = ORIENTED_EDGE ( 'NONE', *, *, #38, .F. ) ;
#192 = APPROVAL ( #217, 'UNSPECIFIED' ) ;
#193 = ORIENTED_EDGE ( 'NONE', *, *, #49, .F. ) ;
#194 = COORDINATED_UNIVERSAL_TIME_OFFSET ( 5, 0, .BEHIND. ) ;
#195 = AXIS2_PLACEMENT_3D ( 'NONE', #300, #206, #327 ) ;
#196 = ORGANIZATION ( 'UNSPECIFIED', 'UNSPECIFIED', '' ) ;
#197 = CC_DESIGN_PERSON_AND_ORGANIZATION_ASSIGNMENT ( #99, #314, ( #11 ) ) ;
#198 = EDGE_CURVE ( 'NONE', #238, #221, #207, .T. ) ;
#199 = CARTESIAN_POINT ( 'NONE',  ( 4.279570410823989044E-29, -6.110092342975505460E-15, -1.750000000000000222 ) ) ;
#200 = ORIENTED_EDGE ( 'NONE', *, *, #54, .T. ) ;
#201 = EDGE_LOOP ( 'NONE', ( #252, #317 ) ) ;
#202 = CARTESIAN_POINT ( 'NONE',  ( 4.279570410823989044E-29, -6.110092342975505460E-15, -1.750000000000000222 ) ) ;
#203 = ADVANCED_FACE ( 'NONE', ( #104 ), #108, .F. ) ;
#204 = CARTESIAN_POINT ( 'NONE',  ( 4.279570410823989044E-29, -6.110092342975505460E-15, -1.750000000000000222 ) ) ;
#205 = CARTESIAN_POINT ( 'NONE',  ( 1.023769509332884321E-27, -1.461671532293412002E-13, -41.86393654842551371 ) ) ;
#206 = DIRECTION ( 'NONE',  ( -2.445468806185136597E-29, 3.491481338843145583E-15, 1.000000000000000000 ) ) ;
#207 = LINE ( 'NONE', #329, #312 ) ;
#208 = CARTESIAN_POINT ( 'NONE',  ( -0.1171999999999998737, 8.327560863108365206E-16, -5.764991925778743516E-30 ) ) ;
#209 = DIRECTION ( 'NONE',  ( 0.7071067811865466846, -7.319954787623252890E-15, -0.7071067811865483499 ) ) ;
#210 = CARTESIAN_POINT ( 'NONE',  ( -0.1171999999999999986, -6.586641758730847990E-15, -1.750000000000000222 ) ) ;
#211 = EDGE_CURVE ( 'NONE', #221, #167, #256, .T. ) ;
#212 = CC_DESIGN_SECURITY_CLASSIFICATION ( #172, ( #230 ) ) ;
#213 = DIRECTION ( 'NONE',  ( 2.445468806185136597E-29, -3.491481338843145583E-15, -1.000000000000000000 ) ) ;
#214 = DATE_TIME_ROLE ( 'creation_date' ) ;
#215 = ORIENTED_EDGE ( 'NONE', *, *, #211, .T. ) ;
#216 = APPROVAL_STATUS ( 'not_yet_approved' ) ;
#217 = APPROVAL_STATUS ( 'not_yet_approved' ) ;
#218 = COORDINATED_UNIVERSAL_TIME_OFFSET ( 5, 0, .BEHIND. ) ;
#219 = VECTOR ( 'NONE', #182, 39.37007874015748143 ) ;
#220 = ORIENTED_EDGE ( 'NONE', *, *, #98, .T. ) ;
#221 = VERTEX_POINT ( 'NONE', #253 ) ;
#222 = PERSON_AND_ORGANIZATION_ROLE ( 'design_owner' ) ;
#223 = CC_DESIGN_DATE_AND_TIME_ASSIGNMENT ( #123, #214, ( #11 ) ) ;
#224 = VECTOR ( 'NONE', #209, 39.37007874015748143 ) ;
#225 = CARTESIAN_POINT ( 'NONE',  ( 4.890937612370279289E-31, -6.982962677686299005E-17, -0.02000000000000002470 ) ) ;
#226 = ORIENTED_EDGE ( 'NONE', *, *, #103, .T. ) ;
#227 = CARTESIAN_POINT ( 'NONE',  ( 8.184032258248731524E-16, 0.1171999999999938924, -1.750000000000000444 ) ) ;
#228 = DIRECTION ( 'NONE',  ( 1.000000000000000000, -6.982962677686266711E-15, 4.876176775795935793E-29 ) ) ;
#229 = CARTESIAN_POINT ( 'NONE',  ( 4.277124942017804562E-29, -6.106600861636661664E-15, -1.749000000000000110 ) ) ;
#230 = PRODUCT_DEFINITION_FORMATION_WITH_SPECIFIED_SOURCE ( 'ANY', '', #246, .NOT_KNOWN. ) ;
#231 = CARTESIAN_POINT ( 'NONE',  ( 0.000000000000000000, 0.000000000000000000, 0.000000000000000000 ) ) ;
#232 = DIRECTION ( 'NONE',  ( -2.445468806185136597E-29, 3.491481338843145583E-15, 1.000000000000000000 ) ) ;
#233 = DIRECTION ( 'NONE',  ( -2.438088387897960049E-29, 3.491481338843145188E-15, 1.000000000000000000 ) ) ;
#234 = LINE ( 'NONE', #151, #362 ) ;
#235 = DIRECTION ( 'NONE',  ( 1.000000000000000000, -6.982962677686269866E-15, 0.000000000000000000 ) ) ;
#236 = ADVANCED_FACE ( 'NONE', ( #120 ), #80, .F. ) ;
#237 = CARTESIAN_POINT ( 'NONE',  ( 1.023769509332884321E-27, -1.461671532293412002E-13, -41.86393654842551371 ) ) ;
#238 = VERTEX_POINT ( 'NONE', #112 ) ;
#239 = DATE_AND_TIME ( #13, #342 ) ;
#240 = VECTOR ( 'NONE', #360, 39.37007874015748143 ) ;
#241 = ORIENTED_EDGE ( 'NONE', *, *, #34, .F. ) ;
#242 = SECURITY_CLASSIFICATION_LEVEL ( 'unclassified' ) ;
#243 = ORIENTED_EDGE ( 'NONE', *, *, #254, .T. ) ;
#244 = VERTEX_POINT ( 'NONE', #322 ) ;
#245 = ORIENTED_EDGE ( 'NONE', *, *, #254, .F. ) ;
#246 = PRODUCT ( '39029', '39029', '', ( #157 ) ) ;
#247 = CARTESIAN_POINT ( 'NONE',  ( 4.277124942017804562E-29, -6.106600861636661664E-15, -1.749000000000000110 ) ) ;
#248 = DIRECTION ( 'NONE',  ( 0.9986295347545742773, -7.033825938271992390E-15, -0.05233595624293509857 ) ) ;
#249 = VERTEX_POINT ( 'NONE', #25 ) ;
#250 = FACE_OUTER_BOUND ( 'NONE', #273, .T. ) ;
#251 = AXIS2_PLACEMENT_3D ( 'NONE', #229, #363, #29 ) ;
#252 = ORIENTED_EDGE ( 'NONE', *, *, #34, .T. ) ;
#253 = CARTESIAN_POINT ( 'NONE',  ( 0.1171999999999997627, -9.532753712446686276E-15, -2.500000000000000000 ) ) ;
#254 = EDGE_CURVE ( 'NONE', #249, #244, #53, .T. ) ;
#255 = DIRECTION ( 'NONE',  ( -2.445468806185136597E-29, 3.491481338843145583E-15, 1.000000000000000000 ) ) ;
#256 = LINE ( 'NONE', #86, #240 ) ;
#257 = CYLINDRICAL_SURFACE ( 'NONE', #332, 0.1171999999999998737 ) ;
#258 = CARTESIAN_POINT ( 'NONE',  ( -0.1171999999999999986, 8.327560863108374081E-16, -5.764991925778749121E-30 ) ) ;
#259 = AXIS2_PLACEMENT_3D ( 'NONE', #247, #174, #179 ) ;
#260 = DIRECTION ( 'NONE',  ( 1.000000000000000000, -6.982962677686266711E-15, 0.000000000000000000 ) ) ;
#261 = DIMENSIONAL_EXPONENTS ( 1.000000000000000000, 0.000000000000000000, 0.000000000000000000, 0.000000000000000000, 0.000000000000000000, 0.000000000000000000, 0.000000000000000000 ) ;
#262 = EDGE_CURVE ( 'NONE', #345, #42, #173, .T. ) ;
#263 = CARTESIAN_POINT ( 'NONE',  ( 0.09719999999999980045, -7.703601987495381440E-16, 5.066693937733457095E-30 ) ) ;
#264 = CARTESIAN_POINT ( 'NONE',  ( 4.279570410823989044E-29, -6.110092342975505460E-15, -1.750000000000000222 ) ) ;
#265 = DIRECTION ( 'NONE',  ( -0.7071067811865466846, 2.468850131082247989E-15, -0.7071067811865483499 ) ) ;
#266 = LINE ( 'NONE', #2, #315 ) ;
#267 = UNCERTAINTY_MEASURE_WITH_UNIT (LENGTH_MEASURE( 1.000000000000000082E-05 ), #33, 'distance_accuracy_value', 'NONE');
#268 = VERTEX_POINT ( 'NONE', #84 ) ;
#269 = PERSON_AND_ORGANIZATION ( #9, #196 ) ;
#270 = CIRCLE ( 'NONE', #251, 0.1171999999999999986 ) ;
#271 =( NAMED_UNIT ( * ) SI_UNIT ( $, .STERADIAN. ) SOLID_ANGLE_UNIT ( ) );
#272 = APPLICATION_PROTOCOL_DEFINITION ( 'international standard', 'config_control_design', 1994, #73 ) ;
#273 = EDGE_LOOP ( 'NONE', ( #358, #40, #215, #193 ) ) ;
#274 = COORDINATED_UNIVERSAL_TIME_OFFSET ( 5, 0, .BEHIND. ) ;
#275 = CIRCLE ( 'NONE', #382, 0.1171999999999999986 ) ;
#276 = CC_DESIGN_APPROVAL ( #192, ( #11 ) ) ;
#277 = EDGE_CURVE ( 'NONE', #355, #304, #234, .T. ) ;
#278 = ORIENTED_EDGE ( 'NONE', *, *, #262, .T. ) ;
#279 = CALENDAR_DATE ( 2023, 21, 3 ) ;
#280 = VERTEX_POINT ( 'NONE', #263 ) ;
#281 = PERSON_AND_ORGANIZATION ( #9, #196 ) ;
#282 = EDGE_CURVE ( 'NONE', #280, #268, #368, .T. ) ;
#283 = CIRCLE ( 'NONE', #259, 0.1171999999999999986 ) ;
#284 = APPROVAL_PERSON_ORGANIZATION ( #5, #64, #155 ) ;
#285 = DIRECTION ( 'NONE',  ( 1.000000000000000000, -6.982962677686269866E-15, 0.000000000000000000 ) ) ;
#286 = CIRCLE ( 'NONE', #296, 0.1171999999999999986 ) ;
#287 = CC_DESIGN_PERSON_AND_ORGANIZATION_ASSIGNMENT ( #321, #222, ( #246 ) ) ;
#288 = DIRECTION ( 'NONE',  ( -2.445468806185136597E-29, 3.491481338843145583E-15, 1.000000000000000000 ) ) ;
#289 = DIRECTION ( 'NONE',  ( 0.7071067811865232589, -2.468850131082003836E-15, 0.7071067811865715536 ) ) ;
#290 = DIRECTION ( 'NONE',  ( 1.000000000000000000, -6.982962677686261977E-15, 0.000000000000000000 ) ) ;
#291 = DIRECTION ( 'NONE',  ( 2.445468806185136597E-29, -3.491481338843145583E-15, -1.000000000000000000 ) ) ;
#292 = DIRECTION ( 'NONE',  ( -1.000000000000000000, 6.982962677686266711E-15, 0.000000000000000000 ) ) ;
#293 = DIRECTION ( 'NONE',  ( 1.000000000000000000, -6.982962677686269866E-15, 0.000000000000000000 ) ) ;
#294 = ADVANCED_FACE ( 'NONE', ( #88 ), #101, .T. ) ;
#295 = DIRECTION ( 'NONE',  ( 1.000000000000000000, -6.982962677686266711E-15, 4.876176775795935793E-29 ) ) ;
#296 = AXIS2_PLACEMENT_3D ( 'NONE', #370, #113, #293 ) ;
#297 = AXIS2_PLACEMENT_3D ( 'NONE', #118, #331, #63 ) ;
#298 = LENGTH_MEASURE_WITH_UNIT ( LENGTH_MEASURE( 0.02539999999999999897 ), #367 );
#299 = CARTESIAN_POINT ( 'NONE',  ( -0.1171999999999997627, -7.910300121283035671E-15, -2.500000000000000000 ) ) ;
#300 = CARTESIAN_POINT ( 'NONE',  ( 0.000000000000000000, 0.000000000000000000, 0.000000000000000000 ) ) ;
#301 = ORIENTED_EDGE ( 'NONE', *, *, #168, .T. ) ;
#302 = DIRECTION ( 'NONE',  ( -2.445468806185136597E-29, 3.491481338843145583E-15, 1.000000000000000000 ) ) ;
#303 = DATE_AND_TIME ( #126, #24 ) ;
#304 = VERTEX_POINT ( 'NONE', #148 ) ;
#305 = EDGE_CURVE ( 'NONE', #304, #97, #270, .T. ) ;
#306 = VECTOR ( 'NONE', #59, 39.37007874015748143 ) ;
#307 = CARTESIAN_POINT ( 'NONE',  ( 0.000000000000000000, 0.000000000000000000, 0.000000000000000000 ) ) ;
#308 = VERTEX_POINT ( 'NONE', #390 ) ;
#309 = COORDINATED_UNIVERSAL_TIME_OFFSET ( 5, 0, .BEHIND. ) ;
#310 = EDGE_CURVE ( 'NONE', #221, #345, #348, .T. ) ;
#311 = ORIENTED_EDGE ( 'NONE', *, *, #356, .F. ) ;
#312 = VECTOR ( 'NONE', #248, 39.37007874015748854 ) ;
#313 = CONICAL_SURFACE ( 'NONE', #364, 0.1161999999999999977, 0.7853981633974141952 ) ;
#314 = PERSON_AND_ORGANIZATION_ROLE ( 'creator' ) ;
#315 = VECTOR ( 'NONE', #122, 39.37007874015748143 ) ;
#316 = CARTESIAN_POINT ( 'NONE',  ( -0.1161999999999999977, -5.284441684022269257E-15, -1.750000000000000222 ) ) ;
#317 = ORIENTED_EDGE ( 'NONE', *, *, #49, .T. ) ;
#318 = DIRECTION ( 'NONE',  ( -0.7071067811865232589, 7.493145998870265808E-15, 0.7071067811865715536 ) ) ;
#319 = PRODUCT_RELATED_PRODUCT_CATEGORY ( 'detail', '', ( #246 ) ) ;
#320 = DIRECTION ( 'NONE',  ( 1.000000000000000000, -6.982962677686266711E-15, 4.876176775795935793E-29 ) ) ;
#321 = PERSON_AND_ORGANIZATION ( #9, #196 ) ;
#322 = CARTESIAN_POINT ( 'NONE',  ( -0.1171999999999997766, 7.485735990479658752E-16, -0.02000000000000002470 ) ) ;
#323 = AXIS2_PLACEMENT_3D ( 'NONE', #387, #365, #78 ) ;
#324 = AXIS2_PLACEMENT_3D ( 'NONE', #307, #39, #338 ) ;
#325 = DIRECTION ( 'NONE',  ( 2.445468806185136597E-29, -3.491481338843145583E-15, -1.000000000000000000 ) ) ;
#326 = CARTESIAN_POINT ( 'NONE',  ( 4.890937612370279289E-31, -6.982962677686299005E-17, -0.02000000000000002470 ) ) ;
#327 = DIRECTION ( 'NONE',  ( 1.000000000000000000, -6.982962677686265922E-15, 4.876176775795935793E-29 ) ) ;
#328 = CC_DESIGN_PERSON_AND_ORGANIZATION_ASSIGNMENT ( #68, #369, ( #230 ) ) ;
#329 = CARTESIAN_POINT ( 'NONE',  ( 6.058465704500769639E-20, -8.707257999296089725E-15, -2.493857808268028720 ) ) ;
#330 = CARTESIAN_POINT ( 'NONE',  ( 0.000000000000000000, 0.000000000000000000, 0.000000000000000000 ) ) ;
#331 = DIRECTION ( 'NONE',  ( -2.445468806185136597E-29, 3.491481338843145583E-15, 1.000000000000000000 ) ) ;
#332 = AXIS2_PLACEMENT_3D ( 'NONE', #20, #26, #228 ) ;
#333 = ORIENTED_EDGE ( 'NONE', *, *, #44, .T. ) ;
#334 = CC_DESIGN_APPROVAL ( #69, ( #172 ) ) ;
#335 = CARTESIAN_POINT ( 'NONE',  ( 0.1161999999999999977, -6.921512606122649506E-15, -1.750000000000000222 ) ) ;
#336 = DESIGN_CONTEXT ( 'detailed design', #95, 'design' ) ;
#337 = ORIENTED_EDGE ( 'NONE', *, *, #344, .T. ) ;
#338 = DIRECTION ( 'NONE',  ( 1.000000000000000000, 0.000000000000000000, 0.000000000000000000 ) ) ;
#339 = APPROVAL_ROLE ( '' ) ;
#340 = CALENDAR_DATE ( 2023, 21, 3 ) ;
#341 = CIRCLE ( 'NONE', #323, 0.09719999999999980045 ) ;
#342 = LOCAL_TIME ( 16, 44, 46.00000000000000000, #194 ) ;
#343 = EDGE_LOOP ( 'NONE', ( #226, #200, #346, #138 ) ) ;
#344 = EDGE_CURVE ( 'NONE', #97, #244, #366, .T. ) ;
#345 = VERTEX_POINT ( 'NONE', #299 ) ;
#346 = ORIENTED_EDGE ( 'NONE', *, *, #305, .F. ) ;
#347 = CONICAL_SURFACE ( 'NONE', #389, 0.1171999999999997766, 0.7853981633974471688 ) ;
#348 = CIRCLE ( 'NONE', #297, 0.1171999999999999986 ) ;
#349 = ADVANCED_FACE ( 'NONE', ( #35 ), #90, .F. ) ;
#350 = DIRECTION ( 'NONE',  ( 2.438088387897960049E-29, -3.491481338843145188E-15, -1.000000000000000000 ) ) ;
#351 = ADVANCED_BREP_SHAPE_REPRESENTATION ( '39029', ( #136, #129, #324 ), #50 ) ;
#352 = CIRCLE ( 'NONE', #180, 0.1161999999999999977 ) ;
#353 = CARTESIAN_POINT ( 'NONE',  ( 0.1171999999999999986, -6.928495568800336310E-15, -1.750000000000000222 ) ) ;
#354 = AXIS2_PLACEMENT_3D ( 'NONE', #237, #213, #150 ) ;
#355 = VERTEX_POINT ( 'NONE', #335 ) ;
#356 = EDGE_CURVE ( 'NONE', #238, #345, #187, .T. ) ;
#357 = DIRECTION ( 'NONE',  ( -1.000000000000000000, 6.982962677686265922E-15, -4.876176775795935793E-29 ) ) ;
#358 = ORIENTED_EDGE ( 'NONE', *, *, #262, .F. ) ;
#359 = DIRECTION ( 'NONE',  ( -2.445468806185136597E-29, 3.491481338843145583E-15, 1.000000000000000000 ) ) ;
#360 = DIRECTION ( 'NONE',  ( -2.445468806185136877E-29, 3.491481338843145188E-15, 1.000000000000000000 ) ) ;
#361 = DIRECTION ( 'NONE',  ( -2.445468806185136597E-29, 3.491481338843145583E-15, 1.000000000000000000 ) ) ;
#362 = VECTOR ( 'NONE', #289, 39.37007874015748854 ) ;
#363 = DIRECTION ( 'NONE',  ( -2.445468806185136597E-29, 3.491481338843145583E-15, 1.000000000000000000 ) ) ;
#364 = AXIS2_PLACEMENT_3D ( 'NONE', #1, #232, #58 ) ;
#365 = DIRECTION ( 'NONE',  ( -2.445468806185136597E-29, 3.491481338843145583E-15, 1.000000000000000000 ) ) ;
#366 = LINE ( 'NONE', #208, #219 ) ;
#367 =( LENGTH_UNIT ( ) NAMED_UNIT ( * ) SI_UNIT ( $, .METRE. ) );
#368 = LINE ( 'NONE', #27, #224 ) ;
#369 = PERSON_AND_ORGANIZATION_ROLE ( 'creator' ) ;
#370 = CARTESIAN_POINT ( 'NONE',  ( 4.279570410823989044E-29, -6.110092342975505460E-15, -1.750000000000000222 ) ) ;
#371 = VECTOR ( 'NONE', #116, 39.37007874015748854 ) ;
#372 = APPROVAL_DATE_TIME ( #303, #69 ) ;
#373 = ADVANCED_FACE ( 'NONE', ( #87 ), #313, .T. ) ;
#374 = AXIS2_PLACEMENT_3D ( 'NONE', #199, #359, #51 ) ;
#375 = APPROVAL_PERSON_ORGANIZATION ( #281, #192, #339 ) ;
#376 = ORIENTED_EDGE ( 'NONE', *, *, #211, .F. ) ;
#377 = LOCAL_TIME ( 16, 44, 46.00000000000000000, #218 ) ;
#378 = ORIENTED_EDGE ( 'NONE', *, *, #102, .F. ) ;
#379 = PLANE ( 'NONE',  #96 ) ;
#380 = EDGE_LOOP ( 'NONE', ( #135, #278, #241, #376 ) ) ;
#381 = ADVANCED_FACE ( 'NONE', ( #178 ), #119, .T. ) ;
#382 = AXIS2_PLACEMENT_3D ( 'NONE', #91, #57, #177 ) ;
#383 = CYLINDRICAL_SURFACE ( 'NONE', #137, 0.1171999999999999986 ) ;
#384 = ORIENTED_EDGE ( 'NONE', *, *, #98, .F. ) ;
#385 = DIRECTION ( 'NONE',  ( 1.000000000000000000, -6.982962677686265922E-15, 4.876176775795935793E-29 ) ) ;
#386 = EDGE_CURVE ( 'NONE', #244, #268, #18, .T. ) ;
#387 = CARTESIAN_POINT ( 'NONE',  ( 0.000000000000000000, 0.000000000000000000, 0.000000000000000000 ) ) ;
#388 = CARTESIAN_POINT ( 'NONE',  ( 4.890937612370279289E-31, -6.982962677686299005E-17, -0.02000000000000002470 ) ) ;
#389 = AXIS2_PLACEMENT_3D ( 'NONE', #225, #291, #28 ) ;
#390 = CARTESIAN_POINT ( 'NONE',  ( -0.1161999999999999977, -5.279143229674046855E-15, -1.750000000000000222 ) ) ;
ENDSEC;
END-ISO-10303-21;
