ISO-10303-21;
HEADER;
FILE_DESCRIPTION (( 'STEP AP203' ),
    '1' );
FILE_NAME ('39101.STEP',
    '2023-03-21T20:51:22',
    ( '' ),
    ( '' ),
    'SwSTEP 2.0',
    'SolidWorks 2022',
    '' );
FILE_SCHEMA (( 'CONFIG_CONTROL_DESIGN' ));
ENDSEC;

DATA;
#1 = ORIENTED_EDGE ( 'NONE', *, *, #113, .T. ) ;
#2 = EDGE_LOOP ( 'NONE', ( #138, #183, #87 ) ) ;
#3 = CARTESIAN_POINT ( 'NONE',  ( 3.667203548880087605E-29, -5.235794758154378419E-15, -1.499591219321592339 ) ) ;
#4 = DATE_TIME_ROLE ( 'classification_date' ) ;
#5 = CARTESIAN_POINT ( 'NONE',  ( 3.667203548880087605E-29, -5.235794758154378419E-15, -1.499591219321592339 ) ) ;
#6 =( LENGTH_UNIT ( ) NAMED_UNIT ( * ) SI_UNIT ( $, .METRE. ) );
#7 = ADVANCED_FACE ( 'NONE', ( #23 ), #153, .F. ) ;
#8 = APPROVAL ( #150, 'UNSPECIFIED' ) ;
#9 = CARTESIAN_POINT ( 'NONE',  ( 0.000000000000000000, 0.000000000000000000, 0.000000000000000000 ) ) ;
#10 = CARTESIAN_POINT ( 'NONE',  ( -0.007799999999999999642, 5.542233338928781195E-17, -3.836769370398826244E-31 ) ) ;
#11 = PRODUCT_DEFINITION_FORMATION_WITH_SPECIFIED_SOURCE ( 'ANY', '', #92, .NOT_KNOWN. ) ;
#12 = PERSON_AND_ORGANIZATION_ROLE ( 'creator' ) ;
#13 = DIRECTION ( 'NONE',  ( 2.438088387897960049E-29, -3.491481338843145188E-15, -1.000000000000000000 ) ) ;
#14 = EDGE_LOOP ( 'NONE', ( #25, #201, #169 ) ) ;
#15 = PRODUCT_DEFINITION_SHAPE ( 'NONE', 'NONE',  #74 ) ;
#16 = MECHANICAL_CONTEXT ( 'NONE', #53, 'mechanical' ) ;
#17 = CIRCLE ( 'NONE', #46, 0.007799999999999999642 ) ;
#18 = AXIS2_PLACEMENT_3D ( 'NONE', #157, #13, #173 ) ;
#19 = EDGE_CURVE ( 'NONE', #146, #184, #88, .T. ) ;
#20 = ORIENTED_EDGE ( 'NONE', *, *, #19, .F. ) ;
#21 = EDGE_LOOP ( 'NONE', ( #120, #45 ) ) ;
#22 = CALENDAR_DATE ( 2023, 21, 3 ) ;
#23 = FACE_OUTER_BOUND ( 'NONE', #2, .T. ) ;
#24 = AXIS2_PLACEMENT_3D ( 'NONE', #9, #70, #43 ) ;
#25 = ORIENTED_EDGE ( 'NONE', *, *, #171, .F. ) ;
#26 = APPROVAL ( #33, 'UNSPECIFIED' ) ;
#27 = COORDINATED_UNIVERSAL_TIME_OFFSET ( 5, 0, .BEHIND. ) ;
#28 = CC_DESIGN_PERSON_AND_ORGANIZATION_ASSIGNMENT ( #59, #39, ( #74 ) ) ;
#29 = CC_DESIGN_SECURITY_CLASSIFICATION ( #142, ( #11 ) ) ;
#30 = CARTESIAN_POINT ( 'NONE',  ( 0.007799999999999999642, -5.183453195646533500E-15, -1.469000000000000083 ) ) ;
#31 = COORDINATED_UNIVERSAL_TIME_OFFSET ( 5, 0, .BEHIND. ) ;
#32 = APPROVAL_PERSON_ORGANIZATION ( #104, #26, #180 ) ;
#33 = APPROVAL_STATUS ( 'not_yet_approved' ) ;
#34 = PERSON_AND_ORGANIZATION ( #198, #145 ) ;
#35 = CARTESIAN_POINT ( 'NONE',  ( -0.007799999999999999642, -5.127681714123361178E-15, -1.469000000000000083 ) ) ;
#36 = CIRCLE ( 'NONE', #199, 0.007799999999999999642 ) ;
#37 = CALENDAR_DATE ( 2023, 21, 3 ) ;
#38 = ADVANCED_FACE ( 'NONE', ( #156 ), #152, .T. ) ;
#39 = PERSON_AND_ORGANIZATION_ROLE ( 'creator' ) ;
#40 = AXIS2_PLACEMENT_3D ( 'NONE', #140, #108, #185 ) ;
#41 = ORIENTED_EDGE ( 'NONE', *, *, #172, .T. ) ;
#42 = PERSON_AND_ORGANIZATION ( #198, #145 ) ;
#43 = DIRECTION ( 'NONE',  ( 1.000000000000000000, -6.982962677686266711E-15, 4.876176775795935793E-29 ) ) ;
#44 = DIRECTION ( 'NONE',  ( 1.000000000000000000, -6.982962677686266711E-15, 4.876176775795935793E-29 ) ) ;
#45 = ORIENTED_EDGE ( 'NONE', *, *, #143, .T. ) ;
#46 = AXIS2_PLACEMENT_3D ( 'NONE', #61, #97, #122 ) ;
#47 = DESIGN_CONTEXT ( 'detailed design', #64, 'design' ) ;
#48 = CARTESIAN_POINT ( 'NONE',  ( 9.994550300498783373E-28, -1.426956899881994676E-13, -40.86966995947907577 ) ) ;
#49 = APPROVAL_ROLE ( '' ) ;
#50 = DATE_AND_TIME ( #37, #105 ) ;
#51 = APPLICATION_PROTOCOL_DEFINITION ( 'international standard', 'config_control_design', 1994, #53 ) ;
#52 = CC_DESIGN_PERSON_AND_ORGANIZATION_ASSIGNMENT ( #42, #148, ( #11 ) ) ;
#53 = APPLICATION_CONTEXT ( 'configuration controlled 3d designs of mechanical parts and assemblies' ) ;
#54 = AXIS2_PLACEMENT_3D ( 'NONE', #126, #190, #44 ) ;
#55 = LOCAL_TIME ( 16, 51, 22.00000000000000000, #27 ) ;
#56 = AXIS2_PLACEMENT_3D ( 'NONE', #149, #65, #194 ) ;
#57 = PERSON_AND_ORGANIZATION_ROLE ( 'classification_officer' ) ;
#58 = DIRECTION ( 'NONE',  ( -1.000000000000000000, 6.982962677686265922E-15, 0.000000000000000000 ) ) ;
#59 = PERSON_AND_ORGANIZATION ( #198, #145 ) ;
#60 = CARTESIAN_POINT ( 'NONE',  ( 9.994550300498783373E-28, -1.426956899881994676E-13, -40.86966995947907577 ) ) ;
#61 = CARTESIAN_POINT ( 'NONE',  ( 3.592393676285966338E-29, -5.128986086760581011E-15, -1.469000000000000083 ) ) ;
#62 = LOCAL_TIME ( 16, 51, 22.00000000000000000, #154 ) ;
#63 = CYLINDRICAL_SURFACE ( 'NONE', #54, 0.007799999999999999642 ) ;
#64 = APPLICATION_CONTEXT ( 'configuration controlled 3d designs of mechanical parts and assemblies' ) ;
#65 = DIRECTION ( 'NONE',  ( -2.445468806185136597E-29, 3.491481338843145583E-15, 1.000000000000000000 ) ) ;
#66 = APPROVAL_STATUS ( 'not_yet_approved' ) ;
#67 = PERSON_AND_ORGANIZATION_ROLE ( 'design_owner' ) ;
#68 = CIRCLE ( 'NONE', #40, 0.007799999999999999642 ) ;
#69 = EDGE_CURVE ( 'NONE', #136, #184, #68, .T. ) ;
#70 = DIRECTION ( 'NONE',  ( -2.445468806185136597E-29, 3.491481338843145583E-15, 1.000000000000000000 ) ) ;
#71 = CC_DESIGN_APPROVAL ( #8, ( #74 ) ) ;
#72 = DIRECTION ( 'NONE',  ( -2.445468806185136877E-29, 3.491481338843145188E-15, 1.000000000000000000 ) ) ;
#73 = SECURITY_CLASSIFICATION_LEVEL ( 'unclassified' ) ;
#74 = PRODUCT_DEFINITION ( 'UNKNOWN', '', #11, #47 ) ;
#75 = FACE_OUTER_BOUND ( 'NONE', #186, .T. ) ;
#76 = ORIENTED_EDGE ( 'NONE', *, *, #19, .T. ) ;
#77 = VECTOR ( 'NONE', #85, 39.37007874015748143 ) ;
#78 = CARTESIAN_POINT ( 'NONE',  ( 3.668203209277704895E-29, -5.237222008264718177E-15, -1.500000000000000222 ) ) ;
#79 = PRODUCT_RELATED_PRODUCT_CATEGORY ( 'detail', '', ( #92 ) ) ;
#80 = APPROVAL_DATE_TIME ( #50, #26 ) ;
#81 = DIRECTION ( 'NONE',  ( 0.000000000000000000, 0.000000000000000000, 1.000000000000000000 ) ) ;
#82 = DATE_AND_TIME ( #189, #55 ) ;
#83 = DATE_AND_TIME ( #162, #175 ) ;
#84 = CC_DESIGN_PERSON_AND_ORGANIZATION_ASSIGNMENT ( #192, #67, ( #92 ) ) ;
#85 = DIRECTION ( 'NONE',  ( -2.445468806185136877E-29, 3.491481338843145188E-15, 1.000000000000000000 ) ) ;
#86 = VERTEX_POINT ( 'NONE', #155 ) ;
#87 = ORIENTED_EDGE ( 'NONE', *, *, #113, .F. ) ;
#88 = LINE ( 'NONE', #10, #101 ) ;
#89 = DATE_AND_TIME ( #22, #62 ) ;
#90 =( GEOMETRIC_REPRESENTATION_CONTEXT ( 3 ) GLOBAL_UNCERTAINTY_ASSIGNED_CONTEXT ( ( #115 ) ) GLOBAL_UNIT_ASSIGNED_CONTEXT ( ( #112, #178, #99 ) ) REPRESENTATION_CONTEXT ( 'NONE', 'WORKASPACE' ) );
#91 = DIRECTION ( 'NONE',  ( 2.445468806185136597E-29, -3.491481338843145583E-15, -1.000000000000000000 ) ) ;
#92 = PRODUCT ( '39101', '39101', '', ( #16 ) ) ;
#93 = FACE_OUTER_BOUND ( 'NONE', #21, .T. ) ;
#94 = PERSON_AND_ORGANIZATION ( #198, #145 ) ;
#95 = CARTESIAN_POINT ( 'NONE',  ( 3.667203548880087605E-29, -5.235794758154378419E-15, -1.499591219321592339 ) ) ;
#96 = CIRCLE ( 'NONE', #56, 0.007799999999999999642 ) ;
#97 = DIRECTION ( 'NONE',  ( -2.445468806185136597E-29, 3.491481338843145583E-15, 1.000000000000000000 ) ) ;
#98 = CARTESIAN_POINT ( 'NONE',  ( 0.000000000000000000, 0.000000000000000000, 0.000000000000000000 ) ) ;
#99 =( NAMED_UNIT ( * ) SI_UNIT ( $, .STERADIAN. ) SOLID_ANGLE_UNIT ( ) );
#100 = DIRECTION ( 'NONE',  ( 2.445468806185136597E-29, -3.491481338843145583E-15, -1.000000000000000000 ) ) ;
#101 = VECTOR ( 'NONE', #72, 39.37007874015748143 ) ;
#102 = LINE ( 'NONE', #3, #107 ) ;
#103 = COORDINATED_UNIVERSAL_TIME_OFFSET ( 5, 0, .BEHIND. ) ;
#104 = PERSON_AND_ORGANIZATION ( #198, #145 ) ;
#105 = LOCAL_TIME ( 16, 51, 22.00000000000000000, #182 ) ;
#106 = ORIENTED_EDGE ( 'NONE', *, *, #143, .F. ) ;
#107 = VECTOR ( 'NONE', #134, 39.37007874015748854 ) ;
#108 = DIRECTION ( 'NONE',  ( -2.445468806185136597E-29, 3.491481338843145583E-15, 1.000000000000000000 ) ) ;
#109 = MANIFOLD_SOLID_BREP ( 'Body-Move/Copy2', #123 ) ;
#110 = ORIENTED_EDGE ( 'NONE', *, *, #181, .T. ) ;
#111 = LINE ( 'NONE', #95, #119 ) ;
#112 =( CONVERSION_BASED_UNIT ( 'INCH', #137 ) LENGTH_UNIT ( ) NAMED_UNIT ( #135 ) );
#113 = EDGE_CURVE ( 'NONE', #86, #146, #96, .T. ) ;
#114 = DIRECTION ( 'NONE',  ( -1.000000000000000000, 6.982962677686265922E-15, 0.000000000000000000 ) ) ;
#115 = UNCERTAINTY_MEASURE_WITH_UNIT (LENGTH_MEASURE( 1.000000000000000082E-05 ), #112, 'distance_accuracy_value', 'NONE');
#116 = CC_DESIGN_PERSON_AND_ORGANIZATION_ASSIGNMENT ( #144, #57, ( #142 ) ) ;
#117 = APPROVAL_ROLE ( '' ) ;
#118 = ADVANCED_FACE ( 'NONE', ( #177 ), #141, .F. ) ;
#119 = VECTOR ( 'NONE', #158, 39.37007874015748854 ) ;
#120 = ORIENTED_EDGE ( 'NONE', *, *, #69, .T. ) ;
#121 = ORIENTED_EDGE ( 'NONE', *, *, #181, .F. ) ;
#122 = DIRECTION ( 'NONE',  ( 1.000000000000000000, -6.982962677686283277E-15, 0.000000000000000000 ) ) ;
#123 = CLOSED_SHELL ( 'NONE', ( #38, #118, #7, #166, #130 ) ) ;
#124 = AXIS2_PLACEMENT_3D ( 'NONE', #98, #81, #159 ) ;
#125 = ORIENTED_EDGE ( 'NONE', *, *, #69, .F. ) ;
#126 = CARTESIAN_POINT ( 'NONE',  ( 0.000000000000000000, 0.000000000000000000, 0.000000000000000000 ) ) ;
#127 = APPROVAL_DATE_TIME ( #83, #8 ) ;
#128 = CC_DESIGN_PERSON_AND_ORGANIZATION_ASSIGNMENT ( #34, #12, ( #11 ) ) ;
#129 = APPROVAL_PERSON_ORGANIZATION ( #94, #164, #49 ) ;
#130 = ADVANCED_FACE ( 'NONE', ( #93 ), #191, .F. ) ;
#131 = DATE_AND_TIME ( #160, #197 ) ;
#132 = CC_DESIGN_APPROVAL ( #26, ( #142 ) ) ;
#133 = ADVANCED_BREP_SHAPE_REPRESENTATION ( '39101', ( #109, #124 ), #90 ) ;
#134 = DIRECTION ( 'NONE',  ( 0.9986295347545735002, -7.033825938272039721E-15, -0.05233595624295018373 ) ) ;
#135 = DIMENSIONAL_EXPONENTS ( 1.000000000000000000, 0.000000000000000000, 0.000000000000000000, 0.000000000000000000, 0.000000000000000000, 0.000000000000000000, 0.000000000000000000 ) ;
#136 = VERTEX_POINT ( 'NONE', #30 ) ;
#137 = LENGTH_MEASURE_WITH_UNIT ( LENGTH_MEASURE( 0.02539999999999999897 ), #6 );
#138 = ORIENTED_EDGE ( 'NONE', *, *, #179, .F. ) ;
#139 = CC_DESIGN_DATE_AND_TIME_ASSIGNMENT ( #82, #4, ( #142 ) ) ;
#140 = CARTESIAN_POINT ( 'NONE',  ( 3.592393676285966338E-29, -5.128986086760581011E-15, -1.469000000000000083 ) ) ;
#141 = CONICAL_SURFACE ( 'NONE', #187, 751.2258538474760599, 1.518436449235060381 ) ;
#142 = SECURITY_CLASSIFICATION ( '', '', #73 ) ;
#143 = EDGE_CURVE ( 'NONE', #184, #136, #17, .T. ) ;
#144 = PERSON_AND_ORGANIZATION ( #198, #145 ) ;
#145 = ORGANIZATION ( 'UNSPECIFIED', 'UNSPECIFIED', '' ) ;
#146 = VERTEX_POINT ( 'NONE', #188 ) ;
#147 = DIRECTION ( 'NONE',  ( -2.445468806185136597E-29, 3.491481338843145583E-15, 1.000000000000000000 ) ) ;
#148 = PERSON_AND_ORGANIZATION_ROLE ( 'design_supplier' ) ;
#149 = CARTESIAN_POINT ( 'NONE',  ( 3.668203209277704895E-29, -5.237222008264718177E-15, -1.500000000000000222 ) ) ;
#150 = APPROVAL_STATUS ( 'not_yet_approved' ) ;
#151 = CARTESIAN_POINT ( 'NONE',  ( 0.007799999999999999642, -5.446710888595287733E-17, 3.803417885120829600E-31 ) ) ;
#152 = CYLINDRICAL_SURFACE ( 'NONE', #24, 0.007799999999999999642 ) ;
#153 = CONICAL_SURFACE ( 'NONE', #174, 751.2258538474760599, 1.518436449235060381 ) ;
#154 = COORDINATED_UNIVERSAL_TIME_OFFSET ( 5, 0, .BEHIND. ) ;
#155 = CARTESIAN_POINT ( 'NONE',  ( 0.007799999999999990101, -5.290733892647335922E-15, -1.500000000000000222 ) ) ;
#156 = FACE_OUTER_BOUND ( 'NONE', #165, .T. ) ;
#157 = CARTESIAN_POINT ( 'NONE',  ( 5.446710888598879516E-17, 0.007799999999994870932, -1.469000000000000083 ) ) ;
#158 = DIRECTION ( 'NONE',  ( -0.9986295347545735002, 6.790662755453616402E-15, -0.05233595624295018373 ) ) ;
#159 = DIRECTION ( 'NONE',  ( 1.000000000000000000, 0.000000000000000000, 0.000000000000000000 ) ) ;
#160 = CALENDAR_DATE ( 2023, 21, 3 ) ;
#161 = SHAPE_DEFINITION_REPRESENTATION ( #15, #133 ) ;
#162 = CALENDAR_DATE ( 2023, 21, 3 ) ;
#163 = APPROVAL_DATE_TIME ( #131, #164 ) ;
#164 = APPROVAL ( #66, 'UNSPECIFIED' ) ;
#165 = EDGE_LOOP ( 'NONE', ( #1, #76, #125, #121 ) ) ;
#166 = ADVANCED_FACE ( 'NONE', ( #75 ), #63, .T. ) ;
#167 = LINE ( 'NONE', #151, #77 ) ;
#168 = APPROVAL_PERSON_ORGANIZATION ( #176, #8, #117 ) ;
#169 = ORIENTED_EDGE ( 'NONE', *, *, #172, .F. ) ;
#170 = DATE_TIME_ROLE ( 'creation_date' ) ;
#171 = EDGE_CURVE ( 'NONE', #200, #146, #111, .T. ) ;
#172 = EDGE_CURVE ( 'NONE', #146, #86, #36, .T. ) ;
#173 = DIRECTION ( 'NONE',  ( -1.000000000000000000, 6.982962677686265922E-15, -4.876176775795935793E-29 ) ) ;
#174 = AXIS2_PLACEMENT_3D ( 'NONE', #60, #91, #58 ) ;
#175 = LOCAL_TIME ( 16, 51, 22.00000000000000000, #103 ) ;
#176 = PERSON_AND_ORGANIZATION ( #198, #145 ) ;
#177 = FACE_OUTER_BOUND ( 'NONE', #14, .T. ) ;
#178 =( NAMED_UNIT ( * ) PLANE_ANGLE_UNIT ( ) SI_UNIT ( $, .RADIAN. ) );
#179 = EDGE_CURVE ( 'NONE', #200, #86, #102, .T. ) ;
#180 = APPROVAL_ROLE ( '' ) ;
#181 = EDGE_CURVE ( 'NONE', #86, #136, #167, .T. ) ;
#182 = COORDINATED_UNIVERSAL_TIME_OFFSET ( 5, 0, .BEHIND. ) ;
#183 = ORIENTED_EDGE ( 'NONE', *, *, #171, .T. ) ;
#184 = VERTEX_POINT ( 'NONE', #35 ) ;
#185 = DIRECTION ( 'NONE',  ( 1.000000000000000000, -6.982962677686283277E-15, 0.000000000000000000 ) ) ;
#186 = EDGE_LOOP ( 'NONE', ( #20, #41, #110, #106 ) ) ;
#187 = AXIS2_PLACEMENT_3D ( 'NONE', #48, #100, #114 ) ;
#188 = CARTESIAN_POINT ( 'NONE',  ( -0.007799999999999990101, -5.182754899378765688E-15, -1.500000000000000222 ) ) ;
#189 = CALENDAR_DATE ( 2023, 21, 3 ) ;
#190 = DIRECTION ( 'NONE',  ( -2.445468806185136597E-29, 3.491481338843145583E-15, 1.000000000000000000 ) ) ;
#191 = PLANE ( 'NONE',  #18 ) ;
#192 = PERSON_AND_ORGANIZATION ( #198, #145 ) ;
#193 = CC_DESIGN_APPROVAL ( #164, ( #11 ) ) ;
#194 = DIRECTION ( 'NONE',  ( 1.000000000000000000, -6.982962677686283277E-15, 0.000000000000000000 ) ) ;
#195 = DIRECTION ( 'NONE',  ( 1.000000000000000000, -6.982962677686283277E-15, 0.000000000000000000 ) ) ;
#196 = APPLICATION_PROTOCOL_DEFINITION ( 'international standard', 'config_control_design', 1994, #64 ) ;
#197 = LOCAL_TIME ( 16, 51, 22.00000000000000000, #31 ) ;
#198 = PERSON ( 'UNSPECIFIED', 'UNSPECIFIED', 'UNSPECIFIED', ('UNSPECIFIED'), ('UNSPECIFIED'), ('UNSPECIFIED') ) ;
#199 = AXIS2_PLACEMENT_3D ( 'NONE', #78, #147, #195 ) ;
#200 = VERTEX_POINT ( 'NONE', #5 ) ;
#201 = ORIENTED_EDGE ( 'NONE', *, *, #179, .T. ) ;
#202 = CC_DESIGN_DATE_AND_TIME_ASSIGNMENT ( #89, #170, ( #74 ) ) ;
ENDSEC;
END-ISO-10303-21;
