ISO-10303-21;
HEADER;
FILE_DESCRIPTION (( 'STEP AP203' ),
    '1' );
FILE_NAME ('39163.STEP',
    '2023-03-21T21:00:34',
    ( '' ),
    ( '' ),
    'SwSTEP 2.0',
    'SolidWorks 2022',
    '' );
FILE_SCHEMA (( 'CONFIG_CONTROL_DESIGN' ));
ENDSEC;

DATA;
#1 = EDGE_LOOP ( 'NONE', ( #201, #240, #216, #57 ) ) ;
#2 = CARTESIAN_POINT ( 'NONE',  ( 4.890937612370273754E-29, -6.982962677686291954E-15, -2.000000000000000444 ) ) ;
#3 = ORIENTED_EDGE ( 'NONE', *, *, #62, .F. ) ;
#4 = CALENDAR_DATE ( 2023, 21, 3 ) ;
#5 = DIRECTION ( 'NONE',  ( -1.000000000000000000, 6.982962677686265922E-15, -4.876176775795935793E-29 ) ) ;
#6 = CLOSED_SHELL ( 'NONE', ( #171, #74, #15, #89, #230, #180, #29, #162 ) ) ;
#7 = PERSON_AND_ORGANIZATION ( #349, #197 ) ;
#8 = PLANE ( 'NONE',  #117 ) ;
#9 = MANIFOLD_SOLID_BREP ( 'Body-Move/Copy2[1]', #225 ) ;
#10 = SECURITY_CLASSIFICATION_LEVEL ( 'unclassified' ) ;
#11 = LINE ( 'NONE', #152, #48 ) ;
#12 = CYLINDRICAL_SURFACE ( 'NONE', #104, 0.2500000000000000000 ) ;
#13 = AXIS2_PLACEMENT_3D ( 'NONE', #250, #285, #129 ) ;
#14 = CARTESIAN_POINT ( 'NONE',  ( 4.888492143564088712E-29, -6.979471196347448158E-15, -1.999000000000000110 ) ) ;
#15 = ADVANCED_FACE ( 'NONE', ( #329 ), #260, .T. ) ;
#16 = EDGE_CURVE ( 'NONE', #109, #175, #53, .T. ) ;
#17 = DIRECTION ( 'NONE',  ( -2.445468806185136597E-29, 3.491481338843145583E-15, 1.000000000000000000 ) ) ;
#18 = MANIFOLD_SOLID_BREP ( 'Body-Move/Copy2[2]', #6 ) ;
#19 = ORIENTED_EDGE ( 'NONE', *, *, #47, .F. ) ;
#20 = DIRECTION ( 'NONE',  ( 1.000000000000000000, -6.982962677686266711E-15, 4.876176775795935793E-29 ) ) ;
#21 = CONICAL_SURFACE ( 'NONE', #269, 751.2258538476803551, 1.518436449235074592 ) ;
#22 = EDGE_LOOP ( 'NONE', ( #270, #264, #384 ) ) ;
#23 = CARTESIAN_POINT ( 'NONE',  ( 1.035826654773036361E-27, -1.478885940507303217E-13, -42.35697679533672755 ) ) ;
#24 = ORIENTED_EDGE ( 'NONE', *, *, #202, .T. ) ;
#25 = DIRECTION ( 'NONE',  ( 1.000000000000000000, -6.982962677686266711E-15, 0.000000000000000000 ) ) ;
#26 = APPROVAL_PERSON_ORGANIZATION ( #193, #163, #249 ) ;
#27 = VERTEX_POINT ( 'NONE', #66 ) ;
#28 = LINE ( 'NONE', #146, #176 ) ;
#29 = ADVANCED_FACE ( 'NONE', ( #247 ), #119, .F. ) ;
#30 = VERTEX_POINT ( 'NONE', #183 ) ;
#31 = CARTESIAN_POINT ( 'NONE',  ( 4.890937612370288047E-31, -6.982962677686311331E-17, -0.02000000000000005940 ) ) ;
#32 = AXIS2_PLACEMENT_3D ( 'NONE', #272, #321, #56 ) ;
#33 = DIRECTION ( 'NONE',  ( -2.445468806185136597E-29, 3.491481338843145583E-15, 1.000000000000000000 ) ) ;
#34 = AXIS2_PLACEMENT_3D ( 'NONE', #253, #165, #161 ) ;
#35 = LOCAL_TIME ( 17, 0, 34.00000000000000000, #342 ) ;
#36 = PERSON_AND_ORGANIZATION_ROLE ( 'creator' ) ;
#37 = SHAPE_DEFINITION_REPRESENTATION ( #147, #41 ) ;
#38 = DIRECTION ( 'NONE',  ( 1.000000000000000000, -6.982962677686262766E-15, 0.000000000000000000 ) ) ;
#39 = DIRECTION ( 'NONE',  ( 0.7071067811865462405, -7.319954787623251312E-15, -0.7071067811865486830 ) ) ;
#40 = CONICAL_SURFACE ( 'NONE', #215, 0.2499999999999997224, 0.7853981633974466137 ) ;
#41 = ADVANCED_BREP_SHAPE_REPRESENTATION ( '39163', ( #9, #18, #295 ), #241 ) ;
#42 = PERSON_AND_ORGANIZATION ( #349, #197 ) ;
#43 = CARTESIAN_POINT ( 'NONE',  ( 7.336406418555409790E-29, -1.047444401652943635E-14, -3.000000000000000444 ) ) ;
#44 = DIRECTION ( 'NONE',  ( 2.438088387897960049E-29, -3.491481338843145188E-15, -1.000000000000000000 ) ) ;
#45 = CARTESIAN_POINT ( 'NONE',  ( -0.2499999999999997224, 1.675911042644701605E-15, -0.02000000000000005940 ) ) ;
#46 = EDGE_CURVE ( 'NONE', #27, #388, #79, .T. ) ;
#47 = EDGE_CURVE ( 'NONE', #49, #300, #281, .T. ) ;
#48 = VECTOR ( 'NONE', #248, 39.37007874015748143 ) ;
#49 = VERTEX_POINT ( 'NONE', #207 ) ;
#50 = DIRECTION ( 'NONE',  ( 1.000000000000000000, -6.982962677686266711E-15, 4.876176775795935793E-29 ) ) ;
#51 = VERTEX_POINT ( 'NONE', #211 ) ;
#52 = APPLICATION_PROTOCOL_DEFINITION ( 'international standard', 'config_control_design', 1994, #369 ) ;
#53 = CIRCLE ( 'NONE', #205, 0.2499999999999997224 ) ;
#54 = ORIENTED_EDGE ( 'NONE', *, *, #354, .F. ) ;
#55 =( NAMED_UNIT ( * ) SI_UNIT ( $, .STERADIAN. ) SOLID_ANGLE_UNIT ( ) );
#56 = DIRECTION ( 'NONE',  ( 1.000000000000000000, -6.982962677686266711E-15, 0.000000000000000000 ) ) ;
#57 = ORIENTED_EDGE ( 'NONE', *, *, #16, .T. ) ;
#58 = DIRECTION ( 'NONE',  ( 1.000000000000000000, -6.982962677686266711E-15, 0.000000000000000000 ) ) ;
#59 = ORIENTED_EDGE ( 'NONE', *, *, #130, .T. ) ;
#60 = PERSON_AND_ORGANIZATION ( #349, #197 ) ;
#61 = FACE_OUTER_BOUND ( 'NONE', #293, .T. ) ;
#62 = EDGE_CURVE ( 'NONE', #94, #388, #168, .T. ) ;
#63 = CIRCLE ( 'NONE', #85, 0.2500000000000000000 ) ;
#64 = DIRECTION ( 'NONE',  ( -0.7071067811865462405, 2.468850131082243650E-15, -0.7071067811865486830 ) ) ;
#65 = EDGE_CURVE ( 'NONE', #261, #298, #214, .T. ) ;
#66 = CARTESIAN_POINT ( 'NONE',  ( -0.2500000000000000000, -6.952346507707613689E-15, -2.000000000000000444 ) ) ;
#67 = CONICAL_SURFACE ( 'NONE', #206, 0.2489999999999999991, 0.7853981633972775267 ) ;
#68 = DIRECTION ( 'NONE',  ( -2.445468806185136597E-29, 3.491481338843145583E-15, 1.000000000000000000 ) ) ;
#69 = EDGE_CURVE ( 'NONE', #244, #109, #339, .T. ) ;
#70 = DIRECTION ( 'NONE',  ( -2.438088387897960049E-29, 3.491481338843145188E-15, 1.000000000000000000 ) ) ;
#71 = DATE_AND_TIME ( #333, #86 ) ;
#72 = FACE_OUTER_BOUND ( 'NONE', #166, .T. ) ;
#73 = FACE_OUTER_BOUND ( 'NONE', #277, .T. ) ;
#74 = ADVANCED_FACE ( 'NONE', ( #61 ), #273, .T. ) ;
#75 = DIRECTION ( 'NONE',  ( 1.000000000000000000, -6.982962677686266711E-15, 0.000000000000000000 ) ) ;
#76 = DIRECTION ( 'NONE',  ( -0.7071067811864267805, 7.493145998869918709E-15, 0.7071067811866682540 ) ) ;
#77 = EDGE_CURVE ( 'NONE', #261, #175, #28, .T. ) ;
#78 = CARTESIAN_POINT ( 'NONE',  ( -0.2489999999999999991, -5.213711265643643286E-15, -2.000000000000000444 ) ) ;
#79 = CIRCLE ( 'NONE', #122, 0.2500000000000000000 ) ;
#80 = CC_DESIGN_APPROVAL ( #163, ( #148 ) ) ;
#81 = CARTESIAN_POINT ( 'NONE',  ( 0.000000000000000000, 0.000000000000000000, 0.000000000000000000 ) ) ;
#82 = ORIENTED_EDGE ( 'NONE', *, *, #100, .T. ) ;
#83 = DIRECTION ( 'NONE',  ( -2.445468806185136597E-29, 3.491481338843145583E-15, 1.000000000000000000 ) ) ;
#84 = DIRECTION ( 'NONE',  ( -2.445468806185136877E-29, 3.491481338843145188E-15, 1.000000000000000000 ) ) ;
#85 = AXIS2_PLACEMENT_3D ( 'NONE', #173, #259, #236 ) ;
#86 = LOCAL_TIME ( 17, 0, 34.00000000000000000, #221 ) ;
#87 = ORIENTED_EDGE ( 'NONE', *, *, #307, .F. ) ;
#88 = DIRECTION ( 'NONE',  ( -2.445468806185136597E-29, 3.491481338843145583E-15, 1.000000000000000000 ) ) ;
#89 = ADVANCED_FACE ( 'NONE', ( #368 ), #40, .T. ) ;
#90 = CARTESIAN_POINT ( 'NONE',  ( 0.2500000000000000000, -1.745740669421566678E-15, 1.219044193948983948E-29 ) ) ;
#91 = ORIENTED_EDGE ( 'NONE', *, *, #288, .T. ) ;
#92 = APPROVAL_PERSON_ORGANIZATION ( #304, #195, #95 ) ;
#93 = ADVANCED_FACE ( 'NONE', ( #157 ), #189, .T. ) ;
#94 = VERTEX_POINT ( 'NONE', #287 ) ;
#95 = APPROVAL_ROLE ( '' ) ;
#96 = VECTOR ( 'NONE', #76, 39.37007874015748143 ) ;
#97 = DIRECTION ( 'NONE',  ( 1.000000000000000000, -6.982962677686266711E-15, 0.000000000000000000 ) ) ;
#98 = FACE_OUTER_BOUND ( 'NONE', #199, .T. ) ;
#99 = ADVANCED_FACE ( 'NONE', ( #159 ), #310, .F. ) ;
#100 = EDGE_CURVE ( 'NONE', #139, #94, #263, .T. ) ;
#101 = DIRECTION ( 'NONE',  ( -1.000000000000000000, 6.982962677686266711E-15, 0.000000000000000000 ) ) ;
#102 = DATE_AND_TIME ( #372, #35 ) ;
#103 = CARTESIAN_POINT ( 'NONE',  ( 0.2499999999999997224, -1.784954126219744217E-15, -0.02000000000000005940 ) ) ;
#104 = AXIS2_PLACEMENT_3D ( 'NONE', #336, #280, #194 ) ;
#105 = CARTESIAN_POINT ( 'NONE',  ( -0.2499999999999998057, -8.728703347107872831E-15, -3.000000000000000444 ) ) ;
#106 = CARTESIAN_POINT ( 'NONE',  ( -0.2499999999999998612, 1.776356839400249479E-15, -1.229733772563725745E-29 ) ) ;
#107 = APPROVAL_PERSON_ORGANIZATION ( #188, #358, #279 ) ;
#108 = CC_DESIGN_APPROVAL ( #195, ( #344 ) ) ;
#109 = VERTEX_POINT ( 'NONE', #45 ) ;
#110 =( LENGTH_UNIT ( ) NAMED_UNIT ( * ) SI_UNIT ( $, .METRE. ) );
#111 = DIRECTION ( 'NONE',  ( 0.000000000000000000, 0.000000000000000000, 1.000000000000000000 ) ) ;
#112 = DIRECTION ( 'NONE',  ( -2.445468806185136597E-29, 3.491481338843145583E-15, 1.000000000000000000 ) ) ;
#113 = DIRECTION ( 'NONE',  ( -1.000000000000000000, 6.982962677686266711E-15, 0.000000000000000000 ) ) ;
#114 = AXIS2_PLACEMENT_3D ( 'NONE', #367, #334, #97 ) ;
#115 = ORIENTED_EDGE ( 'NONE', *, *, #307, .T. ) ;
#116 = EDGE_LOOP ( 'NONE', ( #54, #356, #361, #380 ) ) ;
#117 = AXIS2_PLACEMENT_3D ( 'NONE', #222, #44, #314 ) ;
#118 = ORIENTED_EDGE ( 'NONE', *, *, #210, .F. ) ;
#119 = PLANE ( 'NONE',  #275 ) ;
#120 = PERSON_AND_ORGANIZATION_ROLE ( 'classification_officer' ) ;
#121 = EDGE_CURVE ( 'NONE', #51, #175, #315, .T. ) ;
#122 = AXIS2_PLACEMENT_3D ( 'NONE', #2, #112, #351 ) ;
#123 = ORIENTED_EDGE ( 'NONE', *, *, #46, .F. ) ;
#124 = AXIS2_PLACEMENT_3D ( 'NONE', #371, #125, #101 ) ;
#125 = DIRECTION ( 'NONE',  ( 2.445468806185136597E-29, -3.491481338843145583E-15, -1.000000000000000000 ) ) ;
#126 = EDGE_CURVE ( 'NONE', #300, #298, #338, .T. ) ;
#127 = DIRECTION ( 'NONE',  ( 2.445468806185136597E-29, -3.491481338843145583E-15, -1.000000000000000000 ) ) ;
#128 = DATE_AND_TIME ( #186, #167 ) ;
#129 = DIRECTION ( 'NONE',  ( 1.000000000000000000, -6.982962677686266711E-15, 4.876176775795935793E-29 ) ) ;
#130 = EDGE_CURVE ( 'NONE', #30, #139, #256, .T. ) ;
#131 = COORDINATED_UNIVERSAL_TIME_OFFSET ( 5, 0, .BEHIND. ) ;
#132 = VECTOR ( 'NONE', #174, 39.37007874015748143 ) ;
#133 = CARTESIAN_POINT ( 'NONE',  ( -7.522051148468605235E-20, -1.042869882068520798E-14, -2.986898055179242117 ) ) ;
#134 = VECTOR ( 'NONE', #84, 39.37007874015748143 ) ;
#135 = CC_DESIGN_SECURITY_CLASSIFICATION ( #344, ( #148 ) ) ;
#136 = DIRECTION ( 'NONE',  ( -2.445468806185136597E-29, 3.491481338843145583E-15, 1.000000000000000000 ) ) ;
#137 = ORIENTED_EDGE ( 'NONE', *, *, #65, .T. ) ;
#138 = CARTESIAN_POINT ( 'NONE',  ( -0.2499999999999999722, -1.748293572161903489E-15, -1.999000000000000110 ) ) ;
#139 = VERTEX_POINT ( 'NONE', #105 ) ;
#140 = ORIENTED_EDGE ( 'NONE', *, *, #77, .T. ) ;
#141 = UNCERTAINTY_MEASURE_WITH_UNIT (LENGTH_MEASURE( 1.000000000000000082E-05 ), #348, 'distance_accuracy_value', 'NONE');
#142 = DIMENSIONAL_EXPONENTS ( 1.000000000000000000, 0.000000000000000000, 0.000000000000000000, 0.000000000000000000, 0.000000000000000000, 0.000000000000000000, 0.000000000000000000 ) ;
#143 = EDGE_LOOP ( 'NONE', ( #389, #382, #318, #3 ) ) ;
#144 = AXIS2_PLACEMENT_3D ( 'NONE', #294, #17, #262 ) ;
#145 = PERSON_AND_ORGANIZATION_ROLE ( 'design_owner' ) ;
#146 = CARTESIAN_POINT ( 'NONE',  ( 0.2499999999999998612, -1.745740669421565692E-15, 1.219044193948983248E-29 ) ) ;
#147 = PRODUCT_DEFINITION_SHAPE ( 'NONE', 'NONE',  #386 ) ;
#148 = PRODUCT_DEFINITION_FORMATION_WITH_SPECIFIED_SOURCE ( 'ANY', '', #274, .NOT_KNOWN. ) ;
#149 = CARTESIAN_POINT ( 'NONE',  ( 4.890937612370288047E-31, -6.982962677686311331E-17, -0.02000000000000005940 ) ) ;
#150 = COORDINATED_UNIVERSAL_TIME_OFFSET ( 5, 0, .BEHIND. ) ;
#151 = DIRECTION ( 'NONE',  ( 1.000000000000000000, -6.982962677686266711E-15, 4.876176775795935793E-29 ) ) ;
#152 = CARTESIAN_POINT ( 'NONE',  ( -0.2500000000000000000, 1.776356839400250465E-15, -1.229733772563726445E-29 ) ) ;
#153 = CIRCLE ( 'NONE', #317, 0.2299999999999997324 ) ;
#154 = DIRECTION ( 'NONE',  ( -2.445468806185136597E-29, 3.491481338843145583E-15, 1.000000000000000000 ) ) ;
#155 = CALENDAR_DATE ( 2023, 21, 3 ) ;
#156 = DIRECTION ( 'NONE',  ( -1.000000000000000000, 6.982962677686266711E-15, 0.000000000000000000 ) ) ;
#157 = FACE_OUTER_BOUND ( 'NONE', #143, .T. ) ;
#158 = ADVANCED_FACE ( 'NONE', ( #98 ), #12, .T. ) ;
#159 = FACE_OUTER_BOUND ( 'NONE', #22, .T. ) ;
#160 = CIRCLE ( 'NONE', #387, 0.2500000000000000000 ) ;
#161 = DIRECTION ( 'NONE',  ( 1.000000000000000000, -6.982962677686266711E-15, 0.000000000000000000 ) ) ;
#162 = ADVANCED_FACE ( 'NONE', ( #73 ), #229, .F. ) ;
#163 = APPROVAL ( #375, 'UNSPECIFIED' ) ;
#164 = ORIENTED_EDGE ( 'NONE', *, *, #217, .F. ) ;
#165 = DIRECTION ( 'NONE',  ( -2.445468806185136597E-29, 3.491481338843145583E-15, 1.000000000000000000 ) ) ;
#166 = EDGE_LOOP ( 'NONE', ( #323, #350, #24, #87 ) ) ;
#167 = LOCAL_TIME ( 17, 0, 34.00000000000000000, #131 ) ;
#168 = LINE ( 'NONE', #90, #132 ) ;
#169 = ORIENTED_EDGE ( 'NONE', *, *, #65, .F. ) ;
#170 = CARTESIAN_POINT ( 'NONE',  ( 7.522051163077337568E-20, -1.042869882068520798E-14, -2.986898055179242117 ) ) ;
#171 = ADVANCED_FACE ( 'NONE', ( #245 ), #67, .T. ) ;
#172 = ORIENTED_EDGE ( 'NONE', *, *, #354, .T. ) ;
#173 = CARTESIAN_POINT ( 'NONE',  ( 4.890937612370273754E-29, -6.982962677686291954E-15, -2.000000000000000444 ) ) ;
#174 = DIRECTION ( 'NONE',  ( -2.445468806185136877E-29, 3.491481338843145188E-15, 1.000000000000000000 ) ) ;
#175 = VERTEX_POINT ( 'NONE', #103 ) ;
#176 = VECTOR ( 'NONE', #239, 39.37007874015748143 ) ;
#177 = ORIENTED_EDGE ( 'NONE', *, *, #226, .F. ) ;
#178 = ORIENTED_EDGE ( 'NONE', *, *, #47, .T. ) ;
#180 = ADVANCED_FACE ( 'NONE', ( #72 ), #237, .T. ) ;
#179 = DIRECTION ( 'NONE',  ( -1.000000000000000000, 6.982962677686266711E-15, 0.000000000000000000 ) ) ;
#181 = VECTOR ( 'NONE', #64, 39.37007874015748854 ) ;
#182 = CIRCLE ( 'NONE', #303, 0.2499999999999997224 ) ;
#183 = CARTESIAN_POINT ( 'NONE',  ( 7.304418547398367593E-29, -1.042862360017364838E-14, -2.986898055179242117 ) ) ;
#184 = DATE_TIME_ROLE ( 'creation_date' ) ;
#185 = CC_DESIGN_PERSON_AND_ORGANIZATION_ASSIGNMENT ( #252, #120, ( #344 ) ) ;
#186 = CALENDAR_DATE ( 2023, 21, 3 ) ;
#187 = CARTESIAN_POINT ( 'NONE',  ( 0.2489999999999999991, -8.721720384430172617E-15, -2.000000000000000444 ) ) ;
#188 = PERSON_AND_ORGANIZATION ( #349, #197 ) ;
#189 = CYLINDRICAL_SURFACE ( 'NONE', #13, 0.2500000000000000000 ) ;
#190 = PERSON_AND_ORGANIZATION_ROLE ( 'creator' ) ;
#191 = AXIS2_PLACEMENT_3D ( 'NONE', #312, #192, #343 ) ;
#192 = DIRECTION ( 'NONE',  ( -2.445468806185136597E-29, 3.491481338843145583E-15, 1.000000000000000000 ) ) ;
#193 = PERSON_AND_ORGANIZATION ( #349, #197 ) ;
#194 = DIRECTION ( 'NONE',  ( 1.000000000000000000, -6.982962677686266711E-15, 4.876176775795935793E-29 ) ) ;
#195 = APPROVAL ( #366, 'UNSPECIFIED' ) ;
#196 = CARTESIAN_POINT ( 'NONE',  ( 4.890937612370288047E-31, -6.982962677686311331E-17, -0.02000000000000005940 ) ) ;
#197 = ORGANIZATION ( 'UNSPECIFIED', 'UNSPECIFIED', '' ) ;
#198 = ADVANCED_FACE ( 'NONE', ( #224 ), #8, .F. ) ;
#199 = EDGE_LOOP ( 'NONE', ( #164, #82, #325, #123 ) ) ;
#200 = DIRECTION ( 'NONE',  ( 0.9986295347545742773, -7.033825938271996334E-15, -0.05233595624293597981 ) ) ;
#201 = ORIENTED_EDGE ( 'NONE', *, *, #121, .F. ) ;
#202 = EDGE_CURVE ( 'NONE', #49, #261, #227, .T. ) ;
#203 = EDGE_LOOP ( 'NONE', ( #365, #59, #118 ) ) ;
#204 =( NAMED_UNIT ( * ) PLANE_ANGLE_UNIT ( ) SI_UNIT ( $, .RADIAN. ) );
#205 = AXIS2_PLACEMENT_3D ( 'NONE', #31, #33, #364 ) ;
#206 = AXIS2_PLACEMENT_3D ( 'NONE', #309, #154, #75 ) ;
#207 = CARTESIAN_POINT ( 'NONE',  ( 0.2489999999999999991, -8.721720384430172617E-15, -2.000000000000000444 ) ) ;
#208 = ORIENTED_EDGE ( 'NONE', *, *, #16, .F. ) ;
#209 = CARTESIAN_POINT ( 'NONE',  ( -0.2299999999999997324, 1.640996229256270744E-15, -1.135408596578604579E-29 ) ) ;
#210 = EDGE_CURVE ( 'NONE', #94, #139, #362, .T. ) ;
#211 = CARTESIAN_POINT ( 'NONE',  ( 0.2299999999999997324, -1.681434332853597236E-15, 1.149527484987431679E-29 ) ) ;
#212 = DESIGN_CONTEXT ( 'detailed design', #359, 'design' ) ;
#213 = CARTESIAN_POINT ( 'NONE',  ( 4.888492143564088712E-29, -6.979471196347448158E-15, -1.999000000000000110 ) ) ;
#214 = CIRCLE ( 'NONE', #353, 0.2500000000000000000 ) ;
#215 = AXIS2_PLACEMENT_3D ( 'NONE', #196, #127, #156 ) ;
#216 = ORIENTED_EDGE ( 'NONE', *, *, #69, .T. ) ;
#217 = EDGE_CURVE ( 'NONE', #139, #27, #11, .T. ) ;
#218 = PRODUCT_RELATED_PRODUCT_CATEGORY ( 'detail', '', ( #274 ) ) ;
#219 = VECTOR ( 'NONE', #341, 39.37007874015748143 ) ;
#220 = CARTESIAN_POINT ( 'NONE',  ( 4.890937612370274875E-29, -6.982962677686292743E-15, -2.000000000000000444 ) ) ;
#221 = COORDINATED_UNIVERSAL_TIME_OFFSET ( 5, 0, .BEHIND. ) ;
#222 = CARTESIAN_POINT ( 'NONE',  ( 1.745740669421615390E-15, 0.2499999999999930334, -2.000000000000000888 ) ) ;
#223 = DIRECTION ( 'NONE',  ( -0.9986295347545742773, 6.790662755453670044E-15, -0.05233595624293597981 ) ) ;
#224 = FACE_OUTER_BOUND ( 'NONE', #301, .T. ) ;
#225 = CLOSED_SHELL ( 'NONE', ( #93, #99, #243, #158, #198 ) ) ;
#226 = EDGE_CURVE ( 'NONE', #300, #49, #379, .T. ) ;
#227 = LINE ( 'NONE', #187, #219 ) ;
#228 = DATE_AND_TIME ( #155, #246 ) ;
#229 = PLANE ( 'NONE',  #374 ) ;
#230 = ADVANCED_FACE ( 'NONE', ( #292 ), #319, .T. ) ;
#231 = CARTESIAN_POINT ( 'NONE',  ( -0.2489999999999999991, -5.208412811295420884E-15, -2.000000000000000444 ) ) ;
#232 = ORIENTED_EDGE ( 'NONE', *, *, #77, .F. ) ;
#233 = ORIENTED_EDGE ( 'NONE', *, *, #257, .T. ) ;
#234 = DIRECTION ( 'NONE',  ( 1.000000000000000000, 0.000000000000000000, 0.000000000000000000 ) ) ;
#235 = EDGE_LOOP ( 'NONE', ( #178, #347, #169, #302 ) ) ;
#236 = DIRECTION ( 'NONE',  ( 1.000000000000000000, -6.982962677686266711E-15, 0.000000000000000000 ) ) ;
#237 = CONICAL_SURFACE ( 'NONE', #114, 0.2489999999999999991, 0.7853981633972775267 ) ;
#238 = ORIENTED_EDGE ( 'NONE', *, *, #288, .F. ) ;
#239 = DIRECTION ( 'NONE',  ( -2.445468806185136877E-29, 3.491481338843145188E-15, 1.000000000000000000 ) ) ;
#240 = ORIENTED_EDGE ( 'NONE', *, *, #313, .F. ) ;
#241 =( GEOMETRIC_REPRESENTATION_CONTEXT ( 3 ) GLOBAL_UNCERTAINTY_ASSIGNED_CONTEXT ( ( #141 ) ) GLOBAL_UNIT_ASSIGNED_CONTEXT ( ( #348, #204, #55 ) ) REPRESENTATION_CONTEXT ( 'NONE', 'WORKASPACE' ) );
#242 = CIRCLE ( 'NONE', #144, 0.2299999999999997324 ) ;
#243 = ADVANCED_FACE ( 'NONE', ( #357 ), #21, .F. ) ;
#244 = VERTEX_POINT ( 'NONE', #209 ) ;
#245 = FACE_OUTER_BOUND ( 'NONE', #235, .T. ) ;
#246 = LOCAL_TIME ( 17, 0, 34.00000000000000000, #278 ) ;
#247 = FACE_OUTER_BOUND ( 'NONE', #266, .T. ) ;
#248 = DIRECTION ( 'NONE',  ( -2.445468806185136877E-29, 3.491481338843145188E-15, 1.000000000000000000 ) ) ;
#249 = APPROVAL_ROLE ( '' ) ;
#250 = CARTESIAN_POINT ( 'NONE',  ( 0.000000000000000000, 0.000000000000000000, 0.000000000000000000 ) ) ;
#251 = CC_DESIGN_PERSON_AND_ORGANIZATION_ASSIGNMENT ( #7, #36, ( #386 ) ) ;
#252 = PERSON_AND_ORGANIZATION ( #349, #197 ) ;
#253 = CARTESIAN_POINT ( 'NONE',  ( 4.890937612370274875E-29, -6.982962677686292743E-15, -2.000000000000000444 ) ) ;
#254 = AXIS2_PLACEMENT_3D ( 'NONE', #149, #330, #179 ) ;
#255 = DATE_AND_TIME ( #4, #328 ) ;
#256 = LINE ( 'NONE', #133, #290 ) ;
#257 = EDGE_CURVE ( 'NONE', #388, #27, #63, .T. ) ;
#258 = DIRECTION ( 'NONE',  ( 1.000000000000000000, -6.982962677686266711E-15, 0.000000000000000000 ) ) ;
#259 = DIRECTION ( 'NONE',  ( -2.445468806185136597E-29, 3.491481338843145583E-15, 1.000000000000000000 ) ) ;
#260 = CONICAL_SURFACE ( 'NONE', #254, 0.2499999999999997224, 0.7853981633974466137 ) ;
#261 = VERTEX_POINT ( 'NONE', #326 ) ;
#262 = DIRECTION ( 'NONE',  ( 1.000000000000000000, -6.982962677686266711E-15, 4.876176775795935793E-29 ) ) ;
#263 = CIRCLE ( 'NONE', #191, 0.2500000000000000000 ) ;
#264 = ORIENTED_EDGE ( 'NONE', *, *, #352, .T. ) ;
#265 = LENGTH_MEASURE_WITH_UNIT ( LENGTH_MEASURE( 0.02539999999999999897 ), #110 );
#266 = EDGE_LOOP ( 'NONE', ( #19, #177 ) ) ;
#267 = DIRECTION ( 'NONE',  ( 2.445468806185136597E-29, -3.491481338843145583E-15, -1.000000000000000000 ) ) ;
#268 = ORIENTED_EDGE ( 'NONE', *, *, #313, .T. ) ;
#269 = AXIS2_PLACEMENT_3D ( 'NONE', #23, #267, #113 ) ;
#270 = ORIENTED_EDGE ( 'NONE', *, *, #130, .F. ) ;
#271 = EDGE_CURVE ( 'NONE', #175, #109, #182, .T. ) ;
#272 = CARTESIAN_POINT ( 'NONE',  ( 4.890937612370274875E-29, -6.982962677686292743E-15, -2.000000000000000444 ) ) ;
#273 = CYLINDRICAL_SURFACE ( 'NONE', #299, 0.2499999999999998612 ) ;
#274 = PRODUCT ( '39163', '39163', '', ( #324 ) ) ;
#275 = AXIS2_PLACEMENT_3D ( 'NONE', #220, #70, #332 ) ;
#276 = VECTOR ( 'NONE', #39, 39.37007874015748854 ) ;
#277 = EDGE_LOOP ( 'NONE', ( #268, #172 ) ) ;
#278 = COORDINATED_UNIVERSAL_TIME_OFFSET ( 5, 0, .BEHIND. ) ;
#279 = APPROVAL_ROLE ( '' ) ;
#280 = DIRECTION ( 'NONE',  ( -2.445468806185136597E-29, 3.491481338843145583E-15, 1.000000000000000000 ) ) ;
#281 = CIRCLE ( 'NONE', #32, 0.2489999999999999991 ) ;
#282 = APPROVAL_STATUS ( 'not_yet_approved' ) ;
#283 = DIRECTION ( 'NONE',  ( 2.438088387897960049E-29, -3.491481338843145188E-15, -1.000000000000000000 ) ) ;
#284 = PERSON_AND_ORGANIZATION_ROLE ( 'design_supplier' ) ;
#285 = DIRECTION ( 'NONE',  ( -2.445468806185136597E-29, 3.491481338843145583E-15, 1.000000000000000000 ) ) ;
#286 = CARTESIAN_POINT ( 'NONE',  ( -0.2499999999999997224, 1.675911042644701605E-15, -0.02000000000000005940 ) ) ;
#287 = CARTESIAN_POINT ( 'NONE',  ( 0.2499999999999998057, -1.218956851597231924E-14, -3.000000000000000444 ) ) ;
#288 = EDGE_CURVE ( 'NONE', #298, #109, #377, .T. ) ;
#289 = CC_DESIGN_PERSON_AND_ORGANIZATION_ASSIGNMENT ( #42, #284, ( #148 ) ) ;
#290 = VECTOR ( 'NONE', #223, 39.37007874015748854 ) ;
#291 = CARTESIAN_POINT ( 'NONE',  ( 1.606081415867839292E-15, 0.2299999999999997324, -8.030407079339226044E-16 ) ) ;
#292 = FACE_OUTER_BOUND ( 'NONE', #296, .T. ) ;
#293 = EDGE_LOOP ( 'NONE', ( #137, #91, #327, #232 ) ) ;
#294 = CARTESIAN_POINT ( 'NONE',  ( 0.000000000000000000, 0.000000000000000000, 0.000000000000000000 ) ) ;
#295 = AXIS2_PLACEMENT_3D ( 'NONE', #383, #111, #234 ) ;
#296 = EDGE_LOOP ( 'NONE', ( #238, #115, #140, #208 ) ) ;
#297 = DIRECTION ( 'NONE',  ( -2.445468806185136597E-29, 3.491481338843145583E-15, 1.000000000000000000 ) ) ;
#298 = VERTEX_POINT ( 'NONE', #138 ) ;
#299 = AXIS2_PLACEMENT_3D ( 'NONE', #363, #68, #151 ) ;
#300 = VERTEX_POINT ( 'NONE', #231 ) ;
#301 = EDGE_LOOP ( 'NONE', ( #233, #360 ) ) ;
#302 = ORIENTED_EDGE ( 'NONE', *, *, #202, .F. ) ;
#303 = AXIS2_PLACEMENT_3D ( 'NONE', #320, #345, #58 ) ;
#304 = PERSON_AND_ORGANIZATION ( #349, #197 ) ;
#305 = APPROVAL_DATE_TIME ( #71, #195 ) ;
#306 = DIRECTION ( 'NONE',  ( -2.445468806185136597E-29, 3.491481338843145583E-15, 1.000000000000000000 ) ) ;
#307 = EDGE_CURVE ( 'NONE', #298, #261, #160, .T. ) ;
#308 = CC_DESIGN_PERSON_AND_ORGANIZATION_ASSIGNMENT ( #337, #190, ( #148 ) ) ;
#309 = CARTESIAN_POINT ( 'NONE',  ( 4.890937612370274875E-29, -6.982962677686292743E-15, -2.000000000000000444 ) ) ;
#310 = CONICAL_SURFACE ( 'NONE', #124, 751.2258538476803551, 1.518436449235074592 ) ;
#311 = APPROVAL_DATE_TIME ( #128, #358 ) ;
#312 = CARTESIAN_POINT ( 'NONE',  ( 7.336406418555409790E-29, -1.047444401652943635E-14, -3.000000000000000444 ) ) ;
#313 = EDGE_CURVE ( 'NONE', #244, #51, #153, .T. ) ;
#314 = DIRECTION ( 'NONE',  ( -1.000000000000000000, 6.982962677686265922E-15, -4.876176775795935793E-29 ) ) ;
#315 = LINE ( 'NONE', #373, #276 ) ;
#316 = CC_DESIGN_DATE_AND_TIME_ASSIGNMENT ( #255, #184, ( #386 ) ) ;
#317 = AXIS2_PLACEMENT_3D ( 'NONE', #81, #83, #50 ) ;
#318 = ORIENTED_EDGE ( 'NONE', *, *, #257, .F. ) ;
#319 = CYLINDRICAL_SURFACE ( 'NONE', #322, 0.2499999999999998612 ) ;
#320 = CARTESIAN_POINT ( 'NONE',  ( 4.890937612370288047E-31, -6.982962677686311331E-17, -0.02000000000000005940 ) ) ;
#321 = DIRECTION ( 'NONE',  ( -2.445468806185136597E-29, 3.491481338843145583E-15, 1.000000000000000000 ) ) ;
#322 = AXIS2_PLACEMENT_3D ( 'NONE', #385, #88, #20 ) ;
#323 = ORIENTED_EDGE ( 'NONE', *, *, #126, .F. ) ;
#324 = MECHANICAL_CONTEXT ( 'NONE', #369, 'mechanical' ) ;
#325 = ORIENTED_EDGE ( 'NONE', *, *, #62, .T. ) ;
#326 = CARTESIAN_POINT ( 'NONE',  ( 0.2500000000000000000, -8.725211865769015625E-15, -1.999000000000000110 ) ) ;
#327 = ORIENTED_EDGE ( 'NONE', *, *, #271, .F. ) ;
#328 = LOCAL_TIME ( 17, 0, 34.00000000000000000, #150 ) ;
#329 = FACE_OUTER_BOUND ( 'NONE', #116, .T. ) ;
#330 = DIRECTION ( 'NONE',  ( 2.445468806185136597E-29, -3.491481338843145583E-15, -1.000000000000000000 ) ) ;
#331 = AXIS2_PLACEMENT_3D ( 'NONE', #43, #306, #38 ) ;
#332 = DIRECTION ( 'NONE',  ( 1.000000000000000000, -6.982962677686265922E-15, 4.876176775795935793E-29 ) ) ;
#333 = CALENDAR_DATE ( 2023, 21, 3 ) ;
#334 = DIRECTION ( 'NONE',  ( -2.445468806185136597E-29, 3.491481338843145583E-15, 1.000000000000000000 ) ) ;
#335 = APPLICATION_PROTOCOL_DEFINITION ( 'international standard', 'config_control_design', 1994, #359 ) ;
#336 = CARTESIAN_POINT ( 'NONE',  ( 0.000000000000000000, 0.000000000000000000, 0.000000000000000000 ) ) ;
#337 = PERSON_AND_ORGANIZATION ( #349, #197 ) ;
#338 = LINE ( 'NONE', #78, #96 ) ;
#339 = LINE ( 'NONE', #286, #181 ) ;
#340 = DATE_TIME_ROLE ( 'classification_date' ) ;
#341 = DIRECTION ( 'NONE',  ( 0.7071067811864267805, -2.468850131080992517E-15, 0.7071067811866682540 ) ) ;
#342 = COORDINATED_UNIVERSAL_TIME_OFFSET ( 5, 0, .BEHIND. ) ;
#343 = DIRECTION ( 'NONE',  ( 1.000000000000000000, -6.982962677686262766E-15, 0.000000000000000000 ) ) ;
#344 = SECURITY_CLASSIFICATION ( '', '', #10 ) ;
#345 = DIRECTION ( 'NONE',  ( -2.445468806185136597E-29, 3.491481338843145583E-15, 1.000000000000000000 ) ) ;
#346 = CC_DESIGN_DATE_AND_TIME_ASSIGNMENT ( #102, #340, ( #344 ) ) ;
#347 = ORIENTED_EDGE ( 'NONE', *, *, #126, .T. ) ;
#348 =( CONVERSION_BASED_UNIT ( 'INCH', #265 ) LENGTH_UNIT ( ) NAMED_UNIT ( #142 ) );
#349 = PERSON ( 'UNSPECIFIED', 'UNSPECIFIED', 'UNSPECIFIED', ('UNSPECIFIED'), ('UNSPECIFIED'), ('UNSPECIFIED') ) ;
#350 = ORIENTED_EDGE ( 'NONE', *, *, #226, .T. ) ;
#351 = DIRECTION ( 'NONE',  ( 1.000000000000000000, -6.982962677686266711E-15, 0.000000000000000000 ) ) ;
#352 = EDGE_CURVE ( 'NONE', #30, #94, #376, .T. ) ;
#353 = AXIS2_PLACEMENT_3D ( 'NONE', #213, #297, #25 ) ;
#354 = EDGE_CURVE ( 'NONE', #51, #244, #242, .T. ) ;
#355 = VECTOR ( 'NONE', #200, 39.37007874015748854 ) ;
#356 = ORIENTED_EDGE ( 'NONE', *, *, #121, .T. ) ;
#357 = FACE_OUTER_BOUND ( 'NONE', #203, .T. ) ;
#358 = APPROVAL ( #282, 'UNSPECIFIED' ) ;
#359 = APPLICATION_CONTEXT ( 'configuration controlled 3d designs of mechanical parts and assemblies' ) ;
#360 = ORIENTED_EDGE ( 'NONE', *, *, #46, .T. ) ;
#361 = ORIENTED_EDGE ( 'NONE', *, *, #271, .T. ) ;
#362 = CIRCLE ( 'NONE', #331, 0.2500000000000000000 ) ;
#363 = CARTESIAN_POINT ( 'NONE',  ( 0.000000000000000000, 0.000000000000000000, 0.000000000000000000 ) ) ;
#364 = DIRECTION ( 'NONE',  ( 1.000000000000000000, -6.982962677686266711E-15, 0.000000000000000000 ) ) ;
#365 = ORIENTED_EDGE ( 'NONE', *, *, #352, .F. ) ;
#366 = APPROVAL_STATUS ( 'not_yet_approved' ) ;
#367 = CARTESIAN_POINT ( 'NONE',  ( 4.890937612370274875E-29, -6.982962677686292743E-15, -2.000000000000000444 ) ) ;
#368 = FACE_OUTER_BOUND ( 'NONE', #1, .T. ) ;
#369 = APPLICATION_CONTEXT ( 'configuration controlled 3d designs of mechanical parts and assemblies' ) ;
#370 = APPROVAL_DATE_TIME ( #228, #163 ) ;
#371 = CARTESIAN_POINT ( 'NONE',  ( 1.035826654773036361E-27, -1.478885940507303217E-13, -42.35697679533672755 ) ) ;
#372 = CALENDAR_DATE ( 2023, 21, 3 ) ;
#373 = CARTESIAN_POINT ( 'NONE',  ( 0.2499999999999997224, -1.784954126219744217E-15, -0.02000000000000005940 ) ) ;
#374 = AXIS2_PLACEMENT_3D ( 'NONE', #291, #283, #5 ) ;
#375 = APPROVAL_STATUS ( 'not_yet_approved' ) ;
#376 = LINE ( 'NONE', #170, #355 ) ;
#377 = LINE ( 'NONE', #106, #134 ) ;
#378 = CC_DESIGN_PERSON_AND_ORGANIZATION_ASSIGNMENT ( #60, #145, ( #274 ) ) ;
#379 = CIRCLE ( 'NONE', #34, 0.2489999999999999991 ) ;
#380 = ORIENTED_EDGE ( 'NONE', *, *, #69, .F. ) ;
#381 = CARTESIAN_POINT ( 'NONE',  ( 0.2500000000000000000, -8.728703347107858632E-15, -2.000000000000000444 ) ) ;
#382 = ORIENTED_EDGE ( 'NONE', *, *, #217, .T. ) ;
#383 = CARTESIAN_POINT ( 'NONE',  ( 0.000000000000000000, 0.000000000000000000, 0.000000000000000000 ) ) ;
#384 = ORIENTED_EDGE ( 'NONE', *, *, #100, .F. ) ;
#385 = CARTESIAN_POINT ( 'NONE',  ( 0.000000000000000000, 0.000000000000000000, 0.000000000000000000 ) ) ;
#386 = PRODUCT_DEFINITION ( 'UNKNOWN', '', #148, #212 ) ;
#387 = AXIS2_PLACEMENT_3D ( 'NONE', #14, #136, #258 ) ;
#388 = VERTEX_POINT ( 'NONE', #381 ) ;
#389 = ORIENTED_EDGE ( 'NONE', *, *, #210, .T. ) ;
#390 = CC_DESIGN_APPROVAL ( #358, ( #386 ) ) ;
ENDSEC;
END-ISO-10303-21;
