ISO-10303-21;
HEADER;
FILE_DESCRIPTION (( 'STEP AP203' ),
    '1' );
FILE_NAME ('39572.STEP',
    '2024-02-21T19:51:20',
    ( '' ),
    ( '' ),
    'SwSTEP 2.0',
    'SolidWorks 2023',
    '' );
FILE_SCHEMA (( 'CONFIG_CONTROL_DESIGN' ));
ENDSEC;

DATA;
#1 = DIRECTION ( 'NONE',  ( 6.982962677686266711E-15, 1.000000000000000000, -2.913971193241878005E-15 ) ) ;
#2 = CARTESIAN_POINT ( 'NONE',  ( 8.864824422421120163E-29, -1.265661985330640259E-14, -3.624999999999999556 ) ) ;
#3 = AXIS2_PLACEMENT_3D ( 'NONE', #83, #207, #271 ) ;
#4 = CIRCLE ( 'NONE', #337, 0.3739999999999999991 ) ;
#5 = VERTEX_POINT ( 'NONE', #202 ) ;
#6 = EDGE_LOOP ( 'NONE', ( #97, #267, #90, #230 ) ) ;
#7 = ADVANCED_FACE ( 'NONE', ( #237 ), #331, .T. ) ;
#8 = APPROVAL_ROLE ( '' ) ;
#9 = DIRECTION ( 'NONE',  ( -2.445468806185136597E-29, 3.491481338843145583E-15, 1.000000000000000000 ) ) ;
#10 = ORIENTED_EDGE ( 'NONE', *, *, #136, .T. ) ;
#11 = PERSON_AND_ORGANIZATION ( #368, #332 ) ;
#12 = DIRECTION ( 'NONE',  ( -1.000000000000000000, 6.982962677686265922E-15, -4.876176775795935793E-29 ) ) ;
#13 = LINE ( 'NONE', #145, #245 ) ;
#14 = CC_DESIGN_PERSON_AND_ORGANIZATION_ASSIGNMENT ( #11, #351, ( #401 ) ) ;
#15 = ORIENTED_EDGE ( 'NONE', *, *, #187, .F. ) ;
#16 = PERSON_AND_ORGANIZATION ( #368, #332 ) ;
#17 = DIRECTION ( 'NONE',  ( -4.851104656540957964E-15, -0.7071067811865491270, -0.7071067811865459074 ) ) ;
#18 = EDGE_CURVE ( 'NONE', #240, #400, #166, .T. ) ;
#19 = AXIS2_PLACEMENT_3D ( 'NONE', #243, #340, #1 ) ;
#20 = ORIENTED_EDGE ( 'NONE', *, *, #372, .F. ) ;
#21 = CARTESIAN_POINT ( 'NONE',  ( 8.533704644507233916E-29, -1.313080222144645289E-14, -3.624999999999999556 ) ) ;
#22 = CC_DESIGN_PERSON_AND_ORGANIZATION_ASSIGNMENT ( #280, #369, ( #214 ) ) ;
#23 = DATE_TIME_ROLE ( 'classification_date' ) ;
#24 = PLANE ( 'NONE',  #238 ) ;
#25 = EDGE_LOOP ( 'NONE', ( #20, #183 ) ) ;
#26 = CARTESIAN_POINT ( 'NONE',  ( 8.533704644507233916E-29, -1.313080222144645289E-14, -3.624999999999999556 ) ) ;
#27 = PERSON_AND_ORGANIZATION_ROLE ( 'design_supplier' ) ;
#28 = VECTOR ( 'NONE', #381, 39.37007874015748143 ) ;
#29 = AXIS2_PLACEMENT_3D ( 'NONE', #26, #118, #374 ) ;
#30 = LINE ( 'NONE', #124, #154 ) ;
#31 = ORIENTED_EDGE ( 'NONE', *, *, #194, .F. ) ;
#32 = LINE ( 'NONE', #216, #28 ) ;
#33 =( NAMED_UNIT ( * ) PLANE_ANGLE_UNIT ( ) SI_UNIT ( $, .RADIAN. ) );
#34 = DIRECTION ( 'NONE',  ( -2.445579214634028911E-29, 3.491323227660273177E-15, 1.000000000000000000 ) ) ;
#35 = AXIS2_PLACEMENT_3D ( 'NONE', #276, #309, #396 ) ;
#36 = DIRECTION ( 'NONE',  ( 6.982962677686265922E-15, 1.000000000000000000, -3.494488891895536035E-15 ) ) ;
#37 = DIRECTION ( 'NONE',  ( -1.000000000000000000, 6.982962677686266711E-15, -4.883557194083113462E-29 ) ) ;
#38 = CARTESIAN_POINT ( 'NONE',  ( 6.113948036585074240E-29, -8.728308069150681957E-15, -2.500000000000000000 ) ) ;
#39 = ADVANCED_FACE ( 'NONE', ( #397 ), #197, .T. ) ;
#40 = CIRCLE ( 'NONE', #382, 0.3750000000000001110 ) ;
#41 = LOCAL_TIME ( 14, 51, 20.00000000000000000, #168 ) ;
#42 = DIRECTION ( 'NONE',  ( -6.982962677686266711E-15, -1.000000000000000000, 2.921762560068730595E-15 ) ) ;
#43 = ORIENTED_EDGE ( 'NONE', *, *, #175, .F. ) ;
#44 = APPLICATION_PROTOCOL_DEFINITION ( 'international standard', 'config_control_design', 1994, #365 ) ;
#45 = DIRECTION ( 'NONE',  ( 1.000000000000000000, -6.982962677686265922E-15, 0.000000000000000000 ) ) ;
#46 = VERTEX_POINT ( 'NONE', #158 ) ;
#47 = AXIS2_PLACEMENT_3D ( 'NONE', #258, #384, #385 ) ;
#48 = DATE_TIME_ROLE ( 'creation_date' ) ;
#49 = CARTESIAN_POINT ( 'NONE',  ( 8.864824422421120163E-29, -1.265661985330640259E-14, -3.624999999999999556 ) ) ;
#50 = CARTESIAN_POINT ( 'NONE',  ( 9.466789814748773816E-29, -1.441714559602862136E-14, -4.000000000000000000 ) ) ;
#51 = CARTESIAN_POINT ( 'NONE',  ( -2.611628041454602471E-15, -0.3740000000000087699, -2.499999999999999112 ) ) ;
#52 = ADVANCED_FACE ( 'NONE', ( #55 ), #405, .T. ) ;
#53 = VECTOR ( 'NONE', #34, 39.37007874015748143 ) ;
#54 = PRODUCT_DEFINITION_FORMATION_WITH_SPECIFIED_SOURCE ( 'ANY', '', #185, .NOT_KNOWN. ) ;
#55 = FACE_OUTER_BOUND ( 'NONE', #138, .T. ) ;
#56 = APPROVAL_ROLE ( '' ) ;
#57 = DESIGN_CONTEXT ( 'detailed design', #365, 'design' ) ;
#58 = CARTESIAN_POINT ( 'NONE',  ( 6.111502457370440261E-29, -8.724816745923021924E-15, -2.499000000000000110 ) ) ;
#59 = ORIENTED_EDGE ( 'NONE', *, *, #286, .F. ) ;
#60 = EDGE_CURVE ( 'NONE', #241, #308, #86, .T. ) ;
#61 = CIRCLE ( 'NONE', #318, 0.3750000000000000555 ) ;
#62 = LOCAL_TIME ( 14, 51, 20.00000000000000000, #268 ) ;
#63 = ADVANCED_FACE ( 'NONE', ( #367 ), #338, .T. ) ;
#64 = EDGE_LOOP ( 'NONE', ( #226, #188, #71, #115 ) ) ;
#65 = CARTESIAN_POINT ( 'NONE',  ( 6.111502457370440261E-29, -8.724816745923021924E-15, -2.499000000000000110 ) ) ;
#66 = VECTOR ( 'NONE', #253, 39.37007874015748143 ) ;
#67 = CARTESIAN_POINT ( 'NONE',  ( -2.618611004132290852E-15, -0.3750000000000090483, -2.498999999999999222 ) ) ;
#68 = LENGTH_MEASURE_WITH_UNIT ( LENGTH_MEASURE( 0.02539999999999999897 ), #93 );
#69 = DIRECTION ( 'NONE',  ( -6.982962677686265922E-15, -1.000000000000000000, 3.491323227660273177E-15 ) ) ;
#70 = FACE_OUTER_BOUND ( 'NONE', #120, .T. ) ;
#71 = ORIENTED_EDGE ( 'NONE', *, *, #123, .T. ) ;
#72 = AXIS2_PLACEMENT_3D ( 'NONE', #49, #333, #45 ) ;
#73 = PERSON_AND_ORGANIZATION_ROLE ( 'design_owner' ) ;
#74 = ORIENTED_EDGE ( 'NONE', *, *, #321, .F. ) ;
#75 = LINE ( 'NONE', #334, #311 ) ;
#76 = ORIENTED_EDGE ( 'NONE', *, *, #108, .T. ) ;
#77 = ADVANCED_FACE ( 'NONE', ( #89 ), #320, .T. ) ;
#78 = CALENDAR_DATE ( 2024, 21, 2 ) ;
#79 = LINE ( 'NONE', #231, #127 ) ;
#80 = DIRECTION ( 'NONE',  ( -2.445579214634029192E-29, 3.491323227660272783E-15, 1.000000000000000000 ) ) ;
#81 = CIRCLE ( 'NONE', #35, 0.3549999999999997602 ) ;
#82 = FACE_OUTER_BOUND ( 'NONE', #291, .T. ) ;
#83 = CARTESIAN_POINT ( 'NONE',  ( 6.113672015462842613E-29, -8.728703347107864943E-15, -2.500000000000000000 ) ) ;
#84 = EDGE_CURVE ( 'NONE', #252, #241, #30, .T. ) ;
#85 = EDGE_LOOP ( 'NONE', ( #277, #375 ) ) ;
#86 = CIRCLE ( 'NONE', #387, 0.3750000000000000555 ) ;
#87 = DATE_AND_TIME ( #209, #292 ) ;
#88 = CIRCLE ( 'NONE', #192, 0.3750000000000003886 ) ;
#89 = FACE_OUTER_BOUND ( 'NONE', #157, .T. ) ;
#90 = ORIENTED_EDGE ( 'NONE', *, *, #377, .T. ) ;
#91 = FACE_OUTER_BOUND ( 'NONE', #85, .T. ) ;
#92 = ORIENTED_EDGE ( 'NONE', *, *, #108, .F. ) ;
#93 =( LENGTH_UNIT ( ) NAMED_UNIT ( * ) SI_UNIT ( $, .METRE. ) );
#94 = AXIS2_PLACEMENT_3D ( 'NONE', #215, #178, #313 ) ;
#95 = EDGE_CURVE ( 'NONE', #46, #400, #32, .T. ) ;
#96 = DIRECTION ( 'NONE',  ( -6.982962677686266711E-15, -1.000000000000000000, 2.913971193241878794E-15 ) ) ;
#97 = ORIENTED_EDGE ( 'NONE', *, *, #279, .F. ) ;
#98 = CC_DESIGN_PERSON_AND_ORGANIZATION_ASSIGNMENT ( #16, #27, ( #54 ) ) ;
#99 = APPLICATION_PROTOCOL_DEFINITION ( 'international standard', 'config_control_design', 1994, #310 ) ;
#100 = CARTESIAN_POINT ( 'NONE',  ( 0.3750000000000001110, -1.331127260433948773E-14, -3.624999999999999556 ) ) ;
#101 = CIRCLE ( 'NONE', #278, 0.3750000000000002776 ) ;
#102 = CARTESIAN_POINT ( 'NONE',  ( 8.533704644507233916E-29, -1.313080222144645289E-14, -3.624999999999999556 ) ) ;
#103 = DIRECTION ( 'NONE',  ( 2.445579214634029192E-29, -3.491323227660272783E-15, -1.000000000000000000 ) ) ;
#104 = EDGE_CURVE ( 'NONE', #252, #229, #317, .T. ) ;
#105 = PERSON_AND_ORGANIZATION ( #368, #332 ) ;
#106 = ORIENTED_EDGE ( 'NONE', *, *, #159, .F. ) ;
#107 = EDGE_LOOP ( 'NONE', ( #224, #210, #15, #378 ) ) ;
#108 = EDGE_CURVE ( 'NONE', #308, #241, #362, .T. ) ;
#109 = AXIS2_PLACEMENT_3D ( 'NONE', #249, #342, #182 ) ;
#110 = AXIS2_PLACEMENT_3D ( 'NONE', #206, #307, #273 ) ;
#111 = PERSON_AND_ORGANIZATION ( #368, #332 ) ;
#112 = CARTESIAN_POINT ( 'NONE',  ( -2.504081769186607821E-15, -0.3549999999999997602, 1.465594778324797804E-15 ) ) ;
#113 = MANIFOLD_SOLID_BREP ( 'Body-Move/Copy2[1]', #393 ) ;
#114 = ADVANCED_FACE ( 'NONE', ( #91 ), #24, .F. ) ;
#115 = ORIENTED_EDGE ( 'NONE', *, *, #104, .F. ) ;
#116 = VERTEX_POINT ( 'NONE', #51 ) ;
#117 = DIRECTION ( 'NONE',  ( -6.982962677686266711E-15, -1.000000000000000000, 3.491323227660272783E-15 ) ) ;
#118 = DIRECTION ( 'NONE',  ( 1.000000000000000000, -6.982962677686265922E-15, 4.883557194083112340E-29 ) ) ;
#119 = CC_DESIGN_PERSON_AND_ORGANIZATION_ASSIGNMENT ( #111, #398, ( #54 ) ) ;
#120 = EDGE_LOOP ( 'NONE', ( #146, #298, #198, #300 ) ) ;
#121 = DIRECTION ( 'NONE',  ( -4.937700262165728178E-15, -0.7071067811867141062, 0.7071067811863809283 ) ) ;
#122 = ORIENTED_EDGE ( 'NONE', *, *, #84, .F. ) ;
#123 = EDGE_CURVE ( 'NONE', #116, #229, #315, .T. ) ;
#124 = CARTESIAN_POINT ( 'NONE',  ( 2.664535259100376486E-15, 0.3750000000000001665, -1.309246210372602885E-15 ) ) ;
#125 = ORIENTED_EDGE ( 'NONE', *, *, #126, .T. ) ;
#126 = EDGE_CURVE ( 'NONE', #400, #240, #61, .T. ) ;
#127 = VECTOR ( 'NONE', #142, 39.37007874015748143 ) ;
#128 = DIRECTION ( 'NONE',  ( 1.000000000000000000, -6.982962677686265922E-15, 0.000000000000000000 ) ) ;
#129 = APPROVAL_PERSON_ORGANIZATION ( #285, #349, #56 ) ;
#130 = DIRECTION ( 'NONE',  ( -6.982962677686266711E-15, -1.000000000000000000, 3.491323227660273177E-15 ) ) ;
#131 = PRODUCT_DEFINITION_SHAPE ( 'NONE', 'NONE',  #401 ) ;
#132 = ORIENTED_EDGE ( 'NONE', *, *, #279, .T. ) ;
#133 = DIRECTION ( 'NONE',  ( -2.445579214634028631E-29, 3.491323227660273177E-15, 1.000000000000000000 ) ) ;
#134 = CARTESIAN_POINT ( 'NONE',  ( -0.3750000000000000555, -8.028126341106755702E-15, -2.500000000000000000 ) ) ;
#135 = CARTESIAN_POINT ( 'NONE',  ( -2.618611004132351200E-15, -0.3750000000000001665, 1.309246210372602885E-15 ) ) ;
#136 = EDGE_CURVE ( 'NONE', #295, #250, #88, .T. ) ;
#137 = DATE_AND_TIME ( #78, #41 ) ;
#138 = EDGE_LOOP ( 'NONE', ( #391, #404, #274, #59, #412 ) ) ;
#139 = LINE ( 'NONE', #163, #66 ) ;
#140 = APPROVAL_DATE_TIME ( #359, #323 ) ;
#141 = CIRCLE ( 'NONE', #261, 0.3549999999999997602 ) ;
#142 = DIRECTION ( 'NONE',  ( -2.445468806185136877E-29, 3.491481338843145188E-15, 1.000000000000000000 ) ) ;
#143 = DIRECTION ( 'NONE',  ( 1.000000000000000000, -6.982962677686265922E-15, 4.876176775795935793E-29 ) ) ;
#144 = CALENDAR_DATE ( 2024, 21, 2 ) ;
#145 = CARTESIAN_POINT ( 'NONE',  ( 2.618611004132350411E-15, 0.3749999999999999445, -0.02000000000000139513 ) ) ;
#146 = ORIENTED_EDGE ( 'NONE', *, *, #136, .F. ) ;
#147 = EDGE_CURVE ( 'NONE', #295, #287, #325, .T. ) ;
#148 = DIRECTION ( 'NONE',  ( -6.982962677686266711E-15, -1.000000000000000000, 2.921762560068730595E-15 ) ) ;
#149 = CONICAL_SURFACE ( 'NONE', #383, 0.3739999999999999991, 0.7853981633976873100 ) ;
#150 = DIRECTION ( 'NONE',  ( -1.000000000000000000, 7.105427357601001070E-15, -4.926315508542082329E-29 ) ) ;
#151 = CARTESIAN_POINT ( 'NONE',  ( 4.891158429268078912E-31, -6.982646455320575000E-17, -0.02000000000000008715 ) ) ;
#152 = COORDINATED_UNIVERSAL_TIME_OFFSET ( 5, 0, .BEHIND. ) ;
#153 = SPHERICAL_SURFACE ( 'NONE', #162, 0.3750000000000003886 ) ;
#154 = VECTOR ( 'NONE', #406, 39.37007874015748143 ) ;
#155 = APPROVAL_PERSON_ORGANIZATION ( #105, #323, #8 ) ;
#156 = DIRECTION ( 'NONE',  ( -2.445468806185136597E-29, 3.491481338843145583E-15, 1.000000000000000000 ) ) ;
#157 = EDGE_LOOP ( 'NONE', ( #265, #10, #106, #74 ) ) ;
#158 = CARTESIAN_POINT ( 'NONE',  ( -0.3750000000000001110, -8.028126341106758858E-15, -3.624999999999999556 ) ) ;
#159 = EDGE_CURVE ( 'NONE', #46, #250, #228, .T. ) ;
#160 = DIRECTION ( 'NONE',  ( -2.445579214634029192E-29, 3.491323227660272783E-15, 1.000000000000000000 ) ) ;
#161 = EDGE_LOOP ( 'NONE', ( #122, #191, #247, #255 ) ) ;
#162 = AXIS2_PLACEMENT_3D ( 'NONE', #102, #37, #164 ) ;
#163 = CARTESIAN_POINT ( 'NONE',  ( 2.657429831742835431E-15, 0.3739999999999912839, -2.500000000000001332 ) ) ;
#164 = DIRECTION ( 'NONE',  ( 6.982962677686266711E-15, 1.000000000000000000, -2.913971193241878005E-15 ) ) ;
#165 = DIRECTION ( 'NONE',  ( 2.445579214634029192E-29, -3.491323227660272783E-15, -1.000000000000000000 ) ) ;
#166 = CIRCLE ( 'NONE', #3, 0.3750000000000000555 ) ;
#167 = DIRECTION ( 'NONE',  ( -6.982962677686266711E-15, -1.000000000000000000, 2.921762560068730595E-15 ) ) ;
#168 = COORDINATED_UNIVERSAL_TIME_OFFSET ( 5, 0, .BEHIND. ) ;
#169 = APPROVAL ( #170, 'UNSPECIFIED' ) ;
#170 = APPROVAL_STATUS ( 'not_yet_approved' ) ;
#171 = AXIS2_PLACEMENT_3D ( 'NONE', #361, #80, #204 ) ;
#172 = DIRECTION ( 'NONE',  ( -2.445579214634029192E-29, 3.491323227660272783E-15, 1.000000000000000000 ) ) ;
#173 = ADVANCED_FACE ( 'NONE', ( #322 ), #294, .F. ) ;
#174 = FACE_OUTER_BOUND ( 'NONE', #336, .T. ) ;
#175 = EDGE_CURVE ( 'NONE', #319, #5, #141, .T. ) ;
#176 = DIRECTION ( 'NONE',  ( -2.445468806185136597E-29, 3.491481338843145583E-15, 1.000000000000000000 ) ) ;
#177 = CALENDAR_DATE ( 2024, 21, 2 ) ;
#178 = DIRECTION ( 'NONE',  ( -2.445579214634029192E-29, 3.491323227660272783E-15, 1.000000000000000000 ) ) ;
#179 = ADVANCED_FACE ( 'NONE', ( #196 ), #354, .T. ) ;
#180 = DATE_AND_TIME ( #177, #239 ) ;
#181 = CARTESIAN_POINT ( 'NONE',  ( 2.478951750578623026E-15, 0.3549999999999997602, -1.126332229566694970E-15 ) ) ;
#182 = DIRECTION ( 'NONE',  ( 1.000000000000000000, -6.982962677686265922E-15, 4.876176775795935793E-29 ) ) ;
#183 = ORIENTED_EDGE ( 'NONE', *, *, #233, .F. ) ;
#184 = AXIS2_PLACEMENT_3D ( 'NONE', #190, #133, #69 ) ;
#185 = PRODUCT ( '39572', '39572', '', ( #193 ) ) ;
#186 = CARTESIAN_POINT ( 'NONE',  ( -2.611628041454602471E-15, -0.3740000000000087699, -2.499999999999999112 ) ) ;
#187 = EDGE_CURVE ( 'NONE', #229, #252, #101, .T. ) ;
#188 = ORIENTED_EDGE ( 'NONE', *, *, #233, .T. ) ;
#189 =( CONVERSION_BASED_UNIT ( 'INCH', #68 ) LENGTH_UNIT ( ) NAMED_UNIT ( #390 ) );
#190 = CARTESIAN_POINT ( 'NONE',  ( 6.113948036585074240E-29, -8.728308069150681957E-15, -2.500000000000000000 ) ) ;
#191 = ORIENTED_EDGE ( 'NONE', *, *, #104, .T. ) ;
#192 = AXIS2_PLACEMENT_3D ( 'NONE', #21, #150, #282 ) ;
#193 = MECHANICAL_CONTEXT ( 'NONE', #310, 'mechanical' ) ;
#194 = EDGE_CURVE ( 'NONE', #229, #308, #324, .T. ) ;
#195 = DIRECTION ( 'NONE',  ( 6.982962677686265922E-15, 1.000000000000000000, -3.494488891895536035E-15 ) ) ;
#196 = FACE_OUTER_BOUND ( 'NONE', #6, .T. ) ;
#197 = CONICAL_SURFACE ( 'NONE', #171, 0.3739999999999999991, 0.7853981633976873100 ) ;
#198 = ORIENTED_EDGE ( 'NONE', *, *, #392, .F. ) ;
#199 = AXIS2_PLACEMENT_3D ( 'NONE', #301, #270, #12 ) ;
#200 = ADVANCED_FACE ( 'NONE', ( #262 ), #222, .T. ) ;
#201 = EDGE_LOOP ( 'NONE', ( #43, #132, #76, #232 ) ) ;
#202 = CARTESIAN_POINT ( 'NONE',  ( 2.548781377355486718E-15, 0.3549999999999997602, -1.013244713313994223E-15 ) ) ;
#203 = CARTESIAN_POINT ( 'NONE',  ( 2.618611004132350411E-15, 0.3749999999999999445, -0.02000000000000139513 ) ) ;
#204 = DIRECTION ( 'NONE',  ( -6.982962677686266711E-15, -1.000000000000000000, 2.921762560068730595E-15 ) ) ;
#205 = AXIS2_PLACEMENT_3D ( 'NONE', #341, #156, #220 ) ;
#206 = CARTESIAN_POINT ( 'NONE',  ( 0.000000000000000000, 0.000000000000000000, 0.000000000000000000 ) ) ;
#207 = DIRECTION ( 'NONE',  ( -2.445468806185136597E-29, 3.491481338843145583E-15, 1.000000000000000000 ) ) ;
#208 = VERTEX_POINT ( 'NONE', #386 ) ;
#209 = CALENDAR_DATE ( 2024, 21, 2 ) ;
#210 = ORIENTED_EDGE ( 'NONE', *, *, #388, .T. ) ;
#211 = AXIS2_PLACEMENT_3D ( 'NONE', #408, #288, #117 ) ;
#212 = PRODUCT_RELATED_PRODUCT_CATEGORY ( 'detail', '', ( #185 ) ) ;
#213 = VECTOR ( 'NONE', #121, 39.37007874015748143 ) ;
#214 = SECURITY_CLASSIFICATION ( '', '', #218 ) ;
#215 = CARTESIAN_POINT ( 'NONE',  ( 4.891158429268078912E-31, -6.982646455320575000E-17, -0.02000000000000008715 ) ) ;
#216 = CARTESIAN_POINT ( 'NONE',  ( -0.3750000000000001110, 2.664535259100376486E-15, -1.844600658845590159E-29 ) ) ;
#217 = ORIENTED_EDGE ( 'NONE', *, *, #18, .T. ) ;
#218 = SECURITY_CLASSIFICATION_LEVEL ( 'unclassified' ) ;
#219 = CC_DESIGN_PERSON_AND_ORGANIZATION_ASSIGNMENT ( #234, #73, ( #185 ) ) ;
#220 = DIRECTION ( 'NONE',  ( 1.000000000000000000, -6.982962677686265922E-15, 0.000000000000000000 ) ) ;
#221 = VERTEX_POINT ( 'NONE', #100 ) ;
#222 = CONICAL_SURFACE ( 'NONE', #343, 0.3750000000000000555, 0.7853981633974471688 ) ;
#223 = CC_DESIGN_APPROVAL ( #349, ( #214 ) ) ;
#224 = ORIENTED_EDGE ( 'NONE', *, *, #372, .T. ) ;
#225 = APPROVAL_STATUS ( 'not_yet_approved' ) ;
#226 = ORIENTED_EDGE ( 'NONE', *, *, #388, .F. ) ;
#227 = CYLINDRICAL_SURFACE ( 'NONE', #110, 0.3750000000000001665 ) ;
#228 = CIRCLE ( 'NONE', #205, 0.3750000000000001110 ) ;
#229 = VERTEX_POINT ( 'NONE', #67 ) ;
#230 = ORIENTED_EDGE ( 'NONE', *, *, #60, .T. ) ;
#231 = CARTESIAN_POINT ( 'NONE',  ( 0.3750000000000001110, -2.618611004132350411E-15, 1.828566290923476483E-29 ) ) ;
#232 = ORIENTED_EDGE ( 'NONE', *, *, #377, .F. ) ;
#233 = EDGE_CURVE ( 'NONE', #208, #116, #370, .T. ) ;
#234 = PERSON_AND_ORGANIZATION ( #368, #332 ) ;
#235 = CARTESIAN_POINT ( 'NONE',  ( 2.664535259100408040E-15, 0.3749999999999915623, -2.499000000000001442 ) ) ;
#236 = EDGE_LOOP ( 'NONE', ( #358, #373, #356, #345, #353 ) ) ;
#237 = FACE_OUTER_BOUND ( 'NONE', #236, .T. ) ;
#238 = AXIS2_PLACEMENT_3D ( 'NONE', #181, #411, #316 ) ;
#239 = LOCAL_TIME ( 14, 51, 20.00000000000000000, #152 ) ;
#240 = VERTEX_POINT ( 'NONE', #403 ) ;
#241 = VERTEX_POINT ( 'NONE', #203 ) ;
#242 = CC_DESIGN_DATE_AND_TIME_ASSIGNMENT ( #137, #48, ( #401 ) ) ;
#243 = CARTESIAN_POINT ( 'NONE',  ( 8.533704644507233916E-29, -1.313080222144645289E-14, -3.624999999999999556 ) ) ;
#244 = DIRECTION ( 'NONE',  ( -2.445579214634029192E-29, 3.491323227660272783E-15, 1.000000000000000000 ) ) ;
#245 = VECTOR ( 'NONE', #399, 39.37007874015748143 ) ;
#246 = CC_DESIGN_APPROVAL ( #169, ( #54 ) ) ;
#247 = ORIENTED_EDGE ( 'NONE', *, *, #194, .T. ) ;
#248 = MANIFOLD_SOLID_BREP ( 'Body-Move/Copy2[2]', #289 ) ;
#249 = CARTESIAN_POINT ( 'NONE',  ( 0.000000000000000000, 0.000000000000000000, 0.000000000000000000 ) ) ;
#250 = VERTEX_POINT ( 'NONE', #395 ) ;
#251 = CARTESIAN_POINT ( 'NONE',  ( 6.113672015462842613E-29, -8.728703347107864943E-15, -2.500000000000000000 ) ) ;
#252 = VERTEX_POINT ( 'NONE', #235 ) ;
#253 = DIRECTION ( 'NONE',  ( 5.024295867789263036E-15, 0.7071067811867189912, 0.7071067811863760433 ) ) ;
#254 = AXIS2_PLACEMENT_3D ( 'NONE', #38, #350, #167 ) ;
#255 = ORIENTED_EDGE ( 'NONE', *, *, #60, .F. ) ;
#256 =( NAMED_UNIT ( * ) SI_UNIT ( $, .STERADIAN. ) SOLID_ANGLE_UNIT ( ) );
#257 = CARTESIAN_POINT ( 'NONE',  ( 4.891158429268078912E-31, -6.982646455320575000E-17, -0.02000000000000008715 ) ) ;
#258 = CARTESIAN_POINT ( 'NONE',  ( 0.000000000000000000, 0.000000000000000000, 0.000000000000000000 ) ) ;
#259 = CARTESIAN_POINT ( 'NONE',  ( 4.891158429268078912E-31, -6.982646455320575000E-17, -0.02000000000000008715 ) ) ;
#260 = ADVANCED_BREP_SHAPE_REPRESENTATION ( '39572', ( #113, #248, #47 ), #407 ) ;
#261 = AXIS2_PLACEMENT_3D ( 'NONE', #346, #160, #130 ) ;
#262 = FACE_OUTER_BOUND ( 'NONE', #201, .T. ) ;
#263 = EDGE_CURVE ( 'NONE', #5, #319, #81, .T. ) ;
#264 = DIRECTION ( 'NONE',  ( -6.982962677686266711E-15, -1.000000000000000000, 2.913971193241878794E-15 ) ) ;
#265 = ORIENTED_EDGE ( 'NONE', *, *, #147, .F. ) ;
#266 = PERSON_AND_ORGANIZATION ( #368, #332 ) ;
#267 = ORIENTED_EDGE ( 'NONE', *, *, #263, .F. ) ;
#268 = COORDINATED_UNIVERSAL_TIME_OFFSET ( 5, 0, .BEHIND. ) ;
#269 = CIRCLE ( 'NONE', #304, 0.3750000000000001110 ) ;
#270 = DIRECTION ( 'NONE',  ( 2.438088387897960049E-29, -3.491481338843145188E-15, -1.000000000000000000 ) ) ;
#271 = DIRECTION ( 'NONE',  ( 1.000000000000000000, -6.982962677686264344E-15, 0.000000000000000000 ) ) ;
#272 = DATE_AND_TIME ( #144, #62 ) ;
#273 = DIRECTION ( 'NONE',  ( -6.982962677686266711E-15, -1.000000000000000000, 3.491323227660272783E-15 ) ) ;
#274 = ORIENTED_EDGE ( 'NONE', *, *, #18, .F. ) ;
#275 = APPROVAL_DATE_TIME ( #180, #349 ) ;
#276 = CARTESIAN_POINT ( 'NONE',  ( -5.531289583643866849E-45, 7.896501445029265655E-31, 2.261750325054018396E-16 ) ) ;
#277 = ORIENTED_EDGE ( 'NONE', *, *, #263, .T. ) ;
#278 = AXIS2_PLACEMENT_3D ( 'NONE', #65, #296, #264 ) ;
#279 = EDGE_CURVE ( 'NONE', #319, #308, #75, .T. ) ;
#280 = PERSON_AND_ORGANIZATION ( #368, #332 ) ;
#281 = DIRECTION ( 'NONE',  ( -2.445579214634029192E-29, 3.491323227660272783E-15, 1.000000000000000000 ) ) ;
#282 = DIRECTION ( 'NONE',  ( -7.105427357600999492E-15, -1.000000000000000000, 0.000000000000000000 ) ) ;
#283 = ORIENTED_EDGE ( 'NONE', *, *, #187, .T. ) ;
#284 = ORIENTED_EDGE ( 'NONE', *, *, #84, .T. ) ;
#285 = PERSON_AND_ORGANIZATION ( #368, #332 ) ;
#286 = EDGE_CURVE ( 'NONE', #221, #240, #79, .T. ) ;
#287 = VERTEX_POINT ( 'NONE', #305 ) ;
#288 = DIRECTION ( 'NONE',  ( -2.445579214634029192E-29, 3.491323227660272783E-15, 1.000000000000000000 ) ) ;
#289 = CLOSED_SHELL ( 'NONE', ( #39, #348, #200, #179, #63, #303, #173, #114 ) ) ;
#290 = CIRCLE ( 'NONE', #72, 0.3750000000000001110 ) ;
#291 = EDGE_LOOP ( 'NONE', ( #283, #284, #92, #31 ) ) ;
#292 = LOCAL_TIME ( 14, 51, 20.00000000000000000, #339 ) ;
#293 = CC_DESIGN_DATE_AND_TIME_ASSIGNMENT ( #87, #23, ( #214 ) ) ;
#294 = PLANE ( 'NONE',  #184 ) ;
#295 = VERTEX_POINT ( 'NONE', #50 ) ;
#296 = DIRECTION ( 'NONE',  ( -2.445579214634029192E-29, 3.491323227660272783E-15, 1.000000000000000000 ) ) ;
#297 = AXIS2_PLACEMENT_3D ( 'NONE', #259, #165, #195 ) ;
#298 = ORIENTED_EDGE ( 'NONE', *, *, #147, .T. ) ;
#299 = APPROVAL_ROLE ( '' ) ;
#300 = ORIENTED_EDGE ( 'NONE', *, *, #335, .F. ) ;
#301 = CARTESIAN_POINT ( 'NONE',  ( 2.618611004132411153E-15, 0.3749999999999912847, -2.500000000000001332 ) ) ;
#302 = CALENDAR_DATE ( 2024, 21, 2 ) ;
#303 = ADVANCED_FACE ( 'NONE', ( #355 ), #149, .T. ) ;
#304 = AXIS2_PLACEMENT_3D ( 'NONE', #2, #380, #128 ) ;
#305 = CARTESIAN_POINT ( 'NONE',  ( 2.618611004132438763E-15, 0.3749999999999873990, -3.625000000000000888 ) ) ;
#306 = DIRECTION ( 'NONE',  ( -2.445468806185136597E-29, 3.491481338843145583E-15, 1.000000000000000000 ) ) ;
#307 = DIRECTION ( 'NONE',  ( -2.445579214634029192E-29, 3.491323227660272783E-15, 1.000000000000000000 ) ) ;
#308 = VERTEX_POINT ( 'NONE', #360 ) ;
#309 = DIRECTION ( 'NONE',  ( -2.445579214634029192E-29, 3.491323227660272783E-15, 1.000000000000000000 ) ) ;
#310 = APPLICATION_CONTEXT ( 'configuration controlled 3d designs of mechanical parts and assemblies' ) ;
#311 = VECTOR ( 'NONE', #17, 39.37007874015748143 ) ;
#312 = DIRECTION ( 'NONE',  ( 1.000000000000000000, -6.982962677686264344E-15, 0.000000000000000000 ) ) ;
#313 = DIRECTION ( 'NONE',  ( -6.982962677686265922E-15, -1.000000000000000000, 3.494488891895536035E-15 ) ) ;
#314 = ADVANCED_FACE ( 'NONE', ( #174 ), #363, .F. ) ;
#315 = LINE ( 'NONE', #186, #213 ) ;
#316 = DIRECTION ( 'NONE',  ( 6.982962677686265922E-15, 1.000000000000000000, -3.491323227660273177E-15 ) ) ;
#317 = CIRCLE ( 'NONE', #402, 0.3750000000000002776 ) ;
#318 = AXIS2_PLACEMENT_3D ( 'NONE', #251, #176, #312 ) ;
#319 = VERTEX_POINT ( 'NONE', #112 ) ;
#320 = SPHERICAL_SURFACE ( 'NONE', #19, 0.3750000000000003886 ) ;
#321 = EDGE_CURVE ( 'NONE', #287, #46, #40, .T. ) ;
#322 = FACE_OUTER_BOUND ( 'NONE', #25, .T. ) ;
#323 = APPROVAL ( #225, 'UNSPECIFIED' ) ;
#324 = LINE ( 'NONE', #135, #53 ) ;
#325 = CIRCLE ( 'NONE', #29, 0.3750000000000003886 ) ;
#326 = APPROVAL_PERSON_ORGANIZATION ( #266, #169, #299 ) ;
#327 = COORDINATED_UNIVERSAL_TIME_OFFSET ( 5, 0, .BEHIND. ) ;
#328 = CARTESIAN_POINT ( 'NONE',  ( 6.113948036585074240E-29, -8.728308069150681957E-15, -2.500000000000000000 ) ) ;
#329 = CARTESIAN_POINT ( 'NONE',  ( 6.113948036585074240E-29, -8.728308069150681957E-15, -2.500000000000000000 ) ) ;
#330 = DIRECTION ( 'NONE',  ( 1.000000000000000000, -6.982962677686265922E-15, 0.000000000000000000 ) ) ;
#331 = CYLINDRICAL_SURFACE ( 'NONE', #347, 0.3750000000000001110 ) ;
#332 = ORGANIZATION ( 'UNSPECIFIED', 'UNSPECIFIED', '' ) ;
#333 = DIRECTION ( 'NONE',  ( -2.445468806185136597E-29, 3.491481338843145583E-15, 1.000000000000000000 ) ) ;
#334 = CARTESIAN_POINT ( 'NONE',  ( -2.572686749164323547E-15, -0.3750000000000001110, -0.01999999999999877570 ) ) ;
#335 = EDGE_CURVE ( 'NONE', #250, #221, #290, .T. ) ;
#336 = EDGE_LOOP ( 'NONE', ( #217, #125 ) ) ;
#337 = AXIS2_PLACEMENT_3D ( 'NONE', #328, #352, #148 ) ;
#338 = CYLINDRICAL_SURFACE ( 'NONE', #211, 0.3750000000000001665 ) ;
#339 = COORDINATED_UNIVERSAL_TIME_OFFSET ( 5, 0, .BEHIND. ) ;
#340 = DIRECTION ( 'NONE',  ( -1.000000000000000000, 6.982962677686266711E-15, -4.883557194083113462E-29 ) ) ;
#341 = CARTESIAN_POINT ( 'NONE',  ( 8.864824422421120163E-29, -1.265661985330640259E-14, -3.624999999999999556 ) ) ;
#342 = DIRECTION ( 'NONE',  ( -2.445468806185136597E-29, 3.491481338843145583E-15, 1.000000000000000000 ) ) ;
#343 = AXIS2_PLACEMENT_3D ( 'NONE', #257, #103, #36 ) ;
#344 = CC_DESIGN_SECURITY_CLASSIFICATION ( #214, ( #54 ) ) ;
#345 = ORIENTED_EDGE ( 'NONE', *, *, #286, .T. ) ;
#346 = CARTESIAN_POINT ( 'NONE',  ( -5.531289583643866849E-45, 7.896501445029265655E-31, 2.261750325054018396E-16 ) ) ;
#347 = AXIS2_PLACEMENT_3D ( 'NONE', #364, #306, #143 ) ;
#348 = ADVANCED_FACE ( 'NONE', ( #82 ), #227, .T. ) ;
#349 = APPROVAL ( #376, 'UNSPECIFIED' ) ;
#350 = DIRECTION ( 'NONE',  ( -2.445579214634029192E-29, 3.491323227660272783E-15, 1.000000000000000000 ) ) ;
#351 = PERSON_AND_ORGANIZATION_ROLE ( 'creator' ) ;
#352 = DIRECTION ( 'NONE',  ( -2.445579214634029192E-29, 3.491323227660272783E-15, 1.000000000000000000 ) ) ;
#353 = ORIENTED_EDGE ( 'NONE', *, *, #126, .F. ) ;
#354 = CONICAL_SURFACE ( 'NONE', #297, 0.3750000000000000555, 0.7853981633974471688 ) ;
#355 = FACE_OUTER_BOUND ( 'NONE', #64, .T. ) ;
#356 = ORIENTED_EDGE ( 'NONE', *, *, #335, .T. ) ;
#357 = CARTESIAN_POINT ( 'NONE',  ( 8.864824422421120163E-29, -1.265661985330640259E-14, -3.624999999999999556 ) ) ;
#358 = ORIENTED_EDGE ( 'NONE', *, *, #95, .F. ) ;
#359 = DATE_AND_TIME ( #302, #389 ) ;
#360 = CARTESIAN_POINT ( 'NONE',  ( -2.572686749164323547E-15, -0.3750000000000001110, -0.01999999999999877570 ) ) ;
#361 = CARTESIAN_POINT ( 'NONE',  ( 6.113948036585074240E-29, -8.728308069150681957E-15, -2.500000000000000000 ) ) ;
#362 = CIRCLE ( 'NONE', #94, 0.3750000000000000555 ) ;
#363 = PLANE ( 'NONE',  #199 ) ;
#364 = CARTESIAN_POINT ( 'NONE',  ( 0.000000000000000000, 0.000000000000000000, 0.000000000000000000 ) ) ;
#365 = APPLICATION_CONTEXT ( 'configuration controlled 3d designs of mechanical parts and assemblies' ) ;
#366 = UNCERTAINTY_MEASURE_WITH_UNIT (LENGTH_MEASURE( 1.000000000000000082E-05 ), #189, 'distance_accuracy_value', 'NONE');
#367 = FACE_OUTER_BOUND ( 'NONE', #161, .T. ) ;
#368 = PERSON ( 'UNSPECIFIED', 'UNSPECIFIED', 'UNSPECIFIED', ('UNSPECIFIED'), ('UNSPECIFIED'), ('UNSPECIFIED') ) ;
#369 = PERSON_AND_ORGANIZATION_ROLE ( 'classification_officer' ) ;
#370 = CIRCLE ( 'NONE', #254, 0.3739999999999999991 ) ;
#371 = DIRECTION ( 'NONE',  ( -6.982962677686265922E-15, -1.000000000000000000, 3.494488891895536035E-15 ) ) ;
#372 = EDGE_CURVE ( 'NONE', #116, #208, #4, .T. ) ;
#373 = ORIENTED_EDGE ( 'NONE', *, *, #159, .T. ) ;
#374 = DIRECTION ( 'NONE',  ( 6.982962677686265922E-15, 1.000000000000000000, 0.000000000000000000 ) ) ;
#375 = ORIENTED_EDGE ( 'NONE', *, *, #175, .T. ) ;
#376 = APPROVAL_STATUS ( 'not_yet_approved' ) ;
#377 = EDGE_CURVE ( 'NONE', #5, #241, #13, .T. ) ;
#378 = ORIENTED_EDGE ( 'NONE', *, *, #123, .F. ) ;
#379 = ADVANCED_FACE ( 'NONE', ( #70 ), #153, .T. ) ;
#380 = DIRECTION ( 'NONE',  ( -2.445468806185136597E-29, 3.491481338843145583E-15, 1.000000000000000000 ) ) ;
#381 = DIRECTION ( 'NONE',  ( -2.445468806185136877E-29, 3.491481338843145188E-15, 1.000000000000000000 ) ) ;
#382 = AXIS2_PLACEMENT_3D ( 'NONE', #357, #9, #330 ) ;
#383 = AXIS2_PLACEMENT_3D ( 'NONE', #329, #172, #42 ) ;
#384 = DIRECTION ( 'NONE',  ( 0.000000000000000000, 0.000000000000000000, 1.000000000000000000 ) ) ;
#385 = DIRECTION ( 'NONE',  ( 1.000000000000000000, 0.000000000000000000, 0.000000000000000000 ) ) ;
#386 = CARTESIAN_POINT ( 'NONE',  ( 2.660982545421636724E-15, 0.3739999999999912839, -2.500000000000001332 ) ) ;
#387 = AXIS2_PLACEMENT_3D ( 'NONE', #151, #281, #371 ) ;
#388 = EDGE_CURVE ( 'NONE', #208, #252, #139, .T. ) ;
#389 = LOCAL_TIME ( 14, 51, 20.00000000000000000, #327 ) ;
#390 = DIMENSIONAL_EXPONENTS ( 1.000000000000000000, 0.000000000000000000, 0.000000000000000000, 0.000000000000000000, 0.000000000000000000, 0.000000000000000000, 0.000000000000000000 ) ;
#391 = ORIENTED_EDGE ( 'NONE', *, *, #321, .T. ) ;
#392 = EDGE_CURVE ( 'NONE', #221, #287, #269, .T. ) ;
#393 = CLOSED_SHELL ( 'NONE', ( #52, #77, #379, #314, #7 ) ) ;
#394 = APPROVAL_DATE_TIME ( #272, #169 ) ;
#395 = CARTESIAN_POINT ( 'NONE',  ( -2.664535259100290106E-15, -0.3750000000000131006, -3.624999999999998668 ) ) ;
#396 = DIRECTION ( 'NONE',  ( -6.982962677686266711E-15, -1.000000000000000000, 3.491323227660273177E-15 ) ) ;
#397 = FACE_OUTER_BOUND ( 'NONE', #107, .T. ) ;
#398 = PERSON_AND_ORGANIZATION_ROLE ( 'creator' ) ;
#399 = DIRECTION ( 'NONE',  ( 4.937700262164541731E-15, 0.7071067811865442421, -0.7071067811865507924 ) ) ;
#400 = VERTEX_POINT ( 'NONE', #134 ) ;
#401 = PRODUCT_DEFINITION ( 'UNKNOWN', '', #54, #57 ) ;
#402 = AXIS2_PLACEMENT_3D ( 'NONE', #58, #244, #96 ) ;
#403 = CARTESIAN_POINT ( 'NONE',  ( 0.3750000000000000555, -1.134731435124021338E-14, -2.500000000000000000 ) ) ;
#404 = ORIENTED_EDGE ( 'NONE', *, *, #95, .T. ) ;
#405 = CYLINDRICAL_SURFACE ( 'NONE', #109, 0.3750000000000001110 ) ;
#406 = DIRECTION ( 'NONE',  ( -2.445579214634028911E-29, 3.491323227660273177E-15, 1.000000000000000000 ) ) ;
#407 =( GEOMETRIC_REPRESENTATION_CONTEXT ( 3 ) GLOBAL_UNCERTAINTY_ASSIGNED_CONTEXT ( ( #366 ) ) GLOBAL_UNIT_ASSIGNED_CONTEXT ( ( #189, #33, #256 ) ) REPRESENTATION_CONTEXT ( 'NONE', 'WORKASPACE' ) );
#408 = CARTESIAN_POINT ( 'NONE',  ( 0.000000000000000000, 0.000000000000000000, 0.000000000000000000 ) ) ;
#409 = CC_DESIGN_APPROVAL ( #323, ( #401 ) ) ;
#410 = SHAPE_DEFINITION_REPRESENTATION ( #131, #260 ) ;
#411 = DIRECTION ( 'NONE',  ( 2.445579214634028631E-29, -3.491323227660273177E-15, -1.000000000000000000 ) ) ;
#412 = ORIENTED_EDGE ( 'NONE', *, *, #392, .T. ) ;
ENDSEC;
END-ISO-10303-21;
