ISO-10303-21;
HEADER;
FILE_DESCRIPTION (( 'STEP AP203' ),
    '1' );
FILE_NAME ('39765.STEP',
    '2024-02-28T01:18:05',
    ( '' ),
    ( '' ),
    'SwSTEP 2.0',
    'SolidWorks 2023',
    '' );
FILE_SCHEMA (( 'CONFIG_CONTROL_DESIGN' ));
ENDSEC;

DATA;
#1 = DIRECTION ( 'NONE',  ( 1.000000000000000000, -6.982962677686266711E-15, 0.000000000000000000 ) ) ;
#2 = DATE_AND_TIME ( #59, #262 ) ;
#3 = LINE ( 'NONE', #151, #241 ) ;
#4 = AXIS2_PLACEMENT_3D ( 'NONE', #296, #93, #57 ) ;
#5 = DATE_AND_TIME ( #29, #70 ) ;
#6 = DIRECTION ( 'NONE',  ( -2.445468806185136597E-29, 3.491481338843145583E-15, 1.000000000000000000 ) ) ;
#7 = DIRECTION ( 'NONE',  ( 1.000000000000000000, -6.982962677686269077E-15, 0.000000000000000000 ) ) ;
#8 = DIRECTION ( 'NONE',  ( 1.000000000000000000, -6.982962677686266711E-15, 0.000000000000000000 ) ) ;
#9 = CARTESIAN_POINT ( 'NONE',  ( 5.807988414689698296E-29, -8.292268179752468540E-15, -2.374999999999999556 ) ) ;
#10 = PRODUCT_DEFINITION_SHAPE ( 'NONE', 'NONE',  #97 ) ;
#11 = CLOSED_SHELL ( 'NONE', ( #227, #303, #185, #201, #160, #350, #325, #64 ) ) ;
#12 = ORGANIZATION ( 'UNSPECIFIED', 'UNSPECIFIED', '' ) ;
#13 = DIRECTION ( 'NONE',  ( -0.7071067811864388819, 7.493145998869961307E-15, 0.7071067811866561525 ) ) ;
#14 = DIRECTION ( 'NONE',  ( -2.445468806185136597E-29, 3.491481338843145583E-15, 1.000000000000000000 ) ) ;
#15 = ORIENTED_EDGE ( 'NONE', *, *, #216, .T. ) ;
#16 = DIRECTION ( 'NONE',  ( 1.000000000000000000, -6.982962677686269077E-15, 0.000000000000000000 ) ) ;
#17 = LOCAL_TIME ( 20, 18, 5.000000000000000000, #85 ) ;
#18 = VERTEX_POINT ( 'NONE', #283 ) ;
#19 = CC_DESIGN_PERSON_AND_ORGANIZATION_ASSIGNMENT ( #228, #144, ( #204 ) ) ;
#20 = ADVANCED_BREP_SHAPE_REPRESENTATION ( '39765', ( #28, #276, #246 ), #90 ) ;
#21 = DIRECTION ( 'NONE',  ( -2.445468806185136597E-29, 3.491481338843145583E-15, 1.000000000000000000 ) ) ;
#22 = ORIENTED_EDGE ( 'NONE', *, *, #129, .F. ) ;
#23 =( NAMED_UNIT ( * ) PLANE_ANGLE_UNIT ( ) SI_UNIT ( $, .RADIAN. ) );
#24 = VERTEX_POINT ( 'NONE', #106 ) ;
#25 = DATE_TIME_ROLE ( 'classification_date' ) ;
#26 = ORIENTED_EDGE ( 'NONE', *, *, #266, .T. ) ;
#27 = AXIS2_PLACEMENT_3D ( 'NONE', #74, #105, #280 ) ;
#28 = MANIFOLD_SOLID_BREP ( 'Body-Move/Copy2[1]', #195 ) ;
#29 = CALENDAR_DATE ( 2024, 27, 2 ) ;
#30 = CARTESIAN_POINT ( 'NONE',  ( -0.2812500000000000000, 1.998401444325281773E-15, -1.383450494134192269E-29 ) ) ;
#31 = PERSON_AND_ORGANIZATION_ROLE ( 'classification_officer' ) ;
#32 = CARTESIAN_POINT ( 'NONE',  ( 0.000000000000000000, 0.000000000000000000, 0.000000000000000000 ) ) ;
#33 = APPLICATION_PROTOCOL_DEFINITION ( 'international standard', 'config_control_design', 1994, #84 ) ;
#34 = PLANE ( 'NONE',  #118 ) ;
#35 = CIRCLE ( 'NONE', #267, 0.2812500000000000000 ) ;
#36 = APPROVAL_PERSON_ORGANIZATION ( #288, #332, #147 ) ;
#37 = CARTESIAN_POINT ( 'NONE',  ( 0.000000000000000000, 0.000000000000000000, 0.000000000000000000 ) ) ;
#38 = DIRECTION ( 'NONE',  ( 1.000000000000000000, -6.982962677686269866E-15, 0.000000000000000000 ) ) ;
#39 = FACE_OUTER_BOUND ( 'NONE', #278, .T. ) ;
#40 = CIRCLE ( 'NONE', #327, 0.2812499999999997780 ) ;
#41 = EDGE_CURVE ( 'NONE', #188, #18, #100, .T. ) ;
#42 =( CONVERSION_BASED_UNIT ( 'INCH', #301 ) LENGTH_UNIT ( ) NAMED_UNIT ( #353 ) );
#43 = VECTOR ( 'NONE', #217, 39.37007874015748143 ) ;
#44 = CC_DESIGN_APPROVAL ( #138, ( #97 ) ) ;
#45 = DIRECTION ( 'NONE',  ( 1.000000000000000000, -6.982962677686269866E-15, 0.000000000000000000 ) ) ;
#46 = DIRECTION ( 'NONE',  ( 1.000000000000000000, -6.982962677686265922E-15, 4.876176775795935793E-29 ) ) ;
#47 = EDGE_LOOP ( 'NONE', ( #50, #365, #132, #125 ) ) ;
#48 = CARTESIAN_POINT ( 'NONE',  ( 0.000000000000000000, 0.000000000000000000, 0.000000000000000000 ) ) ;
#49 = CIRCLE ( 'NONE', #324, 0.2812499999999997780 ) ;
#50 = ORIENTED_EDGE ( 'NONE', *, *, #216, .F. ) ;
#51 = CALENDAR_DATE ( 2024, 27, 2 ) ;
#52 = VERTEX_POINT ( 'NONE', #251 ) ;
#53 = APPROVAL_DATE_TIME ( #312, #138 ) ;
#54 = EDGE_CURVE ( 'NONE', #24, #52, #279, .T. ) ;
#55 = CARTESIAN_POINT ( 'NONE',  ( 5.807988414689698296E-29, -8.292268179752468540E-15, -2.374999999999999556 ) ) ;
#56 = PERSON_AND_ORGANIZATION_ROLE ( 'design_owner' ) ;
#57 = DIRECTION ( 'NONE',  ( -1.000000000000000000, 6.982962677686266711E-15, 0.000000000000000000 ) ) ;
#58 = AXIS2_PLACEMENT_3D ( 'NONE', #354, #323, #322 ) ;
#59 = CALENDAR_DATE ( 2024, 27, 2 ) ;
#60 = DIRECTION ( 'NONE',  ( 1.000000000000000000, -6.982962677686266711E-15, 4.876176775795935793E-29 ) ) ;
#61 = PERSON_AND_ORGANIZATION ( #212, #12 ) ;
#62 = FACE_OUTER_BOUND ( 'NONE', #99, .T. ) ;
#63 = CARTESIAN_POINT ( 'NONE',  ( 0.2802499999999999991, -1.024924347017404583E-14, -2.374999999999999556 ) ) ;
#64 = ADVANCED_FACE ( 'NONE', ( #297 ), #121, .F. ) ;
#65 = AXIS2_PLACEMENT_3D ( 'NONE', #298, #304, #45 ) ;
#66 = DIRECTION ( 'NONE',  ( -0.7071067811865473507, 2.468850131082255088E-15, -0.7071067811865476838 ) ) ;
#67 = DESIGN_CONTEXT ( 'detailed design', #84, 'design' ) ;
#68 = CARTESIAN_POINT ( 'NONE',  ( -0.2812500000000000000, -8.257824988526456379E-15, -3.500000000000000000 ) ) ;
#69 = DIRECTION ( 'NONE',  ( -2.445468806185136597E-29, 3.491481338843145583E-15, 1.000000000000000000 ) ) ;
#70 = LOCAL_TIME ( 20, 18, 5.000000000000000000, #149 ) ;
#71 = CARTESIAN_POINT ( 'NONE',  ( 0.2812499999999998890, -1.963958253099262118E-15, 1.371424718192606451E-29 ) ) ;
#72 = CIRCLE ( 'NONE', #287, 0.2812500000000000555 ) ;
#73 = CC_DESIGN_DATE_AND_TIME_ASSIGNMENT ( #225, #293, ( #97 ) ) ;
#74 = CARTESIAN_POINT ( 'NONE',  ( 8.559140821647976968E-29, -1.222018468595100934E-14, -3.500000000000000000 ) ) ;
#75 = ADVANCED_FACE ( 'NONE', ( #236 ), #34, .T. ) ;
#76 = ORIENTED_EDGE ( 'NONE', *, *, #215, .T. ) ;
#77 = CARTESIAN_POINT ( 'NONE',  ( 5.805542945883512693E-29, -8.288776698413625533E-15, -2.373999999999999222 ) ) ;
#78 = EDGE_CURVE ( 'NONE', #338, #274, #3, .T. ) ;
#79 = ORIENTED_EDGE ( 'NONE', *, *, #153, .T. ) ;
#80 = APPROVAL_DATE_TIME ( #5, #332 ) ;
#81 = AXIS2_PLACEMENT_3D ( 'NONE', #32, #6, #60 ) ;
#82 = VERTEX_POINT ( 'NONE', #119 ) ;
#83 = EDGE_CURVE ( 'NONE', #254, #274, #49, .T. ) ;
#84 = APPLICATION_CONTEXT ( 'configuration controlled 3d designs of mechanical parts and assemblies' ) ;
#85 = COORDINATED_UNIVERSAL_TIME_OFFSET ( 5, 0, .BEHIND. ) ;
#86 = EDGE_LOOP ( 'NONE', ( #247, #143, #314, #169 ) ) ;
#87 = PERSON_AND_ORGANIZATION_ROLE ( 'creator' ) ;
#88 = ORIENTED_EDGE ( 'NONE', *, *, #284, .F. ) ;
#89 = DIRECTION ( 'NONE',  ( -2.445468806185136597E-29, 3.491481338843145583E-15, 1.000000000000000000 ) ) ;
#90 =( GEOMETRIC_REPRESENTATION_CONTEXT ( 3 ) GLOBAL_UNCERTAINTY_ASSIGNED_CONTEXT ( ( #295 ) ) GLOBAL_UNIT_ASSIGNED_CONTEXT ( ( #42, #23, #171 ) ) REPRESENTATION_CONTEXT ( 'NONE', 'WORKASPACE' ) );
#91 = PLANE ( 'NONE',  #203 ) ;
#92 = CYLINDRICAL_SURFACE ( 'NONE', #126, 0.2812499999999998890 ) ;
#93 = DIRECTION ( 'NONE',  ( 2.445468806185136597E-29, -3.491481338843145583E-15, -1.000000000000000000 ) ) ;
#94 = AXIS2_PLACEMENT_3D ( 'NONE', #273, #328, #128 ) ;
#95 = EDGE_CURVE ( 'NONE', #362, #18, #234, .T. ) ;
#96 = FACE_OUTER_BOUND ( 'NONE', #164, .T. ) ;
#97 = PRODUCT_DEFINITION ( 'UNKNOWN', '', #204, #67 ) ;
#98 = DIRECTION ( 'NONE',  ( 1.000000000000000000, -6.982962677686268288E-15, 4.876176775795935793E-29 ) ) ;
#99 = EDGE_LOOP ( 'NONE', ( #199, #112, #360, #108 ) ) ;
#100 = CIRCLE ( 'NONE', #158, 0.2812500000000000000 ) ;
#101 = CARTESIAN_POINT ( 'NONE',  ( 0.000000000000000000, 0.000000000000000000, 0.000000000000000000 ) ) ;
#102 = ORIENTED_EDGE ( 'NONE', *, *, #240, .T. ) ;
#103 = DIRECTION ( 'NONE',  ( -2.438088387897960049E-29, 3.491481338843145188E-15, 1.000000000000000000 ) ) ;
#104 = EDGE_LOOP ( 'NONE', ( #187, #102, #313, #336 ) ) ;
#105 = DIRECTION ( 'NONE',  ( -2.445468806185136597E-29, 3.491481338843145583E-15, 1.000000000000000000 ) ) ;
#106 = CARTESIAN_POINT ( 'NONE',  ( -0.2802499999999999991, -6.295673708436565373E-15, -2.374999999999999556 ) ) ;
#107 = CARTESIAN_POINT ( 'NONE',  ( 5.807988414689698296E-29, -8.292268179752468540E-15, -2.374999999999999556 ) ) ;
#108 = ORIENTED_EDGE ( 'NONE', *, *, #266, .F. ) ;
#109 = EDGE_CURVE ( 'NONE', #281, #274, #175, .T. ) ;
#110 = COORDINATED_UNIVERSAL_TIME_OFFSET ( 5, 0, .BEHIND. ) ;
#111 = CIRCLE ( 'NONE', #318, 0.2612499999999997047 ) ;
#112 = ORIENTED_EDGE ( 'NONE', *, *, #95, .T. ) ;
#113 = APPROVAL_STATUS ( 'not_yet_approved' ) ;
#114 = ORIENTED_EDGE ( 'NONE', *, *, #186, .F. ) ;
#115 = PERSON_AND_ORGANIZATION ( #212, #12 ) ;
#116 = CYLINDRICAL_SURFACE ( 'NONE', #81, 0.2812500000000000000 ) ;
#117 = APPROVAL ( #141, 'UNSPECIFIED' ) ;
#118 = AXIS2_PLACEMENT_3D ( 'NONE', #155, #258, #238 ) ;
#119 = CARTESIAN_POINT ( 'NONE',  ( 0.2812500000000000000, -1.418414293905027264E-14, -3.500000000000000000 ) ) ;
#120 = DIRECTION ( 'NONE',  ( -1.000000000000000000, 6.982962677686265922E-15, -4.876176775795935793E-29 ) ) ;
#121 = PLANE ( 'NONE',  #364 ) ;
#122 = LINE ( 'NONE', #208, #351 ) ;
#123 = AXIS2_PLACEMENT_3D ( 'NONE', #107, #103, #46 ) ;
#124 = LINE ( 'NONE', #272, #245 ) ;
#125 = ORIENTED_EDGE ( 'NONE', *, *, #109, .F. ) ;
#126 = AXIS2_PLACEMENT_3D ( 'NONE', #37, #235, #344 ) ;
#127 = CC_DESIGN_APPROVAL ( #332, ( #204 ) ) ;
#128 = DIRECTION ( 'NONE',  ( 1.000000000000000000, -6.982962677686268288E-15, 0.000000000000000000 ) ) ;
#129 = EDGE_CURVE ( 'NONE', #52, #24, #150, .T. ) ;
#130 = FACE_OUTER_BOUND ( 'NONE', #202, .T. ) ;
#131 = ADVANCED_FACE ( 'NONE', ( #62 ), #116, .T. ) ;
#132 = ORIENTED_EDGE ( 'NONE', *, *, #83, .T. ) ;
#133 = AXIS2_PLACEMENT_3D ( 'NONE', #9, #156, #221 ) ;
#134 = LOCAL_TIME ( 20, 18, 5.000000000000000000, #110 ) ;
#135 = ORIENTED_EDGE ( 'NONE', *, *, #83, .F. ) ;
#136 = DIRECTION ( 'NONE',  ( 1.000000000000000000, -6.982962677686266711E-15, 4.876176775795935793E-29 ) ) ;
#137 = ORIENTED_EDGE ( 'NONE', *, *, #211, .T. ) ;
#138 = APPROVAL ( #261, 'UNSPECIFIED' ) ;
#139 = CALENDAR_DATE ( 2024, 27, 2 ) ;
#140 = DIRECTION ( 'NONE',  ( 1.000000000000000000, -6.982962677686269866E-15, 0.000000000000000000 ) ) ;
#141 = APPROVAL_STATUS ( 'not_yet_approved' ) ;
#142 = AXIS2_PLACEMENT_3D ( 'NONE', #193, #348, #307 ) ;
#143 = ORIENTED_EDGE ( 'NONE', *, *, #54, .T. ) ;
#144 = PERSON_AND_ORGANIZATION_ROLE ( 'design_supplier' ) ;
#145 = LINE ( 'NONE', #63, #218 ) ;
#146 = ADVANCED_FACE ( 'NONE', ( #179 ), #91, .F. ) ;
#147 = APPROVAL_ROLE ( '' ) ;
#148 = FACE_OUTER_BOUND ( 'NONE', #104, .T. ) ;
#149 = COORDINATED_UNIVERSAL_TIME_OFFSET ( 5, 0, .BEHIND. ) ;
#150 = CIRCLE ( 'NONE', #165, 0.2802499999999999991 ) ;
#151 = CARTESIAN_POINT ( 'NONE',  ( -0.2812499999999998890, 1.998401444325280984E-15, -1.383450494134191708E-29 ) ) ;
#152 = CC_DESIGN_APPROVAL ( #117, ( #356 ) ) ;
#153 = EDGE_CURVE ( 'NONE', #274, #254, #40, .T. ) ;
#154 = DIRECTION ( 'NONE',  ( 0.7071067811865473507, -7.319954787623256045E-15, -0.7071067811865476838 ) ) ;
#155 = CARTESIAN_POINT ( 'NONE',  ( 1.963958253099348104E-15, 0.2812499999999877875, -3.500000000000000888 ) ) ;
#156 = DIRECTION ( 'NONE',  ( -2.445468806185136597E-29, 3.491481338843145583E-15, 1.000000000000000000 ) ) ;
#157 = CONICAL_SURFACE ( 'NONE', #355, 0.2802499999999999991, 0.7853981633972946241 ) ;
#158 = AXIS2_PLACEMENT_3D ( 'NONE', #55, #222, #140 ) ;
#159 = DIRECTION ( 'NONE',  ( -2.445468806185136597E-29, 3.491481338843145583E-15, 1.000000000000000000 ) ) ;
#160 = ADVANCED_FACE ( 'NONE', ( #148 ), #92, .T. ) ;
#161 = LINE ( 'NONE', #71, #43 ) ;
#162 = VERTEX_POINT ( 'NONE', #315 ) ;
#163 = CARTESIAN_POINT ( 'NONE',  ( 5.807988414689698296E-29, -8.292268179752468540E-15, -2.374999999999999556 ) ) ;
#164 = EDGE_LOOP ( 'NONE', ( #226, #249, #331, #79 ) ) ;
#165 = AXIS2_PLACEMENT_3D ( 'NONE', #294, #89, #316 ) ;
#166 = CARTESIAN_POINT ( 'NONE',  ( 0.2812500000000000000, -1.963958253099262512E-15, 1.371424718192607012E-29 ) ) ;
#167 = ORIENTED_EDGE ( 'NONE', *, *, #284, .T. ) ;
#168 = COORDINATED_UNIVERSAL_TIME_OFFSET ( 5, 0, .BEHIND. ) ;
#169 = ORIENTED_EDGE ( 'NONE', *, *, #240, .F. ) ;
#170 = EDGE_CURVE ( 'NONE', #229, #254, #122, .T. ) ;
#171 =( NAMED_UNIT ( * ) SI_UNIT ( $, .STERADIAN. ) SOLID_ANGLE_UNIT ( ) );
#172 = CARTESIAN_POINT ( 'NONE',  ( 5.807988414689698296E-29, -8.292268179752468540E-15, -2.374999999999999556 ) ) ;
#173 = MECHANICAL_CONTEXT ( 'NONE', #259, 'mechanical' ) ;
#174 = AXIS2_PLACEMENT_3D ( 'NONE', #101, #14, #98 ) ;
#175 = LINE ( 'NONE', #289, #237 ) ;
#176 = COORDINATED_UNIVERSAL_TIME_OFFSET ( 5, 0, .BEHIND. ) ;
#177 = DIRECTION ( 'NONE',  ( -2.445468806185136877E-29, 3.491481338843145188E-15, 1.000000000000000000 ) ) ;
#178 = PERSON_AND_ORGANIZATION_ROLE ( 'creator' ) ;
#179 = FACE_OUTER_BOUND ( 'NONE', #308, .T. ) ;
#180 = CONICAL_SURFACE ( 'NONE', #4, 0.2812499999999997780, 0.7853981633974480570 ) ;
#181 = DIRECTION ( 'NONE',  ( 0.7071067811864388819, -2.468850131081119129E-15, 0.7071067811866561525 ) ) ;
#182 = EDGE_CURVE ( 'NONE', #52, #162, #145, .T. ) ;
#183 = DIRECTION ( 'NONE',  ( -2.445468806185136597E-29, 3.491481338843145583E-15, 1.000000000000000000 ) ) ;
#184 = CIRCLE ( 'NONE', #27, 0.2812500000000000000 ) ;
#185 = ADVANCED_FACE ( 'NONE', ( #264 ), #180, .T. ) ;
#186 = EDGE_CURVE ( 'NONE', #82, #362, #35, .T. ) ;
#187 = ORIENTED_EDGE ( 'NONE', *, *, #78, .F. ) ;
#188 = VERTEX_POINT ( 'NONE', #347 ) ;
#189 = VECTOR ( 'NONE', #330, 39.37007874015748143 ) ;
#190 = CARTESIAN_POINT ( 'NONE',  ( 0.2612499999999997047, -1.895824895283957597E-15, 1.300802449975685970E-29 ) ) ;
#191 = DIRECTION ( 'NONE',  ( -1.000000000000000000, 6.982962677686266711E-15, 0.000000000000000000 ) ) ;
#192 = ORIENTED_EDGE ( 'NONE', *, *, #292, .T. ) ;
#193 = CARTESIAN_POINT ( 'NONE',  ( 0.000000000000000000, 0.000000000000000000, 0.000000000000000000 ) ) ;
#194 = ORIENTED_EDGE ( 'NONE', *, *, #41, .T. ) ;
#195 = CLOSED_SHELL ( 'NONE', ( #131, #75, #146, #345 ) ) ;
#196 = CARTESIAN_POINT ( 'NONE',  ( 0.000000000000000000, 0.000000000000000000, 0.000000000000000000 ) ) ;
#197 = APPROVAL_PERSON_ORGANIZATION ( #61, #138, #250 ) ;
#198 = EDGE_LOOP ( 'NONE', ( #192, #223, #135, #306 ) ) ;
#199 = ORIENTED_EDGE ( 'NONE', *, *, #186, .T. ) ;
#200 = PERSON_AND_ORGANIZATION ( #212, #12 ) ;
#201 = ADVANCED_FACE ( 'NONE', ( #96 ), #334, .T. ) ;
#202 = EDGE_LOOP ( 'NONE', ( #22, #363 ) ) ;
#203 = AXIS2_PLACEMENT_3D ( 'NONE', #343, #263, #120 ) ;
#204 = PRODUCT_DEFINITION_FORMATION_WITH_SPECIFIED_SOURCE ( 'ANY', '', #275, .NOT_KNOWN. ) ;
#205 = DIRECTION ( 'NONE',  ( -2.445468806185136597E-29, 3.491481338843145583E-15, 1.000000000000000000 ) ) ;
#206 = CARTESIAN_POINT ( 'NONE',  ( 4.890937612370289799E-31, -6.982962677686315028E-17, -0.02000000000000006981 ) ) ;
#207 = PRODUCT_RELATED_PRODUCT_CATEGORY ( 'detail', '', ( #275 ) ) ;
#208 = CARTESIAN_POINT ( 'NONE',  ( 0.2812499999999997780, -1.999344688650104578E-15, -0.02000000000000006981 ) ) ;
#209 = CARTESIAN_POINT ( 'NONE',  ( 8.559140821647976968E-29, -1.222018468595100934E-14, -3.500000000000000000 ) ) ;
#210 = CARTESIAN_POINT ( 'NONE',  ( 4.890937612370289799E-31, -6.982962677686315028E-17, -0.02000000000000006981 ) ) ;
#211 = EDGE_CURVE ( 'NONE', #18, #188, #224, .T. ) ;
#212 = PERSON ( 'UNSPECIFIED', 'UNSPECIFIED', 'UNSPECIFIED', ('UNSPECIFIED'), ('UNSPECIFIED'), ('UNSPECIFIED') ) ;
#213 = FACE_OUTER_BOUND ( 'NONE', #220, .T. ) ;
#214 = VECTOR ( 'NONE', #291, 39.37007874015748143 ) ;
#215 = EDGE_CURVE ( 'NONE', #281, #229, #270, .T. ) ;
#216 = EDGE_CURVE ( 'NONE', #229, #281, #111, .T. ) ;
#217 = DIRECTION ( 'NONE',  ( -2.445468806185136877E-29, 3.491481338843145188E-15, 1.000000000000000000 ) ) ;
#218 = VECTOR ( 'NONE', #181, 39.37007874015748143 ) ;
#219 = FACE_OUTER_BOUND ( 'NONE', #86, .T. ) ;
#220 = EDGE_LOOP ( 'NONE', ( #244, #167, #26, #286 ) ) ;
#221 = DIRECTION ( 'NONE',  ( 1.000000000000000000, -6.982962677686269077E-15, 0.000000000000000000 ) ) ;
#222 = DIRECTION ( 'NONE',  ( -2.445468806185136597E-29, 3.491481338843145583E-15, 1.000000000000000000 ) ) ;
#223 = ORIENTED_EDGE ( 'NONE', *, *, #78, .T. ) ;
#224 = CIRCLE ( 'NONE', #65, 0.2812500000000000000 ) ;
#225 = DATE_AND_TIME ( #139, #300 ) ;
#226 = ORIENTED_EDGE ( 'NONE', *, *, #170, .F. ) ;
#227 = ADVANCED_FACE ( 'NONE', ( #39 ), #299, .T. ) ;
#228 = PERSON_AND_ORGANIZATION ( #212, #12 ) ;
#229 = VERTEX_POINT ( 'NONE', #190 ) ;
#230 = EDGE_CURVE ( 'NONE', #162, #254, #161, .T. ) ;
#231 = APPROVAL_DATE_TIME ( #2, #117 ) ;
#232 = CARTESIAN_POINT ( 'NONE',  ( 4.890937612370289799E-31, -6.982962677686315028E-17, -0.02000000000000006981 ) ) ;
#233 = APPLICATION_PROTOCOL_DEFINITION ( 'international standard', 'config_control_design', 1994, #259 ) ;
#234 = LINE ( 'NONE', #30, #214 ) ;
#235 = DIRECTION ( 'NONE',  ( -2.445468806185136597E-29, 3.491481338843145583E-15, 1.000000000000000000 ) ) ;
#236 = FACE_OUTER_BOUND ( 'NONE', #358, .T. ) ;
#237 = VECTOR ( 'NONE', #66, 39.37007874015748143 ) ;
#238 = DIRECTION ( 'NONE',  ( -1.000000000000000000, 6.982962677686265922E-15, -4.876176775795935793E-29 ) ) ;
#239 = CARTESIAN_POINT ( 'NONE',  ( -0.2812499999999997780, 1.894128626322398031E-15, -0.02000000000000006981 ) ) ;
#240 = EDGE_CURVE ( 'NONE', #338, #162, #252, .T. ) ;
#241 = VECTOR ( 'NONE', #177, 39.37007874015748143 ) ;
#242 = CARTESIAN_POINT ( 'NONE',  ( -0.2612499999999997047, 1.859213812933966382E-15, -1.288019758893701630E-29 ) ) ;
#243 = CYLINDRICAL_SURFACE ( 'NONE', #58, 0.2812500000000000000 ) ;
#244 = ORIENTED_EDGE ( 'NONE', *, *, #95, .F. ) ;
#245 = VECTOR ( 'NONE', #13, 39.37007874015748143 ) ;
#246 = AXIS2_PLACEMENT_3D ( 'NONE', #196, #282, #310 ) ;
#247 = ORIENTED_EDGE ( 'NONE', *, *, #260, .F. ) ;
#248 = FACE_OUTER_BOUND ( 'NONE', #198, .T. ) ;
#249 = ORIENTED_EDGE ( 'NONE', *, *, #215, .F. ) ;
#250 = APPROVAL_ROLE ( '' ) ;
#251 = CARTESIAN_POINT ( 'NONE',  ( 0.2802499999999999991, -1.024924347017404583E-14, -2.374999999999999556 ) ) ;
#252 = CIRCLE ( 'NONE', #94, 0.2812500000000000555 ) ;
#253 = CC_DESIGN_PERSON_AND_ORGANIZATION_ASSIGNMENT ( #335, #31, ( #356 ) ) ;
#254 = VERTEX_POINT ( 'NONE', #326 ) ;
#255 = PERSON_AND_ORGANIZATION ( #212, #12 ) ;
#256 = DIRECTION ( 'NONE',  ( 2.445468806185136597E-29, -3.491481338843145583E-15, -1.000000000000000000 ) ) ;
#257 = SECURITY_CLASSIFICATION_LEVEL ( 'unclassified' ) ;
#258 = DIRECTION ( 'NONE',  ( 2.438088387897960049E-29, -3.491481338843145188E-15, -1.000000000000000000 ) ) ;
#259 = APPLICATION_CONTEXT ( 'configuration controlled 3d designs of mechanical parts and assemblies' ) ;
#260 = EDGE_CURVE ( 'NONE', #24, #338, #124, .T. ) ;
#261 = APPROVAL_STATUS ( 'not_yet_approved' ) ;
#262 = LOCAL_TIME ( 20, 18, 5.000000000000000000, #176 ) ;
#263 = DIRECTION ( 'NONE',  ( 2.438088387897960049E-29, -3.491481338843145188E-15, -1.000000000000000000 ) ) ;
#264 = FACE_OUTER_BOUND ( 'NONE', #47, .T. ) ;
#265 = DIRECTION ( 'NONE',  ( -2.445468806185136597E-29, 3.491481338843145583E-15, 1.000000000000000000 ) ) ;
#266 = EDGE_CURVE ( 'NONE', #82, #188, #268, .T. ) ;
#267 = AXIS2_PLACEMENT_3D ( 'NONE', #209, #183, #38 ) ;
#268 = LINE ( 'NONE', #166, #189 ) ;
#269 = CC_DESIGN_DATE_AND_TIME_ASSIGNMENT ( #337, #25, ( #356 ) ) ;
#270 = CIRCLE ( 'NONE', #142, 0.2612499999999997047 ) ;
#271 = ORIENTED_EDGE ( 'NONE', *, *, #182, .F. ) ;
#272 = CARTESIAN_POINT ( 'NONE',  ( -0.2802499999999999991, -6.300972162784788564E-15, -2.374999999999999556 ) ) ;
#273 = CARTESIAN_POINT ( 'NONE',  ( 5.805542945883512693E-29, -8.288776698413625533E-15, -2.373999999999999222 ) ) ;
#274 = VERTEX_POINT ( 'NONE', #239 ) ;
#275 = PRODUCT ( '39765', '39765', '', ( #173 ) ) ;
#276 = MANIFOLD_SOLID_BREP ( 'Body-Move/Copy2[2]', #11 ) ;
#277 = CARTESIAN_POINT ( 'NONE',  ( -0.2812500000000000555, -2.180901718269960671E-15, -2.373999999999999222 ) ) ;
#278 = EDGE_LOOP ( 'NONE', ( #311, #333, #329, #271 ) ) ;
#279 = CIRCLE ( 'NONE', #309, 0.2802499999999999991 ) ;
#280 = DIRECTION ( 'NONE',  ( 1.000000000000000000, -6.982962677686269866E-15, 0.000000000000000000 ) ) ;
#281 = VERTEX_POINT ( 'NONE', #242 ) ;
#282 = DIRECTION ( 'NONE',  ( 0.000000000000000000, 0.000000000000000000, 1.000000000000000000 ) ) ;
#283 = CARTESIAN_POINT ( 'NONE',  ( -0.2812500000000000000, -8.257824988526456379E-15, -2.374999999999999556 ) ) ;
#284 = EDGE_CURVE ( 'NONE', #362, #82, #184, .T. ) ;
#285 = CALENDAR_DATE ( 2024, 27, 2 ) ;
#286 = ORIENTED_EDGE ( 'NONE', *, *, #211, .F. ) ;
#287 = AXIS2_PLACEMENT_3D ( 'NONE', #77, #21, #352 ) ;
#288 = PERSON_AND_ORGANIZATION ( #212, #12 ) ;
#289 = CARTESIAN_POINT ( 'NONE',  ( -0.2812499999999997780, 1.894128626322398031E-15, -0.02000000000000006981 ) ) ;
#290 = PERSON_AND_ORGANIZATION ( #212, #12 ) ;
#291 = DIRECTION ( 'NONE',  ( -2.445468806185136877E-29, 3.491481338843145188E-15, 1.000000000000000000 ) ) ;
#292 = EDGE_CURVE ( 'NONE', #162, #338, #72, .T. ) ;
#293 = DATE_TIME_ROLE ( 'creation_date' ) ;
#294 = CARTESIAN_POINT ( 'NONE',  ( 5.807988414689698296E-29, -8.292268179752468540E-15, -2.374999999999999556 ) ) ;
#295 = UNCERTAINTY_MEASURE_WITH_UNIT (LENGTH_MEASURE( 1.000000000000000082E-05 ), #42, 'distance_accuracy_value', 'NONE');
#296 = CARTESIAN_POINT ( 'NONE',  ( 4.890937612370289799E-31, -6.982962677686315028E-17, -0.02000000000000006981 ) ) ;
#297 = FACE_OUTER_BOUND ( 'NONE', #302, .T. ) ;
#298 = CARTESIAN_POINT ( 'NONE',  ( 5.807988414689698296E-29, -8.292268179752468540E-15, -2.374999999999999556 ) ) ;
#299 = CONICAL_SURFACE ( 'NONE', #133, 0.2802499999999999991, 0.7853981633972946241 ) ;
#300 = LOCAL_TIME ( 20, 18, 5.000000000000000000, #168 ) ;
#301 = LENGTH_MEASURE_WITH_UNIT ( LENGTH_MEASURE( 0.02539999999999999897 ), #359 );
#302 = EDGE_LOOP ( 'NONE', ( #76, #15 ) ) ;
#303 = ADVANCED_FACE ( 'NONE', ( #248 ), #305, .T. ) ;
#304 = DIRECTION ( 'NONE',  ( -2.445468806185136597E-29, 3.491481338843145583E-15, 1.000000000000000000 ) ) ;
#305 = CYLINDRICAL_SURFACE ( 'NONE', #174, 0.2812499999999998890 ) ;
#306 = ORIENTED_EDGE ( 'NONE', *, *, #230, .F. ) ;
#307 = DIRECTION ( 'NONE',  ( 1.000000000000000000, -6.982962677686266711E-15, 4.876176775795935793E-29 ) ) ;
#308 = EDGE_LOOP ( 'NONE', ( #194, #137 ) ) ;
#309 = AXIS2_PLACEMENT_3D ( 'NONE', #172, #265, #7 ) ;
#310 = DIRECTION ( 'NONE',  ( 1.000000000000000000, 0.000000000000000000, 0.000000000000000000 ) ) ;
#311 = ORIENTED_EDGE ( 'NONE', *, *, #129, .T. ) ;
#312 = DATE_AND_TIME ( #51, #134 ) ;
#313 = ORIENTED_EDGE ( 'NONE', *, *, #230, .T. ) ;
#314 = ORIENTED_EDGE ( 'NONE', *, *, #182, .T. ) ;
#315 = CARTESIAN_POINT ( 'NONE',  ( 0.2812500000000000555, -1.025273495151288883E-14, -2.373999999999999222 ) ) ;
#316 = DIRECTION ( 'NONE',  ( 1.000000000000000000, -6.982962677686269077E-15, 0.000000000000000000 ) ) ;
#317 = DIRECTION ( 'NONE',  ( 2.438088387897960049E-29, -3.491481338843145188E-15, -1.000000000000000000 ) ) ;
#318 = AXIS2_PLACEMENT_3D ( 'NONE', #48, #159, #136 ) ;
#319 = CC_DESIGN_SECURITY_CLASSIFICATION ( #356, ( #204 ) ) ;
#320 = DIRECTION ( 'NONE',  ( -2.445468806185136597E-29, 3.491481338843145583E-15, 1.000000000000000000 ) ) ;
#321 = CC_DESIGN_PERSON_AND_ORGANIZATION_ASSIGNMENT ( #255, #87, ( #204 ) ) ;
#322 = DIRECTION ( 'NONE',  ( 1.000000000000000000, -6.982962677686266711E-15, 4.876176775795935793E-29 ) ) ;
#323 = DIRECTION ( 'NONE',  ( -2.445468806185136597E-29, 3.491481338843145583E-15, 1.000000000000000000 ) ) ;
#324 = AXIS2_PLACEMENT_3D ( 'NONE', #206, #205, #1 ) ;
#325 = ADVANCED_FACE ( 'NONE', ( #130 ), #361, .F. ) ;
#326 = CARTESIAN_POINT ( 'NONE',  ( 0.2812499999999997780, -1.999344688650104578E-15, -0.02000000000000006981 ) ) ;
#327 = AXIS2_PLACEMENT_3D ( 'NONE', #232, #320, #8 ) ;
#328 = DIRECTION ( 'NONE',  ( -2.445468806185136597E-29, 3.491481338843145583E-15, 1.000000000000000000 ) ) ;
#329 = ORIENTED_EDGE ( 'NONE', *, *, #292, .F. ) ;
#330 = DIRECTION ( 'NONE',  ( -2.445468806185136877E-29, 3.491481338843145188E-15, 1.000000000000000000 ) ) ;
#331 = ORIENTED_EDGE ( 'NONE', *, *, #109, .T. ) ;
#332 = APPROVAL ( #113, 'UNSPECIFIED' ) ;
#333 = ORIENTED_EDGE ( 'NONE', *, *, #260, .T. ) ;
#334 = CONICAL_SURFACE ( 'NONE', #342, 0.2812499999999997780, 0.7853981633974480570 ) ;
#335 = PERSON_AND_ORGANIZATION ( #212, #12 ) ;
#336 = ORIENTED_EDGE ( 'NONE', *, *, #153, .F. ) ;
#337 = DATE_AND_TIME ( #285, #17 ) ;
#338 = VERTEX_POINT ( 'NONE', #277 ) ;
#339 = CC_DESIGN_PERSON_AND_ORGANIZATION_ASSIGNMENT ( #115, #56, ( #275 ) ) ;
#340 = SHAPE_DEFINITION_REPRESENTATION ( #10, #20 ) ;
#341 = DIRECTION ( 'NONE',  ( -1.000000000000000000, 6.982962677686265922E-15, -4.876176775795935793E-29 ) ) ;
#342 = AXIS2_PLACEMENT_3D ( 'NONE', #210, #256, #191 ) ;
#343 = CARTESIAN_POINT ( 'NONE',  ( 1.963958253099320494E-15, 0.2812499999999917288, -2.375000000000000444 ) ) ;
#344 = DIRECTION ( 'NONE',  ( 1.000000000000000000, -6.982962677686268288E-15, 4.876176775795935793E-29 ) ) ;
#345 = ADVANCED_FACE ( 'NONE', ( #213 ), #243, .T. ) ;
#346 = CARTESIAN_POINT ( 'NONE',  ( 1.824298999545535127E-15, 0.2612499999999997047, -9.121494997727707190E-16 ) ) ;
#347 = CARTESIAN_POINT ( 'NONE',  ( 0.2812500000000000000, -1.025622643285173184E-14, -2.374999999999999556 ) ) ;
#348 = DIRECTION ( 'NONE',  ( -2.445468806185136597E-29, 3.491481338843145583E-15, 1.000000000000000000 ) ) ;
#349 = CC_DESIGN_PERSON_AND_ORGANIZATION_ASSIGNMENT ( #290, #178, ( #97 ) ) ;
#350 = ADVANCED_FACE ( 'NONE', ( #219 ), #157, .T. ) ;
#351 = VECTOR ( 'NONE', #154, 39.37007874015748143 ) ;
#352 = DIRECTION ( 'NONE',  ( 1.000000000000000000, -6.982962677686268288E-15, 0.000000000000000000 ) ) ;
#353 = DIMENSIONAL_EXPONENTS ( 1.000000000000000000, 0.000000000000000000, 0.000000000000000000, 0.000000000000000000, 0.000000000000000000, 0.000000000000000000, 0.000000000000000000 ) ;
#354 = CARTESIAN_POINT ( 'NONE',  ( 0.000000000000000000, 0.000000000000000000, 0.000000000000000000 ) ) ;
#355 = AXIS2_PLACEMENT_3D ( 'NONE', #163, #69, #16 ) ;
#356 = SECURITY_CLASSIFICATION ( '', '', #257 ) ;
#357 = APPROVAL_PERSON_ORGANIZATION ( #200, #117, #366 ) ;
#358 = EDGE_LOOP ( 'NONE', ( #114, #88 ) ) ;
#359 =( LENGTH_UNIT ( ) NAMED_UNIT ( * ) SI_UNIT ( $, .METRE. ) );
#360 = ORIENTED_EDGE ( 'NONE', *, *, #41, .F. ) ;
#361 = PLANE ( 'NONE',  #123 ) ;
#362 = VERTEX_POINT ( 'NONE', #68 ) ;
#363 = ORIENTED_EDGE ( 'NONE', *, *, #54, .F. ) ;
#364 = AXIS2_PLACEMENT_3D ( 'NONE', #346, #317, #341 ) ;
#365 = ORIENTED_EDGE ( 'NONE', *, *, #170, .T. ) ;
#366 = APPROVAL_ROLE ( '' ) ;
ENDSEC;
END-ISO-10303-21;
