ISO-10303-21;
HEADER;
FILE_DESCRIPTION (( 'STEP AP203' ),
    '1' );
FILE_NAME ('40178.STEP',
    '2024-04-10T11:40:54',
    ( '' ),
    ( '' ),
    'SwSTEP 2.0',
    'SolidWorks 2023',
    '' );
FILE_SCHEMA (( 'CONFIG_CONTROL_DESIGN' ));
ENDSEC;

DATA;
#1 = PERSON_AND_ORGANIZATION ( #388, #286 ) ;
#2 = DIRECTION ( 'NONE',  ( -6.982962677686265133E-15, -1.000000000000000000, 3.865640291020607122E-15 ) ) ;
#3 = CARTESIAN_POINT ( 'NONE',  ( 0.000000000000000000, 0.000000000000000000, 0.000000000000000000 ) ) ;
#4 = ORIENTED_EDGE ( 'NONE', *, *, #89, .F. ) ;
#5 = CIRCLE ( 'NONE', #242, 0.3543499999999999983 ) ;
#6 = PERSON_AND_ORGANIZATION_ROLE ( 'design_owner' ) ;
#7 = CALENDAR_DATE ( 2024, 10, 4 ) ;
#8 = DIRECTION ( 'NONE',  ( -2.446476163683758949E-29, 3.490038745569890115E-15, 1.000000000000000000 ) ) ;
#9 = CARTESIAN_POINT ( 'NONE',  ( 2.510702756808373153E-15, 0.3533499999999914487, -2.440900000000001402 ) ) ;
#10 = PERSON_AND_ORGANIZATION ( #388, #286 ) ;
#11 = DIRECTION ( 'NONE',  ( 1.000000000000000000, -6.982962677686266711E-15, 0.000000000000000000 ) ) ;
#12 = AXIS2_PLACEMENT_3D ( 'NONE', #3, #14, #44 ) ;
#13 = EDGE_CURVE ( 'NONE', #403, #120, #352, .T. ) ;
#14 = DIRECTION ( 'NONE',  ( -2.445468806185136597E-29, 3.491481338843145583E-15, 1.000000000000000000 ) ) ;
#15 = ADVANCED_FACE ( 'NONE', ( #100 ), #64, .F. ) ;
#16 = AXIS2_PLACEMENT_3D ( 'NONE', #36, #102, #296 ) ;
#17 = EDGE_LOOP ( 'NONE', ( #218, #152, #189, #311 ) ) ;
#18 = EDGE_LOOP ( 'NONE', ( #20, #404, #247, #4 ) ) ;
#19 = ORIENTED_EDGE ( 'NONE', *, *, #295, .F. ) ;
#20 = ORIENTED_EDGE ( 'NONE', *, *, #331, .F. ) ;
#21 = SECURITY_CLASSIFICATION ( '', '', #236 ) ;
#22 = CC_DESIGN_PERSON_AND_ORGANIZATION_ASSIGNMENT ( #394, #6, ( #281 ) ) ;
#23 = PLANE ( 'NONE',  #249 ) ;
#24 = ORIENTED_EDGE ( 'NONE', *, *, #176, .T. ) ;
#25 = CYLINDRICAL_SURFACE ( 'NONE', #373, 0.3543500000000001648 ) ;
#26 = APPLICATION_CONTEXT ( 'configuration controlled 3d designs of mechanical parts and assemblies' ) ;
#27 = FACE_OUTER_BOUND ( 'NONE', #122, .T. ) ;
#28 = ADVANCED_FACE ( 'NONE', ( #324 ), #66, .T. ) ;
#29 = AXIS2_PLACEMENT_3D ( 'NONE', #321, #129, #92 ) ;
#30 = DIRECTION ( 'NONE',  ( -2.446476163683758949E-29, 3.490038745569890509E-15, 1.000000000000000000 ) ) ;
#31 = DIRECTION ( 'NONE',  ( -7.105427357601001070E-15, -1.000000000000000000, 0.000000000000000000 ) ) ;
#32 = CARTESIAN_POINT ( 'NONE',  ( 4.892952327367537937E-31, -6.980077491139809269E-17, -0.02000000000000008021 ) ) ;
#33 = DIRECTION ( 'NONE',  ( -2.446476163683758669E-29, 3.490038745569890115E-15, 1.000000000000000000 ) ) ;
#34 = DATE_TIME_ROLE ( 'classification_date' ) ;
#35 = APPROVAL_ROLE ( '' ) ;
#36 = CARTESIAN_POINT ( 'NONE',  ( 5.971603667935686797E-29, -8.518835574061544447E-15, -2.440900000000000070 ) ) ;
#37 = CARTESIAN_POINT ( 'NONE',  ( 8.761258818479179833E-29, -1.250875561860639532E-14, -3.582650000000000112 ) ) ;
#38 = ADVANCED_FACE ( 'NONE', ( #357 ), #355, .T. ) ;
#39 = APPROVAL_DATE_TIME ( #333, #241 ) ;
#40 = CALENDAR_DATE ( 2024, 10, 4 ) ;
#41 = APPROVAL ( #271, 'UNSPECIFIED' ) ;
#42 = AXIS2_PLACEMENT_3D ( 'NONE', #156, #54, #262 ) ;
#43 = MANIFOLD_SOLID_BREP ( 'Body-Move/Copy2[2]', #133 ) ;
#44 = DIRECTION ( 'NONE',  ( 1.000000000000000000, -6.982962677686266711E-15, 4.876176775795935793E-29 ) ) ;
#45 = APPLICATION_CONTEXT ( 'configuration controlled 3d designs of mechanical parts and assemblies' ) ;
#46 = ORIENTED_EDGE ( 'NONE', *, *, #208, .T. ) ;
#47 = VECTOR ( 'NONE', #251, 39.37007874015748143 ) ;
#48 = VECTOR ( 'NONE', #109, 39.37007874015748143 ) ;
#49 = ORIENTED_EDGE ( 'NONE', *, *, #13, .F. ) ;
#50 = ADVANCED_FACE ( 'NONE', ( #244 ), #309, .T. ) ;
#51 = ORIENTED_EDGE ( 'NONE', *, *, #159, .T. ) ;
#52 = ADVANCED_FACE ( 'NONE', ( #125 ), #23, .F. ) ;
#53 = ORIENTED_EDGE ( 'NONE', *, *, #83, .T. ) ;
#54 = DIRECTION ( 'NONE',  ( 2.446476163683758949E-29, -3.490038745569890509E-15, -1.000000000000000000 ) ) ;
#55 = AXIS2_PLACEMENT_3D ( 'NONE', #360, #33, #270 ) ;
#56 = AXIS2_PLACEMENT_3D ( 'NONE', #272, #71, #278 ) ;
#57 = CARTESIAN_POINT ( 'NONE',  ( -0.3543499999999999983, 2.517808184165914997E-15, -1.743024649231826066E-29 ) ) ;
#58 = VERTEX_POINT ( 'NONE', #259 ) ;
#59 = EDGE_CURVE ( 'NONE', #402, #312, #408, .T. ) ;
#60 = CARTESIAN_POINT ( 'NONE',  ( 0.000000000000000000, 0.000000000000000000, 0.000000000000000000 ) ) ;
#61 = CARTESIAN_POINT ( 'NONE',  ( 2.474412824838128694E-15, 0.3543499999999999428, -0.02000000000000131881 ) ) ;
#62 = DIRECTION ( 'NONE',  ( 1.000000000000000000, -6.982962677686266711E-15, 0.000000000000000000 ) ) ;
#63 = DIRECTION ( 'NONE',  ( 6.982962677686265922E-15, 1.000000000000000000, -3.493350140056777702E-15 ) ) ;
#64 = PLANE ( 'NONE',  #166 ) ;
#65 = LENGTH_MEASURE_WITH_UNIT ( LENGTH_MEASURE( 0.02539999999999999897 ), #203 );
#66 = SPHERICAL_SURFACE ( 'NONE', #178, 0.3543500000000002204 ) ;
#67 = APPROVAL_ROLE ( '' ) ;
#68 = DIRECTION ( 'NONE',  ( -2.446476163683758949E-29, 3.490038745569890509E-15, 1.000000000000000000 ) ) ;
#69 = DATE_AND_TIME ( #391, #243 ) ;
#70 = CIRCLE ( 'NONE', #95, 0.3543499999999999428 ) ;
#71 = DIRECTION ( 'NONE',  ( -2.445468806185136597E-29, 3.491481338843145583E-15, 1.000000000000000000 ) ) ;
#72 = PLANE ( 'NONE',  #55 ) ;
#73 = PERSON_AND_ORGANIZATION_ROLE ( 'creator' ) ;
#74 = EDGE_CURVE ( 'NONE', #120, #260, #409, .T. ) ;
#75 = FACE_OUTER_BOUND ( 'NONE', #149, .T. ) ;
#76 = AXIS2_PLACEMENT_3D ( 'NONE', #184, #190, #222 ) ;
#77 = ADVANCED_FACE ( 'NONE', ( #256 ), #342, .T. ) ;
#78 = ORIENTED_EDGE ( 'NONE', *, *, #258, .T. ) ;
#79 = ORIENTED_EDGE ( 'NONE', *, *, #295, .T. ) ;
#80 = AXIS2_PLACEMENT_3D ( 'NONE', #87, #412, #63 ) ;
#81 = APPROVAL_PERSON_ORGANIZATION ( #328, #241, #35 ) ;
#82 = ORIENTED_EDGE ( 'NONE', *, *, #128, .F. ) ;
#83 = EDGE_CURVE ( 'NONE', #402, #164, #227, .T. ) ;
#84 = ORIENTED_EDGE ( 'NONE', *, *, #170, .T. ) ;
#85 = CARTESIAN_POINT ( 'NONE',  ( 8.761258818479179833E-29, -1.250875561860639532E-14, -3.582650000000000112 ) ) ;
#86 = VERTEX_POINT ( 'NONE', #289 ) ;
#87 = CARTESIAN_POINT ( 'NONE',  ( 4.892952327367537937E-31, -6.980077491139809269E-17, -0.02000000000000008021 ) ) ;
#88 = CIRCLE ( 'NONE', #310, 0.3533499999999999974 ) ;
#89 = EDGE_CURVE ( 'NONE', #164, #402, #275, .T. ) ;
#90 = DIRECTION ( 'NONE',  ( 4.937700262164537787E-15, 0.7071067811865436870, -0.7071067811865513475 ) ) ;
#91 = ORIENTED_EDGE ( 'NONE', *, *, #176, .F. ) ;
#92 = DIRECTION ( 'NONE',  ( -6.982962677686265922E-15, -1.000000000000000000, 3.854731189028165969E-15 ) ) ;
#93 = ORIENTED_EDGE ( 'NONE', *, *, #284, .T. ) ;
#94 = FACE_OUTER_BOUND ( 'NONE', #347, .T. ) ;
#95 = AXIS2_PLACEMENT_3D ( 'NONE', #376, #317, #319 ) ;
#96 = LOCAL_TIME ( 7, 40, 54.00000000000000000, #168 ) ;
#97 = CARTESIAN_POINT ( 'NONE',  ( 5.971603667935686797E-29, -8.518835574061544447E-15, -2.440900000000000070 ) ) ;
#98 = DATE_AND_TIME ( #40, #267 ) ;
#99 = ADVANCED_FACE ( 'NONE', ( #224 ), #25, .T. ) ;
#100 = FACE_OUTER_BOUND ( 'NONE', #268, .T. ) ;
#101 = DATE_AND_TIME ( #134, #158 ) ;
#102 = DIRECTION ( 'NONE',  ( -2.446476163683758949E-29, 3.490038745569890509E-15, 1.000000000000000000 ) ) ;
#103 = APPROVAL_DATE_TIME ( #69, #41 ) ;
#104 = ADVANCED_BREP_SHAPE_REPRESENTATION ( '40178', ( #332, #43, #279 ), #345 ) ;
#105 = EDGE_CURVE ( 'NONE', #374, #253, #407, .T. ) ;
#106 = AXIS2_PLACEMENT_3D ( 'NONE', #254, #349, #348 ) ;
#107 = APPROVAL_STATUS ( 'not_yet_approved' ) ;
#108 = CC_DESIGN_APPROVAL ( #41, ( #21 ) ) ;
#109 = DIRECTION ( 'NONE',  ( -4.851104656540954020E-15, -0.7071067811865485719, -0.7071067811865464625 ) ) ;
#110 = DIRECTION ( 'NONE',  ( -6.982962677686265133E-15, -1.000000000000000000, 3.865640291020607122E-15 ) ) ;
#111 = ADVANCED_FACE ( 'NONE', ( #27 ), #386, .T. ) ;
#112 = EDGE_CURVE ( 'NONE', #215, #374, #396, .T. ) ;
#113 = CIRCLE ( 'NONE', #344, 0.3543499999999999428 ) ;
#114 = DIRECTION ( 'NONE',  ( -2.445468806185136597E-29, 3.491481338843145583E-15, 1.000000000000000000 ) ) ;
#115 = ORIENTED_EDGE ( 'NONE', *, *, #74, .F. ) ;
#116 = ORIENTED_EDGE ( 'NONE', *, *, #350, .F. ) ;
#117 = EDGE_CURVE ( 'NONE', #260, #377, #382, .T. ) ;
#118 = ORIENTED_EDGE ( 'NONE', *, *, #117, .T. ) ;
#119 = CC_DESIGN_DATE_AND_TIME_ASSIGNMENT ( #98, #34, ( #21 ) ) ;
#120 = VERTEX_POINT ( 'NONE', #410 ) ;
#121 = CARTESIAN_POINT ( 'NONE',  ( -2.467429862160382332E-15, -0.3533500000000085461, -2.440899999999998737 ) ) ;
#122 = EDGE_LOOP ( 'NONE', ( #314, #93, #79, #213 ) ) ;
#123 = DIRECTION ( 'NONE',  ( -2.445468806185136597E-29, 3.491481338843145583E-15, 1.000000000000000000 ) ) ;
#124 = ADVANCED_FACE ( 'NONE', ( #94 ), #399, .T. ) ;
#125 = FACE_OUTER_BOUND ( 'NONE', #406, .T. ) ;
#126 = CARTESIAN_POINT ( 'NONE',  ( 2.474412824838187859E-15, 0.3543499999999914496, -2.440900000000001402 ) ) ;
#127 = DIRECTION ( 'NONE',  ( -1.000000000000000000, 7.105427357601001070E-15, -4.926315508542082329E-29 ) ) ;
#128 = EDGE_CURVE ( 'NONE', #86, #58, #226, .T. ) ;
#129 = DIRECTION ( 'NONE',  ( -2.446476163683758949E-29, 3.490038745569890509E-15, 1.000000000000000000 ) ) ;
#130 = DIRECTION ( 'NONE',  ( -1.000000000000000000, 6.982962677686265922E-15, -4.883557194083112340E-29 ) ) ;
#131 = DIRECTION ( 'NONE',  ( -2.445468806185136597E-29, 3.491481338843145583E-15, 1.000000000000000000 ) ) ;
#132 = CARTESIAN_POINT ( 'NONE',  ( -2.362412485532625482E-15, -0.3343499999999997585, 1.426791385416504363E-15 ) ) ;
#133 = CLOSED_SHELL ( 'NONE', ( #179, #99, #111, #124, #50, #245, #195, #15 ) ) ;
#134 = CALENDAR_DATE ( 2024, 10, 4 ) ;
#135 = COORDINATED_UNIVERSAL_TIME_OFFSET ( 5, 0, .BEHIND. ) ;
#136 = CARTESIAN_POINT ( 'NONE',  ( 8.761258818479179833E-29, -1.250875561860639532E-14, -3.582650000000000112 ) ) ;
#137 = FACE_OUTER_BOUND ( 'NONE', #280, .T. ) ;
#138 = COORDINATED_UNIVERSAL_TIME_OFFSET ( 5, 0, .BEHIND. ) ;
#139 = DIRECTION ( 'NONE',  ( 5.024295867789263036E-15, 0.7071067811867189912, 0.7071067811863760433 ) ) ;
#140 = AXIS2_PLACEMENT_3D ( 'NONE', #145, #220, #287 ) ;
#141 = CC_DESIGN_APPROVAL ( #241, ( #329 ) ) ;
#142 = LINE ( 'NONE', #207, #293 ) ;
#143 = EDGE_CURVE ( 'NONE', #374, #215, #219, .T. ) ;
#144 = CONICAL_SURFACE ( 'NONE', #16, 0.3533499999999999974, 0.7853981633976873100 ) ;
#145 = CARTESIAN_POINT ( 'NONE',  ( 0.000000000000000000, 0.000000000000000000, 0.000000000000000000 ) ) ;
#146 = ORIENTED_EDGE ( 'NONE', *, *, #252, .F. ) ;
#147 = EDGE_CURVE ( 'NONE', #283, #402, #150, .T. ) ;
#148 = ORIENTED_EDGE ( 'NONE', *, *, #371, .T. ) ;
#149 = EDGE_LOOP ( 'NONE', ( #24, #246, #369, #375 ) ) ;
#150 = LINE ( 'NONE', #121, #47 ) ;
#151 = AXIS2_PLACEMENT_3D ( 'NONE', #32, #300, #265 ) ;
#152 = ORIENTED_EDGE ( 'NONE', *, *, #89, .T. ) ;
#153 = CARTESIAN_POINT ( 'NONE',  ( -2.474412824838129089E-15, -0.3543500000000001648, 1.236695229492691273E-15 ) ) ;
#154 = ORIENTED_EDGE ( 'NONE', *, *, #105, .T. ) ;
#155 = CARTESIAN_POINT ( 'NONE',  ( 2.517808184165946157E-15, 0.3543499999999917272, -2.439900000000001512 ) ) ;
#156 = CARTESIAN_POINT ( 'NONE',  ( 4.892952327367537937E-31, -6.980077491139809269E-17, -0.02000000000000008021 ) ) ;
#157 = AXIS2_PLACEMENT_3D ( 'NONE', #323, #405, #186 ) ;
#158 = LOCAL_TIME ( 7, 40, 54.00000000000000000, #138 ) ;
#159 = EDGE_CURVE ( 'NONE', #318, #86, #70, .T. ) ;
#160 = DIRECTION ( 'NONE',  ( -6.982962677686265133E-15, -1.000000000000000000, 3.490038745569890509E-15 ) ) ;
#161 = PERSON_AND_ORGANIZATION ( #388, #286 ) ;
#162 = DIRECTION ( 'NONE',  ( 6.982962677686265133E-15, 1.000000000000000000, 0.000000000000000000 ) ) ;
#163 = DESIGN_CONTEXT ( 'detailed design', #45, 'design' ) ;
#164 = VERTEX_POINT ( 'NONE', #155 ) ;
#165 = CARTESIAN_POINT ( 'NONE',  ( 0.000000000000000000, 0.000000000000000000, 0.000000000000000000 ) ) ;
#166 = AXIS2_PLACEMENT_3D ( 'NONE', #231, #198, #194 ) ;
#167 = APPROVAL_PERSON_ORGANIZATION ( #161, #411, #67 ) ;
#168 = COORDINATED_UNIVERSAL_TIME_OFFSET ( 5, 0, .BEHIND. ) ;
#169 = CARTESIAN_POINT ( 'NONE',  ( -2.431017465510341208E-15, -0.3543500000000000538, -0.01999999999999884162 ) ) ;
#170 = EDGE_CURVE ( 'NONE', #58, #377, #335, .T. ) ;
#171 = DIRECTION ( 'NONE',  ( 1.000000000000000000, 0.000000000000000000, 0.000000000000000000 ) ) ;
#172 = DIRECTION ( 'NONE',  ( 1.000000000000000000, -6.982962677686265922E-15, 4.883557194083112340E-29 ) ) ;
#173 = PERSON_AND_ORGANIZATION ( #388, #286 ) ;
#174 = CARTESIAN_POINT ( 'NONE',  ( 4.892952327367537937E-31, -6.980077491139809269E-17, -0.02000000000000008021 ) ) ;
#175 = VECTOR ( 'NONE', #320, 39.37007874015748143 ) ;
#176 = EDGE_CURVE ( 'NONE', #283, #341, #291, .T. ) ;
#177 = ORIENTED_EDGE ( 'NONE', *, *, #183, .T. ) ;
#178 = AXIS2_PLACEMENT_3D ( 'NONE', #327, #130, #228 ) ;
#179 = ADVANCED_FACE ( 'NONE', ( #75 ), #210, .T. ) ;
#180 = ORIENTED_EDGE ( 'NONE', *, *, #170, .F. ) ;
#181 = EDGE_LOOP ( 'NONE', ( #49, #177, #214, #115 ) ) ;
#182 = ORIENTED_EDGE ( 'NONE', *, *, #143, .F. ) ;
#183 = EDGE_CURVE ( 'NONE', #403, #318, #366, .T. ) ;
#184 = CARTESIAN_POINT ( 'NONE',  ( -6.358316463029132110E-45, 9.070503584695884986E-31, 2.598969308352122060E-16 ) ) ;
#185 = ORIENTED_EDGE ( 'NONE', *, *, #159, .F. ) ;
#186 = DIRECTION ( 'NONE',  ( -6.982962677686264344E-15, -1.000000000000000000, 3.490038745569890509E-15 ) ) ;
#187 = CARTESIAN_POINT ( 'NONE',  ( 8.430139040565293586E-29, -1.298293798674644404E-14, -3.582650000000000112 ) ) ;
#188 = DIRECTION ( 'NONE',  ( -1.000000000000000000, 6.982962677686265922E-15, -4.883557194083112340E-29 ) ) ;
#189 = ORIENTED_EDGE ( 'NONE', *, *, #59, .T. ) ;
#190 = DIRECTION ( 'NONE',  ( -2.446476163683758949E-29, 3.490038745569890509E-15, 1.000000000000000000 ) ) ;
#191 = EDGE_CURVE ( 'NONE', #253, #312, #5, .T. ) ;
#192 = AXIS2_PLACEMENT_3D ( 'NONE', #395, #114, #261 ) ;
#193 = DIRECTION ( 'NONE',  ( -2.445468806185136877E-29, 3.491481338843145188E-15, 1.000000000000000000 ) ) ;
#194 = DIRECTION ( 'NONE',  ( 6.982962677686265922E-15, 1.000000000000000000, -3.490038745569890115E-15 ) ) ;
#195 = ADVANCED_FACE ( 'NONE', ( #209 ), #72, .F. ) ;
#196 =( NAMED_UNIT ( * ) PLANE_ANGLE_UNIT ( ) SI_UNIT ( $, .RADIAN. ) );
#197 = DIRECTION ( 'NONE',  ( -2.446476163683758949E-29, 3.490038745569890509E-15, 1.000000000000000000 ) ) ;
#198 = DIRECTION ( 'NONE',  ( 2.446476163683758669E-29, -3.490038745569890115E-15, -1.000000000000000000 ) ) ;
#199 = DATE_TIME_ROLE ( 'creation_date' ) ;
#200 = LINE ( 'NONE', #169, #48 ) ;
#201 = AXIS2_PLACEMENT_3D ( 'NONE', #356, #172, #162 ) ;
#202 = CC_DESIGN_SECURITY_CLASSIFICATION ( #21, ( #329 ) ) ;
#203 =( LENGTH_UNIT ( ) NAMED_UNIT ( * ) SI_UNIT ( $, .METRE. ) );
#204 = CARTESIAN_POINT ( 'NONE',  ( -2.431017465510341208E-15, -0.3543500000000000538, -0.01999999999999884162 ) ) ;
#205 = COORDINATED_UNIVERSAL_TIME_OFFSET ( 5, 0, .BEHIND. ) ;
#206 = CARTESIAN_POINT ( 'NONE',  ( -2.474412824838070318E-15, -0.3543500000000088246, -2.439899999999998847 ) ) ;
#207 = CARTESIAN_POINT ( 'NONE',  ( 2.517808184165915391E-15, 0.3543500000000001648, -1.236695229492691273E-15 ) ) ;
#208 = EDGE_CURVE ( 'NONE', #86, #120, #113, .T. ) ;
#209 = FACE_OUTER_BOUND ( 'NONE', #343, .T. ) ;
#210 = CONICAL_SURFACE ( 'NONE', #316, 0.3533499999999999974, 0.7853981633976873100 ) ;
#211 = AXIS2_PLACEMENT_3D ( 'NONE', #97, #230, #325 ) ;
#212 = CIRCLE ( 'NONE', #192, 0.3543499999999999983 ) ;
#213 = ORIENTED_EDGE ( 'NONE', *, *, #105, .F. ) ;
#214 = ORIENTED_EDGE ( 'NONE', *, *, #371, .F. ) ;
#215 = VERTEX_POINT ( 'NONE', #132 ) ;
#216 = EDGE_LOOP ( 'NONE', ( #315, #383, #250, #185 ) ) ;
#217 = DIRECTION ( 'NONE',  ( 1.000000000000000000, -6.982962677686266711E-15, 0.000000000000000000 ) ) ;
#218 = ORIENTED_EDGE ( 'NONE', *, *, #258, .F. ) ;
#219 = CIRCLE ( 'NONE', #157, 0.3343499999999997585 ) ;
#220 = DIRECTION ( 'NONE',  ( -2.446476163683758949E-29, 3.490038745569890509E-15, 1.000000000000000000 ) ) ;
#221 = CIRCLE ( 'NONE', #151, 0.3543499999999999983 ) ;
#222 = DIRECTION ( 'NONE',  ( -6.982962677686264344E-15, -1.000000000000000000, 3.490038745569890509E-15 ) ) ;
#223 = CC_DESIGN_PERSON_AND_ORGANIZATION_ASSIGNMENT ( #173, #73, ( #329 ) ) ;
#224 = FACE_OUTER_BOUND ( 'NONE', #248, .T. ) ;
#225 =( CONVERSION_BASED_UNIT ( 'INCH', #65 ) LENGTH_UNIT ( ) NAMED_UNIT ( #372 ) );
#226 = LINE ( 'NONE', #57, #285 ) ;
#227 = CIRCLE ( 'NONE', #29, 0.3543500000000002759 ) ;
#228 = DIRECTION ( 'NONE',  ( 6.982962677686265922E-15, 1.000000000000000000, -3.083784951222533328E-15 ) ) ;
#229 = ORIENTED_EDGE ( 'NONE', *, *, #59, .F. ) ;
#230 = DIRECTION ( 'NONE',  ( -2.446476163683758949E-29, 3.490038745569890509E-15, 1.000000000000000000 ) ) ;
#231 = CARTESIAN_POINT ( 'NONE',  ( 2.334753571284400914E-15, 0.3343499999999997585, -1.036945989163685906E-15 ) ) ;
#232 = COORDINATED_UNIVERSAL_TIME_OFFSET ( 5, 0, .BEHIND. ) ;
#233 = FACE_OUTER_BOUND ( 'NONE', #18, .T. ) ;
#234 = SHAPE_DEFINITION_REPRESENTATION ( #313, #104 ) ;
#235 = DIRECTION ( 'NONE',  ( 1.000000000000000000, -6.982962677686265922E-15, 0.000000000000000000 ) ) ;
#236 = SECURITY_CLASSIFICATION_LEVEL ( 'unclassified' ) ;
#237 = APPROVAL_PERSON_ORGANIZATION ( #298, #41, #365 ) ;
#238 = DATE_AND_TIME ( #7, #379 ) ;
#239 = DIRECTION ( 'NONE',  ( -2.445468806185136597E-29, 3.491481338843145583E-15, 1.000000000000000000 ) ) ;
#240 = CARTESIAN_POINT ( 'NONE',  ( 2.474412824838214680E-15, 0.3543499999999872863, -3.582650000000001000 ) ) ;
#241 = APPROVAL ( #107, 'UNSPECIFIED' ) ;
#242 = AXIS2_PLACEMENT_3D ( 'NONE', #174, #197, #302 ) ;
#243 = LOCAL_TIME ( 7, 40, 54.00000000000000000, #205 ) ;
#244 = FACE_OUTER_BOUND ( 'NONE', #17, .T. ) ;
#245 = ADVANCED_FACE ( 'NONE', ( #233 ), #144, .T. ) ;
#246 = ORIENTED_EDGE ( 'NONE', *, *, #331, .T. ) ;
#247 = ORIENTED_EDGE ( 'NONE', *, *, #147, .T. ) ;
#248 = EDGE_LOOP ( 'NONE', ( #53, #78, #19, #229 ) ) ;
#249 = AXIS2_PLACEMENT_3D ( 'NONE', #126, #353, #292 ) ;
#250 = ORIENTED_EDGE ( 'NONE', *, *, #208, .F. ) ;
#251 = DIRECTION ( 'NONE',  ( -4.937700262165728178E-15, -0.7071067811867141062, 0.7071067811863809283 ) ) ;
#252 = EDGE_CURVE ( 'NONE', #341, #283, #88, .T. ) ;
#253 = VERTEX_POINT ( 'NONE', #305 ) ;
#254 = CARTESIAN_POINT ( 'NONE',  ( 5.969157191772003720E-29, -8.515345535315975699E-15, -2.439900000000000180 ) ) ;
#255 = VECTOR ( 'NONE', #90, 39.37007874015748143 ) ;
#256 = FACE_OUTER_BOUND ( 'NONE', #216, .T. ) ;
#257 = ORIENTED_EDGE ( 'NONE', *, *, #117, .F. ) ;
#258 = EDGE_CURVE ( 'NONE', #164, #253, #142, .T. ) ;
#259 = CARTESIAN_POINT ( 'NONE',  ( -0.3543499999999999983, -7.997748025128399541E-15, -2.440900000000000070 ) ) ;
#260 = VERTEX_POINT ( 'NONE', #364 ) ;
#261 = DIRECTION ( 'NONE',  ( 1.000000000000000000, -6.982962677686265922E-15, 0.000000000000000000 ) ) ;
#262 = DIRECTION ( 'NONE',  ( 6.982962677686265922E-15, 1.000000000000000000, -3.493350140056777702E-15 ) ) ;
#263 = ORIENTED_EDGE ( 'NONE', *, *, #284, .F. ) ;
#264 = CARTESIAN_POINT ( 'NONE',  ( 2.404583198061265001E-15, 0.3343499999999997585, -9.069975237460797542E-16 ) ) ;
#265 = DIRECTION ( 'NONE',  ( -6.982962677686265922E-15, -1.000000000000000000, 3.493350140056777702E-15 ) ) ;
#266 = VECTOR ( 'NONE', #346, 39.37007874015748143 ) ;
#267 = LOCAL_TIME ( 7, 40, 54.00000000000000000, #135 ) ;
#268 = EDGE_LOOP ( 'NONE', ( #282, #288 ) ) ;
#269 = APPROVAL_DATE_TIME ( #101, #411 ) ;
#270 = DIRECTION ( 'NONE',  ( -6.982962677686265922E-15, -1.000000000000000000, 3.490038745569890115E-15 ) ) ;
#271 = APPROVAL_STATUS ( 'not_yet_approved' ) ;
#272 = CARTESIAN_POINT ( 'NONE',  ( 0.000000000000000000, 0.000000000000000000, 0.000000000000000000 ) ) ;
#273 = CARTESIAN_POINT ( 'NONE',  ( 2.514255470487174446E-15, 0.3533499999999914487, -2.440900000000001402 ) ) ;
#274 = PERSON_AND_ORGANIZATION ( #388, #286 ) ;
#275 = CIRCLE ( 'NONE', #106, 0.3543500000000002759 ) ;
#276 = AXIS2_PLACEMENT_3D ( 'NONE', #136, #131, #62 ) ;
#277 = CC_DESIGN_PERSON_AND_ORGANIZATION_ASSIGNMENT ( #10, #334, ( #21 ) ) ;
#278 = DIRECTION ( 'NONE',  ( 1.000000000000000000, -6.982962677686266711E-15, 4.876176775795935793E-29 ) ) ;
#279 = AXIS2_PLACEMENT_3D ( 'NONE', #165, #297, #171 ) ;
#280 = EDGE_LOOP ( 'NONE', ( #51, #370, #116, #257, #148 ) ) ;
#281 = PRODUCT ( '40178', '40178', '', ( #322 ) ) ;
#282 = ORIENTED_EDGE ( 'NONE', *, *, #143, .T. ) ;
#283 = VERTEX_POINT ( 'NONE', #358 ) ;
#284 = EDGE_CURVE ( 'NONE', #215, #312, #200, .T. ) ;
#285 = VECTOR ( 'NONE', #193, 39.37007874015748143 ) ;
#286 = ORGANIZATION ( 'UNSPECIFIED', 'UNSPECIFIED', '' ) ;
#287 = DIRECTION ( 'NONE',  ( -6.982962677686265133E-15, -1.000000000000000000, 3.490038745569890509E-15 ) ) ;
#288 = ORIENTED_EDGE ( 'NONE', *, *, #112, .T. ) ;
#289 = CARTESIAN_POINT ( 'NONE',  ( -0.3543499999999999428, -7.997748025128402696E-15, -3.582650000000000112 ) ) ;
#290 = CARTESIAN_POINT ( 'NONE',  ( 5.969144809017300159E-29, -8.522356799982234543E-15, -2.440900000000000070 ) ) ;
#291 = CIRCLE ( 'NONE', #211, 0.3533499999999999974 ) ;
#292 = DIRECTION ( 'NONE',  ( -1.000000000000000000, 6.982962677686265922E-15, -4.876176775795935793E-29 ) ) ;
#293 = VECTOR ( 'NONE', #8, 39.37007874015748143 ) ;
#294 = CARTESIAN_POINT ( 'NONE',  ( 8.430139040565293586E-29, -1.298293798674644404E-14, -3.582650000000000112 ) ) ;
#295 = EDGE_CURVE ( 'NONE', #312, #253, #221, .T. ) ;
#296 = DIRECTION ( 'NONE',  ( -6.982962677686265133E-15, -1.000000000000000000, 3.865640291020607122E-15 ) ) ;
#297 = DIRECTION ( 'NONE',  ( 0.000000000000000000, 0.000000000000000000, 1.000000000000000000 ) ) ;
#298 = PERSON_AND_ORGANIZATION ( #388, #286 ) ;
#299 = AXIS2_PLACEMENT_3D ( 'NONE', #85, #123, #217 ) ;
#300 = DIRECTION ( 'NONE',  ( -2.446476163683758949E-29, 3.490038745569890509E-15, 1.000000000000000000 ) ) ;
#301 = APPLICATION_PROTOCOL_DEFINITION ( 'international standard', 'config_control_design', 1994, #26 ) ;
#302 = DIRECTION ( 'NONE',  ( -6.982962677686265922E-15, -1.000000000000000000, 3.493350140056777702E-15 ) ) ;
#303 = CC_DESIGN_PERSON_AND_ORGANIZATION_ASSIGNMENT ( #1, #389, ( #367 ) ) ;
#304 = APPROVAL_STATUS ( 'not_yet_approved' ) ;
#305 = CARTESIAN_POINT ( 'NONE',  ( 2.474412824838128694E-15, 0.3543499999999999428, -0.02000000000000131881 ) ) ;
#306 = AXIS2_PLACEMENT_3D ( 'NONE', #294, #188, #380 ) ;
#307 = VECTOR ( 'NONE', #139, 39.37007874015748143 ) ;
#308 = ADVANCED_FACE ( 'NONE', ( #137 ), #397, .T. ) ;
#309 = CYLINDRICAL_SURFACE ( 'NONE', #140, 0.3543500000000001648 ) ;
#310 = AXIS2_PLACEMENT_3D ( 'NONE', #393, #68, #2 ) ;
#311 = ORIENTED_EDGE ( 'NONE', *, *, #191, .F. ) ;
#312 = VERTEX_POINT ( 'NONE', #204 ) ;
#313 = PRODUCT_DEFINITION_SHAPE ( 'NONE', 'NONE',  #367 ) ;
#314 = ORIENTED_EDGE ( 'NONE', *, *, #112, .F. ) ;
#315 = ORIENTED_EDGE ( 'NONE', *, *, #183, .F. ) ;
#316 = AXIS2_PLACEMENT_3D ( 'NONE', #387, #363, #110 ) ;
#317 = DIRECTION ( 'NONE',  ( -2.445468806185136597E-29, 3.491481338843145583E-15, 1.000000000000000000 ) ) ;
#318 = VERTEX_POINT ( 'NONE', #240 ) ;
#319 = DIRECTION ( 'NONE',  ( 1.000000000000000000, -6.982962677686266711E-15, 0.000000000000000000 ) ) ;
#320 = DIRECTION ( 'NONE',  ( -2.446476163683758949E-29, 3.490038745569890115E-15, 1.000000000000000000 ) ) ;
#321 = CARTESIAN_POINT ( 'NONE',  ( 5.969157191772003720E-29, -8.515345535315975699E-15, -2.439900000000000180 ) ) ;
#322 = MECHANICAL_CONTEXT ( 'NONE', #26, 'mechanical' ) ;
#323 = CARTESIAN_POINT ( 'NONE',  ( -6.358316463029132110E-45, 9.070503584695884986E-31, 2.598969308352122060E-16 ) ) ;
#324 = FACE_OUTER_BOUND ( 'NONE', #181, .T. ) ;
#325 = DIRECTION ( 'NONE',  ( -6.982962677686265133E-15, -1.000000000000000000, 3.865640291020607122E-15 ) ) ;
#326 = PERSON_AND_ORGANIZATION_ROLE ( 'design_supplier' ) ;
#327 = CARTESIAN_POINT ( 'NONE',  ( 8.430139040565293586E-29, -1.298293798674644404E-14, -3.582650000000000112 ) ) ;
#328 = PERSON_AND_ORGANIZATION ( #388, #286 ) ;
#329 = PRODUCT_DEFINITION_FORMATION_WITH_SPECIFIED_SOURCE ( 'ANY', '', #281, .NOT_KNOWN. ) ;
#330 = LINE ( 'NONE', #9, #307 ) ;
#331 = EDGE_CURVE ( 'NONE', #341, #164, #330, .T. ) ;
#332 = MANIFOLD_SOLID_BREP ( 'Body-Move/Copy2[1]', #361 ) ;
#333 = DATE_AND_TIME ( #362, #96 ) ;
#334 = PERSON_AND_ORGANIZATION_ROLE ( 'classification_officer' ) ;
#335 = CIRCLE ( 'NONE', #337, 0.3543499999999999983 ) ;
#336 = ORIENTED_EDGE ( 'NONE', *, *, #350, .T. ) ;
#337 = AXIS2_PLACEMENT_3D ( 'NONE', #290, #239, #235 ) ;
#338 = ORIENTED_EDGE ( 'NONE', *, *, #191, .T. ) ;
#339 = CC_DESIGN_PERSON_AND_ORGANIZATION_ASSIGNMENT ( #274, #326, ( #329 ) ) ;
#340 = EDGE_LOOP ( 'NONE', ( #82, #46, #401, #118, #180 ) ) ;
#341 = VERTEX_POINT ( 'NONE', #273 ) ;
#342 = SPHERICAL_SURFACE ( 'NONE', #306, 0.3543500000000002204 ) ;
#343 = EDGE_LOOP ( 'NONE', ( #91, #146 ) ) ;
#344 = AXIS2_PLACEMENT_3D ( 'NONE', #37, #390, #11 ) ;
#345 =( GEOMETRIC_REPRESENTATION_CONTEXT ( 3 ) GLOBAL_UNCERTAINTY_ASSIGNED_CONTEXT ( ( #398 ) ) GLOBAL_UNIT_ASSIGNED_CONTEXT ( ( #225, #196, #359 ) ) REPRESENTATION_CONTEXT ( 'NONE', 'WORKASPACE' ) );
#346 = DIRECTION ( 'NONE',  ( -2.445468806185136877E-29, 3.491481338843145188E-15, 1.000000000000000000 ) ) ;
#347 = EDGE_LOOP ( 'NONE', ( #263, #182, #154, #338 ) ) ;
#348 = DIRECTION ( 'NONE',  ( -6.982962677686265922E-15, -1.000000000000000000, 3.854731189028165969E-15 ) ) ;
#349 = DIRECTION ( 'NONE',  ( -2.446476163683758949E-29, 3.490038745569890509E-15, 1.000000000000000000 ) ) ;
#350 = EDGE_CURVE ( 'NONE', #377, #58, #212, .T. ) ;
#351 = APPLICATION_PROTOCOL_DEFINITION ( 'international standard', 'config_control_design', 1994, #45 ) ;
#352 = CIRCLE ( 'NONE', #384, 0.3543500000000002204 ) ;
#353 = DIRECTION ( 'NONE',  ( 2.438088387897960049E-29, -3.491481338843145188E-15, -1.000000000000000000 ) ) ;
#354 = CC_DESIGN_DATE_AND_TIME_ASSIGNMENT ( #238, #199, ( #367 ) ) ;
#355 = CYLINDRICAL_SURFACE ( 'NONE', #12, 0.3543499999999999983 ) ;
#356 = CARTESIAN_POINT ( 'NONE',  ( 8.430139040565293586E-29, -1.298293798674644404E-14, -3.582650000000000112 ) ) ;
#357 = FACE_OUTER_BOUND ( 'NONE', #340, .T. ) ;
#358 = CARTESIAN_POINT ( 'NONE',  ( -2.467429862160382332E-15, -0.3533500000000085461, -2.440899999999998737 ) ) ;
#359 =( NAMED_UNIT ( * ) SI_UNIT ( $, .STERADIAN. ) SOLID_ANGLE_UNIT ( ) );
#360 = CARTESIAN_POINT ( 'NONE',  ( 5.971603667935686797E-29, -8.518835574061546025E-15, -2.440900000000000070 ) ) ;
#361 = CLOSED_SHELL ( 'NONE', ( #308, #77, #28, #52, #38 ) ) ;
#362 = CALENDAR_DATE ( 2024, 10, 4 ) ;
#363 = DIRECTION ( 'NONE',  ( -2.446476163683758949E-29, 3.490038745569890509E-15, 1.000000000000000000 ) ) ;
#364 = CARTESIAN_POINT ( 'NONE',  ( 0.3543499999999999428, -1.298996903413244560E-14, -3.582650000000000112 ) ) ;
#365 = APPROVAL_ROLE ( '' ) ;
#366 = CIRCLE ( 'NONE', #201, 0.3543500000000002204 ) ;
#367 = PRODUCT_DEFINITION ( 'UNKNOWN', '', #329, #163 ) ;
#368 = CIRCLE ( 'NONE', #276, 0.3543499999999999428 ) ;
#369 = ORIENTED_EDGE ( 'NONE', *, *, #83, .F. ) ;
#370 = ORIENTED_EDGE ( 'NONE', *, *, #128, .T. ) ;
#371 = EDGE_CURVE ( 'NONE', #260, #318, #368, .T. ) ;
#372 = DIMENSIONAL_EXPONENTS ( 1.000000000000000000, 0.000000000000000000, 0.000000000000000000, 0.000000000000000000, 0.000000000000000000, 0.000000000000000000, 0.000000000000000000 ) ;
#373 = AXIS2_PLACEMENT_3D ( 'NONE', #60, #30, #160 ) ;
#374 = VERTEX_POINT ( 'NONE', #264 ) ;
#375 = ORIENTED_EDGE ( 'NONE', *, *, #147, .F. ) ;
#376 = CARTESIAN_POINT ( 'NONE',  ( 8.761258818479179833E-29, -1.250875561860639532E-14, -3.582650000000000112 ) ) ;
#377 = VERTEX_POINT ( 'NONE', #385 ) ;
#378 = CARTESIAN_POINT ( 'NONE',  ( 0.3543499999999999983, -2.474412824838128694E-15, 1.727873240503289749E-29 ) ) ;
#379 = LOCAL_TIME ( 7, 40, 54.00000000000000000, #232 ) ;
#380 = DIRECTION ( 'NONE',  ( 6.982962677686265922E-15, 1.000000000000000000, -3.083784951222533328E-15 ) ) ;
#381 = PRODUCT_RELATED_PRODUCT_CATEGORY ( 'detail', '', ( #281 ) ) ;
#382 = LINE ( 'NONE', #378, #266 ) ;
#383 = ORIENTED_EDGE ( 'NONE', *, *, #13, .T. ) ;
#384 = AXIS2_PLACEMENT_3D ( 'NONE', #187, #127, #31 ) ;
#385 = CARTESIAN_POINT ( 'NONE',  ( 0.3543499999999999983, -1.099676962482036284E-14, -2.440900000000000070 ) ) ;
#386 = CONICAL_SURFACE ( 'NONE', #42, 0.3543499999999999983, 0.7853981633974463916 ) ;
#387 = CARTESIAN_POINT ( 'NONE',  ( 5.971603667935686797E-29, -8.518835574061544447E-15, -2.440900000000000070 ) ) ;
#388 = PERSON ( 'UNSPECIFIED', 'UNSPECIFIED', 'UNSPECIFIED', ('UNSPECIFIED'), ('UNSPECIFIED'), ('UNSPECIFIED') ) ;
#389 = PERSON_AND_ORGANIZATION_ROLE ( 'creator' ) ;
#390 = DIRECTION ( 'NONE',  ( -2.445468806185136597E-29, 3.491481338843145583E-15, 1.000000000000000000 ) ) ;
#391 = CALENDAR_DATE ( 2024, 10, 4 ) ;
#392 = CARTESIAN_POINT ( 'NONE',  ( 9.311842320765534580E-29, -1.419844671950162056E-14, -3.937000000000000277 ) ) ;
#393 = CARTESIAN_POINT ( 'NONE',  ( 5.971603667935686797E-29, -8.518835574061544447E-15, -2.440900000000000070 ) ) ;
#394 = PERSON_AND_ORGANIZATION ( #388, #286 ) ;
#395 = CARTESIAN_POINT ( 'NONE',  ( 5.969144809017300159E-29, -8.522356799982234543E-15, -2.440900000000000070 ) ) ;
#396 = CIRCLE ( 'NONE', #76, 0.3343499999999997585 ) ;
#397 = CYLINDRICAL_SURFACE ( 'NONE', #56, 0.3543499999999999983 ) ;
#398 = UNCERTAINTY_MEASURE_WITH_UNIT (LENGTH_MEASURE( 1.000000000000000082E-05 ), #225, 'distance_accuracy_value', 'NONE');
#399 = CONICAL_SURFACE ( 'NONE', #80, 0.3543499999999999983, 0.7853981633974463916 ) ;
#400 = CC_DESIGN_APPROVAL ( #411, ( #367 ) ) ;
#401 = ORIENTED_EDGE ( 'NONE', *, *, #74, .T. ) ;
#402 = VERTEX_POINT ( 'NONE', #206 ) ;
#403 = VERTEX_POINT ( 'NONE', #392 ) ;
#404 = ORIENTED_EDGE ( 'NONE', *, *, #252, .T. ) ;
#405 = DIRECTION ( 'NONE',  ( -2.446476163683758949E-29, 3.490038745569890509E-15, 1.000000000000000000 ) ) ;
#406 = EDGE_LOOP ( 'NONE', ( #336, #84 ) ) ;
#407 = LINE ( 'NONE', #61, #255 ) ;
#408 = LINE ( 'NONE', #153, #175 ) ;
#409 = CIRCLE ( 'NONE', #299, 0.3543499999999999428 ) ;
#410 = CARTESIAN_POINT ( 'NONE',  ( -2.517808184165828616E-15, -0.3543500000000128214, -3.582649999999999224 ) ) ;
#411 = APPROVAL ( #304, 'UNSPECIFIED' ) ;
#412 = DIRECTION ( 'NONE',  ( 2.446476163683758949E-29, -3.490038745569890509E-15, -1.000000000000000000 ) ) ;
ENDSEC;
END-ISO-10303-21;
