ISO-10303-21;
HEADER;
FILE_DESCRIPTION (( 'STEP AP203' ),
    '1' );
FILE_NAME ('40381.STEP',
    '2024-02-28T02:06:36',
    ( '' ),
    ( '' ),
    'SwSTEP 2.0',
    'SolidWorks 2023',
    '' );
FILE_SCHEMA (( 'CONFIG_CONTROL_DESIGN' ));
ENDSEC;

DATA;
#1 = EDGE_LOOP ( 'NONE', ( #73, #32, #67, #328 ) ) ;
#2 = DIRECTION ( 'NONE',  ( 0.7071067811865469066, -7.319954787623254468E-15, -0.7071067811865481278 ) ) ;
#3 = FACE_OUTER_BOUND ( 'NONE', #156, .T. ) ;
#4 = EDGE_CURVE ( 'NONE', #331, #278, #47, .T. ) ;
#5 = PRODUCT ( '40381', '40381', '', ( #246 ) ) ;
#6 = PERSON_AND_ORGANIZATION ( #299, #231 ) ;
#7 = FACE_OUTER_BOUND ( 'NONE', #165, .T. ) ;
#8 = ORIENTED_EDGE ( 'NONE', *, *, #188, .T. ) ;
#9 = DIRECTION ( 'NONE',  ( -1.000000000000000000, 6.982962677686265922E-15, -4.876176775795935793E-29 ) ) ;
#10 = EDGE_CURVE ( 'NONE', #280, #263, #24, .T. ) ;
#11 = CC_DESIGN_PERSON_AND_ORGANIZATION_ASSIGNMENT ( #292, #230, ( #41 ) ) ;
#12 = CALENDAR_DATE ( 2024, 27, 2 ) ;
#13 = VECTOR ( 'NONE', #2, 39.37007874015748143 ) ;
#14 = AXIS2_PLACEMENT_3D ( 'NONE', #247, #338, #201 ) ;
#15 = DIRECTION ( 'NONE',  ( -2.445468806185136597E-29, 3.491481338843145583E-15, 1.000000000000000000 ) ) ;
#16 = PERSON_AND_ORGANIZATION ( #299, #231 ) ;
#17 = CC_DESIGN_APPROVAL ( #155, ( #293 ) ) ;
#18 = LINE ( 'NONE', #23, #297 ) ;
#19 = LINE ( 'NONE', #71, #20 ) ;
#20 = VECTOR ( 'NONE', #160, 39.37007874015748143 ) ;
#21 = ORIENTED_EDGE ( 'NONE', *, *, #4, .F. ) ;
#22 = FACE_OUTER_BOUND ( 'NONE', #70, .T. ) ;
#23 = CARTESIAN_POINT ( 'NONE',  ( -0.3936999999999997724, 2.679362779428217946E-15, -0.02000000000000009062 ) ) ;
#24 = LINE ( 'NONE', #335, #153 ) ;
#25 = ORIENTED_EDGE ( 'NONE', *, *, #10, .F. ) ;
#26 = LOCAL_TIME ( 21, 6, 36.00000000000000000, #190 ) ;
#27 = DIRECTION ( 'NONE',  ( -2.445468806185136597E-29, 3.491481338843145583E-15, 1.000000000000000000 ) ) ;
#28 = ORIENTED_EDGE ( 'NONE', *, *, #254, .T. ) ;
#29 = CARTESIAN_POINT ( 'NONE',  ( 0.000000000000000000, 0.000000000000000000, 0.000000000000000000 ) ) ;
#30 = CARTESIAN_POINT ( 'NONE',  ( -1.043851414335219820E-46, 1.490343170380447200E-32, 4.268512490100411279E-18 ) ) ;
#31 = DIRECTION ( 'NONE',  ( -2.445468806185136597E-29, 3.491481338843145583E-15, 1.000000000000000000 ) ) ;
#32 = ORIENTED_EDGE ( 'NONE', *, *, #111, .F. ) ;
#33 = EDGE_CURVE ( 'NONE', #208, #342, #18, .T. ) ;
#34 = CARTESIAN_POINT ( 'NONE',  ( 0.3937000000000000499, -1.126805772484847318E-14, -2.439900000000000180 ) ) ;
#35 = DIMENSIONAL_EXPONENTS ( 1.000000000000000000, 0.000000000000000000, 0.000000000000000000, 0.000000000000000000, 0.000000000000000000, 0.000000000000000000, 0.000000000000000000 ) ;
#36 = VERTEX_POINT ( 'NONE', #242 ) ;
#37 = APPROVAL_DATE_TIME ( #44, #52 ) ;
#38 = CARTESIAN_POINT ( 'NONE',  ( 0.3937000000000000499, -1.649515443723054663E-14, -3.937000000000000277 ) ) ;
#39 = CONICAL_SURFACE ( 'NONE', #194, 0.3936999999999997724, 0.7853981633974473908 ) ;
#40 = ADVANCED_FACE ( 'NONE', ( #361 ), #39, .T. ) ;
#41 = PRODUCT_DEFINITION_FORMATION_WITH_SPECIFIED_SOURCE ( 'ANY', '', #5, .NOT_KNOWN. ) ;
#42 = AXIS2_PLACEMENT_3D ( 'NONE', #359, #103, #185 ) ;
#43 = FACE_OUTER_BOUND ( 'NONE', #168, .T. ) ;
#44 = DATE_AND_TIME ( #163, #118 ) ;
#45 = DATE_AND_TIME ( #176, #296 ) ;
#46 = CC_DESIGN_APPROVAL ( #52, ( #41 ) ) ;
#47 = CIRCLE ( 'NONE', #325, 0.3926999999999999935 ) ;
#48 = APPROVAL_STATUS ( 'not_yet_approved' ) ;
#49 = ADVANCED_BREP_SHAPE_REPRESENTATION ( '40381', ( #161, #181, #252 ), #170 ) ;
#50 = AXIS2_PLACEMENT_3D ( 'NONE', #319, #329, #68 ) ;
#51 = DATE_AND_TIME ( #282, #26 ) ;
#52 = APPROVAL ( #48, 'UNSPECIFIED' ) ;
#53 = ORIENTED_EDGE ( 'NONE', *, *, #308, .T. ) ;
#54 = ORIENTED_EDGE ( 'NONE', *, *, #127, .F. ) ;
#55 = CONICAL_SURFACE ( 'NONE', #50, 0.3936999999999997724, 0.7853981633974473908 ) ;
#56 = PLANE ( 'NONE',  #100 ) ;
#57 = ADVANCED_FACE ( 'NONE', ( #113 ), #198, .T. ) ;
#58 = CARTESIAN_POINT ( 'NONE',  ( 0.3936999999999998834, -2.749192406205082428E-15, 1.919750796630859331E-29 ) ) ;
#59 = APPROVAL_ROLE ( '' ) ;
#60 = COORDINATED_UNIVERSAL_TIME_OFFSET ( 5, 0, .BEHIND. ) ;
#61 = LINE ( 'NONE', #58, #302 ) ;
#62 = DIRECTION ( 'NONE',  ( 2.445468806185136597E-29, -3.491481338843145583E-15, -1.000000000000000000 ) ) ;
#63 = EDGE_CURVE ( 'NONE', #93, #280, #209, .T. ) ;
#64 = ORIENTED_EDGE ( 'NONE', *, *, #336, .F. ) ;
#65 = AXIS2_PLACEMENT_3D ( 'NONE', #310, #27, #225 ) ;
#66 = COORDINATED_UNIVERSAL_TIME_OFFSET ( 5, 0, .BEHIND. ) ;
#67 = ORIENTED_EDGE ( 'NONE', *, *, #33, .T. ) ;
#68 = DIRECTION ( 'NONE',  ( -1.000000000000000000, 6.982962677686266711E-15, 0.000000000000000000 ) ) ;
#69 = COORDINATED_UNIVERSAL_TIME_OFFSET ( 5, 0, .BEHIND. ) ;
#70 = EDGE_LOOP ( 'NONE', ( #135, #365, #248, #212 ) ) ;
#71 = CARTESIAN_POINT ( 'NONE',  ( -0.3937000000000000499, 2.797406750687514786E-15, -1.936584745033356735E-29 ) ) ;
#72 = EDGE_CURVE ( 'NONE', #278, #284, #134, .T. ) ;
#73 = ORIENTED_EDGE ( 'NONE', *, *, #308, .F. ) ;
#74 = SECURITY_CLASSIFICATION ( '', '', #347 ) ;
#75 = ORIENTED_EDGE ( 'NONE', *, *, #254, .F. ) ;
#76 = APPROVAL_DATE_TIME ( #51, #277 ) ;
#77 = FACE_OUTER_BOUND ( 'NONE', #147, .T. ) ;
#78 = DIRECTION ( 'NONE',  ( -2.445468806185136597E-29, 3.491481338843145583E-15, 1.000000000000000000 ) ) ;
#79 = DIRECTION ( 'NONE',  ( 1.000000000000000000, -6.982962677686266711E-15, 0.000000000000000000 ) ) ;
#80 = DIRECTION ( 'NONE',  ( 1.000000000000000000, -6.982962677686265133E-15, 0.000000000000000000 ) ) ;
#81 = AXIS2_PLACEMENT_3D ( 'NONE', #29, #31, #132 ) ;
#82 = CYLINDRICAL_SURFACE ( 'NONE', #192, 0.3937000000000000499 ) ;
#83 = CARTESIAN_POINT ( 'NONE',  ( -0.3736999999999996991, 2.644447966039787086E-15, 4.268512490082039448E-18 ) ) ;
#84 = ADVANCED_FACE ( 'NONE', ( #204 ), #55, .T. ) ;
#85 = ORIENTED_EDGE ( 'NONE', *, *, #184, .T. ) ;
#86 = APPLICATION_PROTOCOL_DEFINITION ( 'international standard', 'config_control_design', 1994, #291 ) ;
#87 = DIRECTION ( 'NONE',  ( -0.7071067811864267805, 7.493145998869918709E-15, 0.7071067811866682540 ) ) ;
#88 = AXIS2_PLACEMENT_3D ( 'NONE', #102, #154, #220 ) ;
#89 = ORIENTED_EDGE ( 'NONE', *, *, #63, .F. ) ;
#90 = ORIENTED_EDGE ( 'NONE', *, *, #4, .T. ) ;
#91 = CC_DESIGN_APPROVAL ( #277, ( #74 ) ) ;
#92 = PERSON_AND_ORGANIZATION_ROLE ( 'classification_officer' ) ;
#93 = VERTEX_POINT ( 'NONE', #98 ) ;
#94 = CC_DESIGN_PERSON_AND_ORGANIZATION_ASSIGNMENT ( #6, #101, ( #293 ) ) ;
#95 = FACE_OUTER_BOUND ( 'NONE', #140, .T. ) ;
#96 = ORIENTED_EDGE ( 'NONE', *, *, #117, .T. ) ;
#97 = CARTESIAN_POINT ( 'NONE',  ( 4.890937612370295054E-31, -6.982962677686322424E-17, -0.02000000000000009062 ) ) ;
#98 = CARTESIAN_POINT ( 'NONE',  ( -0.3937000000000000499, -8.336752664816334981E-15, -3.937000000000000277 ) ) ;
#99 = EDGE_CURVE ( 'NONE', #331, #281, #175, .T. ) ;
#100 = AXIS2_PLACEMENT_3D ( 'NONE', #285, #250, #333 ) ;
#101 = PERSON_AND_ORGANIZATION_ROLE ( 'creator' ) ;
#102 = CARTESIAN_POINT ( 'NONE',  ( 0.000000000000000000, 0.000000000000000000, 0.000000000000000000 ) ) ;
#103 = DIRECTION ( 'NONE',  ( -2.445468806185136597E-29, 3.491481338843145583E-15, 1.000000000000000000 ) ) ;
#104 = CARTESIAN_POINT ( 'NONE',  ( 5.969144809017301280E-29, -8.522356799982236121E-15, -2.440900000000000514 ) ) ;
#105 = DATE_TIME_ROLE ( 'classification_date' ) ;
#106 = CARTESIAN_POINT ( 'NONE',  ( 4.890937612370295054E-31, -6.982962677686322424E-17, -0.02000000000000009062 ) ) ;
#107 = AXIS2_PLACEMENT_3D ( 'NONE', #104, #244, #226 ) ;
#108 = CARTESIAN_POINT ( 'NONE',  ( 5.969144809017301280E-29, -8.522356799982236121E-15, -2.440900000000000514 ) ) ;
#109 = CARTESIAN_POINT ( 'NONE',  ( 4.890937612370295054E-31, -6.982962677686322424E-17, -0.02000000000000009062 ) ) ;
#110 = ORIENTED_EDGE ( 'NONE', *, *, #63, .T. ) ;
#111 = EDGE_CURVE ( 'NONE', #208, #36, #264, .T. ) ;
#112 = FACE_OUTER_BOUND ( 'NONE', #324, .T. ) ;
#113 = FACE_OUTER_BOUND ( 'NONE', #216, .T. ) ;
#114 = VERTEX_POINT ( 'NONE', #119 ) ;
#115 = EDGE_CURVE ( 'NONE', #114, #263, #255, .T. ) ;
#116 = CARTESIAN_POINT ( 'NONE',  ( 5.969144809017301280E-29, -8.522356799982236121E-15, -2.440900000000000514 ) ) ;
#117 = EDGE_CURVE ( 'NONE', #152, #342, #122, .T. ) ;
#118 = LOCAL_TIME ( 21, 6, 36.00000000000000000, #60 ) ;
#119 = CARTESIAN_POINT ( 'NONE',  ( -0.3937000000000000499, -8.336752664816334981E-15, -2.440900000000000070 ) ) ;
#120 = DIRECTION ( 'NONE',  ( 1.000000000000000000, -6.982962677686266711E-15, 4.876212485538979042E-29 ) ) ;
#121 = EDGE_CURVE ( 'NONE', #278, #331, #138, .T. ) ;
#122 = CIRCLE ( 'NONE', #171, 0.3936999999999997724 ) ;
#123 = CIRCLE ( 'NONE', #151, 0.3937000000000000499 ) ;
#124 = EDGE_LOOP ( 'NONE', ( #177, #89 ) ) ;
#125 = APPLICATION_CONTEXT ( 'configuration controlled 3d designs of mechanical parts and assemblies' ) ;
#126 = DIRECTION ( 'NONE',  ( -0.7071067811865469066, 2.468850131082250355E-15, -0.7071067811865481278 ) ) ;
#127 = EDGE_CURVE ( 'NONE', #284, #281, #348, .T. ) ;
#128 = AXIS2_PLACEMENT_3D ( 'NONE', #108, #317, #141 ) ;
#129 = DIRECTION ( 'NONE',  ( -2.445468806185136597E-29, 3.491481338843145583E-15, 1.000000000000000000 ) ) ;
#130 = DIRECTION ( 'NONE',  ( -2.445468806185136877E-29, 3.491481338843145188E-15, 1.000000000000000000 ) ) ;
#131 = EDGE_CURVE ( 'NONE', #36, #208, #357, .T. ) ;
#132 = DIRECTION ( 'NONE',  ( 1.000000000000000000, -6.982962677686266711E-15, 4.876176775795935793E-29 ) ) ;
#133 = CARTESIAN_POINT ( 'NONE',  ( 0.3936999999999997724, -2.770807688499513762E-15, -0.02000000000000009062 ) ) ;
#134 = LINE ( 'NONE', #256, #227 ) ;
#135 = ORIENTED_EDGE ( 'NONE', *, *, #360, .F. ) ;
#136 = APPROVAL_PERSON_ORGANIZATION ( #203, #155, #59 ) ;
#137 = CLOSED_SHELL ( 'NONE', ( #300, #57, #40, #84, #219, #268, #159, #260 ) ) ;
#138 = CIRCLE ( 'NONE', #107, 0.3926999999999999935 ) ;
#139 = CARTESIAN_POINT ( 'NONE',  ( -0.3926999999999999935, -5.726757022304099152E-15, -2.440900000000000514 ) ) ;
#140 = EDGE_LOOP ( 'NONE', ( #340, #351 ) ) ;
#141 = DIRECTION ( 'NONE',  ( 1.000000000000000000, -6.982962677686268288E-15, 0.000000000000000000 ) ) ;
#142 = PERSON_AND_ORGANIZATION ( #299, #231 ) ;
#143 = CC_DESIGN_PERSON_AND_ORGANIZATION_ASSIGNMENT ( #200, #316, ( #5 ) ) ;
#144 = DIRECTION ( 'NONE',  ( -1.000000000000000000, 6.982962677686265922E-15, -4.876176775795935793E-29 ) ) ;
#145 = CARTESIAN_POINT ( 'NONE',  ( -0.3937000000000001054, -1.496940722022610659E-15, -2.439900000000000180 ) ) ;
#146 = EDGE_CURVE ( 'NONE', #93, #114, #19, .T. ) ;
#147 = EDGE_LOOP ( 'NONE', ( #174, #110, #234, #349 ) ) ;
#148 = PERSON_AND_ORGANIZATION ( #299, #231 ) ;
#149 = ORIENTED_EDGE ( 'NONE', *, *, #72, .F. ) ;
#150 = DIRECTION ( 'NONE',  ( 0.7071067811864267805, -2.468850131080992517E-15, 0.7071067811866682540 ) ) ;
#151 = AXIS2_PLACEMENT_3D ( 'NONE', #339, #78, #279 ) ;
#152 = VERTEX_POINT ( 'NONE', #133 ) ;
#153 = VECTOR ( 'NONE', #130, 39.37007874015748143 ) ;
#154 = DIRECTION ( 'NONE',  ( -2.445468806185136597E-29, 3.491481338843145583E-15, 1.000000000000000000 ) ) ;
#155 = APPROVAL ( #287, 'UNSPECIFIED' ) ;
#156 = EDGE_LOOP ( 'NONE', ( #8, #327, #75, #25 ) ) ;
#157 = PLANE ( 'NONE',  #169 ) ;
#158 = CARTESIAN_POINT ( 'NONE',  ( 5.969144809017301280E-29, -8.522356799982236121E-15, -2.440900000000000514 ) ) ;
#159 = ADVANCED_FACE ( 'NONE', ( #112 ), #157, .F. ) ;
#160 = DIRECTION ( 'NONE',  ( -2.445468806185136877E-29, 3.491481338843145188E-15, 1.000000000000000000 ) ) ;
#161 = MANIFOLD_SOLID_BREP ( 'Body-Move/Copy2[1]', #215 ) ;
#162 = LOCAL_TIME ( 21, 6, 36.00000000000000000, #294 ) ;
#163 = CALENDAR_DATE ( 2024, 27, 2 ) ;
#164 = CC_DESIGN_DATE_AND_TIME_ASSIGNMENT ( #298, #235, ( #293 ) ) ;
#165 = EDGE_LOOP ( 'NONE', ( #149, #207, #224, #54 ) ) ;
#166 = DIRECTION ( 'NONE',  ( -2.445468806185136597E-29, 3.491481338843145583E-15, 1.000000000000000000 ) ) ;
#167 = DIRECTION ( 'NONE',  ( -2.445468806185136597E-29, 3.491481338843145583E-15, 1.000000000000000000 ) ) ;
#168 = EDGE_LOOP ( 'NONE', ( #28, #323 ) ) ;
#169 = AXIS2_PLACEMENT_3D ( 'NONE', #363, #312, #303 ) ;
#170 =( GEOMETRIC_REPRESENTATION_CONTEXT ( 3 ) GLOBAL_UNCERTAINTY_ASSIGNED_CONTEXT ( ( #326 ) ) GLOBAL_UNIT_ASSIGNED_CONTEXT ( ( #307, #304, #358 ) ) REPRESENTATION_CONTEXT ( 'NONE', 'WORKASPACE' ) );
#171 = AXIS2_PLACEMENT_3D ( 'NONE', #97, #129, #79 ) ;
#172 = CARTESIAN_POINT ( 'NONE',  ( 5.969144809017300159E-29, -8.522356799982234543E-15, -2.440900000000000070 ) ) ;
#173 = PRODUCT_RELATED_PRODUCT_CATEGORY ( 'detail', '', ( #5 ) ) ;
#174 = ORIENTED_EDGE ( 'NONE', *, *, #146, .F. ) ;
#175 = LINE ( 'NONE', #270, #222 ) ;
#176 = CALENDAR_DATE ( 2024, 27, 2 ) ;
#177 = ORIENTED_EDGE ( 'NONE', *, *, #188, .F. ) ;
#178 = DIRECTION ( 'NONE',  ( 2.438088387897960049E-29, -3.491481338843145188E-15, -1.000000000000000000 ) ) ;
#179 = AXIS2_PLACEMENT_3D ( 'NONE', #116, #344, #262 ) ;
#180 = DIRECTION ( 'NONE',  ( -2.445468806185136597E-29, 3.491481338843145583E-15, 1.000000000000000000 ) ) ;
#181 = MANIFOLD_SOLID_BREP ( 'Body-Move/Copy2[2]', #137 ) ;
#182 = AXIS2_PLACEMENT_3D ( 'NONE', #109, #167, #309 ) ;
#183 = APPROVAL_ROLE ( '' ) ;
#184 = EDGE_CURVE ( 'NONE', #281, #284, #320, .T. ) ;
#185 = DIRECTION ( 'NONE',  ( 1.000000000000000000, -6.982962677686266711E-15, 4.876176775795935793E-29 ) ) ;
#186 = EDGE_LOOP ( 'NONE', ( #90, #271, #288, #245 ) ) ;
#187 = ORIENTED_EDGE ( 'NONE', *, *, #117, .F. ) ;
#188 = EDGE_CURVE ( 'NONE', #280, #93, #123, .T. ) ;
#189 = FACE_OUTER_BOUND ( 'NONE', #124, .T. ) ;
#190 = COORDINATED_UNIVERSAL_TIME_OFFSET ( 5, 0, .BEHIND. ) ;
#191 = AXIS2_PLACEMENT_3D ( 'NONE', #272, #15, #120 ) ;
#192 = AXIS2_PLACEMENT_3D ( 'NONE', #199, #166, #322 ) ;
#193 = CARTESIAN_POINT ( 'NONE',  ( 0.3936999999999997724, -2.770807688499513762E-15, -0.02000000000000009062 ) ) ;
#194 = AXIS2_PLACEMENT_3D ( 'NONE', #106, #62, #341 ) ;
#195 = ORIENTED_EDGE ( 'NONE', *, *, #131, .F. ) ;
#196 = CC_DESIGN_PERSON_AND_ORGANIZATION_ASSIGNMENT ( #148, #92, ( #74 ) ) ;
#197 = DIRECTION ( 'NONE',  ( -2.445468806185136597E-29, 3.491481338843145583E-15, 1.000000000000000000 ) ) ;
#198 = CYLINDRICAL_SURFACE ( 'NONE', #81, 0.3936999999999998834 ) ;
#199 = CARTESIAN_POINT ( 'NONE',  ( 0.000000000000000000, 0.000000000000000000, 0.000000000000000000 ) ) ;
#200 = PERSON_AND_ORGANIZATION ( #299, #231 ) ;
#201 = DIRECTION ( 'NONE',  ( 1.000000000000000000, -6.982962677686267499E-15, 0.000000000000000000 ) ) ;
#202 = ADVANCED_FACE ( 'NONE', ( #189 ), #56, .T. ) ;
#203 = PERSON_AND_ORGANIZATION ( #299, #231 ) ;
#204 = FACE_OUTER_BOUND ( 'NONE', #1, .T. ) ;
#205 = APPROVAL_PERSON_ORGANIZATION ( #16, #52, #321 ) ;
#206 = AXIS2_PLACEMENT_3D ( 'NONE', #213, #178, #144 ) ;
#207 = ORIENTED_EDGE ( 'NONE', *, *, #121, .T. ) ;
#208 = VERTEX_POINT ( 'NONE', #83 ) ;
#209 = CIRCLE ( 'NONE', #14, 0.3937000000000000499 ) ;
#210 = CALENDAR_DATE ( 2024, 27, 2 ) ;
#211 = DIRECTION ( 'NONE',  ( 1.000000000000000000, -6.982962677686267499E-15, 0.000000000000000000 ) ) ;
#212 = ORIENTED_EDGE ( 'NONE', *, *, #273, .F. ) ;
#213 = CARTESIAN_POINT ( 'NONE',  ( 2.609533152651355437E-15, 0.3736999999999996991, -1.302632320080632238E-15 ) ) ;
#214 = CARTESIAN_POINT ( 'NONE',  ( 5.969144809017300159E-29, -8.522356799982234543E-15, -2.440900000000000070 ) ) ;
#215 = CLOSED_SHELL ( 'NONE', ( #334, #202, #239, #355 ) ) ;
#216 = EDGE_LOOP ( 'NONE', ( #85, #346, #187, #64 ) ) ;
#217 = APPROVAL_STATUS ( 'not_yet_approved' ) ;
#218 = DESIGN_CONTEXT ( 'detailed design', #291, 'design' ) ;
#219 = ADVANCED_FACE ( 'NONE', ( #22 ), #241, .T. ) ;
#220 = DIRECTION ( 'NONE',  ( 1.000000000000000000, -6.982962677686265922E-15, 4.876176775795935793E-29 ) ) ;
#221 = CC_DESIGN_SECURITY_CLASSIFICATION ( #74, ( #41 ) ) ;
#222 = VECTOR ( 'NONE', #150, 39.37007874015748143 ) ;
#223 = DIRECTION ( 'NONE',  ( -2.445468806185136877E-29, 3.491481338843145188E-15, 1.000000000000000000 ) ) ;
#224 = ORIENTED_EDGE ( 'NONE', *, *, #99, .T. ) ;
#225 = DIRECTION ( 'NONE',  ( 1.000000000000000000, -6.982962677686265133E-15, 0.000000000000000000 ) ) ;
#226 = DIRECTION ( 'NONE',  ( 1.000000000000000000, -6.982962677686268288E-15, 0.000000000000000000 ) ) ;
#227 = VECTOR ( 'NONE', #87, 39.37007874015748143 ) ;
#228 = CARTESIAN_POINT ( 'NONE',  ( -0.3936999999999997724, 2.679362779428217946E-15, -0.02000000000000009062 ) ) ;
#229 = FACE_OUTER_BOUND ( 'NONE', #186, .T. ) ;
#230 = PERSON_AND_ORGANIZATION_ROLE ( 'design_supplier' ) ;
#231 = ORGANIZATION ( 'UNSPECIFIED', 'UNSPECIFIED', '' ) ;
#232 = EDGE_LOOP ( 'NONE', ( #195, #53, #96, #305 ) ) ;
#233 = CARTESIAN_POINT ( 'NONE',  ( 2.749192406205142776E-15, 0.3936999999999915012, -2.440900000000001402 ) ) ;
#234 = ORIENTED_EDGE ( 'NONE', *, *, #10, .T. ) ;
#235 = DATE_TIME_ROLE ( 'creation_date' ) ;
#236 = LINE ( 'NONE', #356, #286 ) ;
#237 = AXIS2_PLACEMENT_3D ( 'NONE', #306, #197, #80 ) ;
#238 = AXIS2_PLACEMENT_3D ( 'NONE', #172, #345, #211 ) ;
#239 = ADVANCED_FACE ( 'NONE', ( #43 ), #295, .F. ) ;
#240 = CYLINDRICAL_SURFACE ( 'NONE', #88, 0.3937000000000000499 ) ;
#241 = CYLINDRICAL_SURFACE ( 'NONE', #42, 0.3936999999999998834 ) ;
#242 = CARTESIAN_POINT ( 'NONE',  ( 0.3736999999999996991, -2.667287895133366387E-15, 4.268512490118863228E-18 ) ) ;
#243 = CIRCLE ( 'NONE', #182, 0.3936999999999997724 ) ;
#244 = DIRECTION ( 'NONE',  ( -2.445468806185136597E-29, 3.491481338843145583E-15, 1.000000000000000000 ) ) ;
#245 = ORIENTED_EDGE ( 'NONE', *, *, #99, .F. ) ;
#246 = MECHANICAL_CONTEXT ( 'NONE', #125, 'mechanical' ) ;
#247 = CARTESIAN_POINT ( 'NONE',  ( 9.627810689950883669E-29, -1.374596203102546341E-14, -3.937000000000000277 ) ) ;
#248 = ORIENTED_EDGE ( 'NONE', *, *, #336, .T. ) ;
#249 = LINE ( 'NONE', #193, #13 ) ;
#250 = DIRECTION ( 'NONE',  ( 2.438088387897960049E-29, -3.491481338843145188E-15, -1.000000000000000000 ) ) ;
#251 = DIRECTION ( 'NONE',  ( -2.445468806185136597E-29, 3.491481338843145583E-15, 1.000000000000000000 ) ) ;
#252 = AXIS2_PLACEMENT_3D ( 'NONE', #315, #318, #366 ) ;
#253 = APPLICATION_PROTOCOL_DEFINITION ( 'international standard', 'config_control_design', 1994, #125 ) ;
#254 = EDGE_CURVE ( 'NONE', #263, #114, #364, .T. ) ;
#255 = CIRCLE ( 'NONE', #269, 0.3937000000000000499 ) ;
#256 = CARTESIAN_POINT ( 'NONE',  ( -0.3926999999999999935, -5.732055476652322343E-15, -2.440900000000000514 ) ) ;
#257 = CARTESIAN_POINT ( 'NONE',  ( 0.3926999999999999935, -1.126456624350963332E-14, -2.440900000000000514 ) ) ;
#258 = DIRECTION ( 'NONE',  ( 1.000000000000000000, -6.982962677686266711E-15, 4.876212485538979042E-29 ) ) ;
#259 = PRODUCT_DEFINITION_SHAPE ( 'NONE', 'NONE',  #293 ) ;
#260 = ADVANCED_FACE ( 'NONE', ( #95 ), #354, .F. ) ;
#261 = CARTESIAN_POINT ( 'NONE',  ( 0.3937000000000000499, -1.127154920618731776E-14, -2.440900000000000070 ) ) ;
#262 = DIRECTION ( 'NONE',  ( 1.000000000000000000, -6.982962677686268288E-15, 0.000000000000000000 ) ) ;
#263 = VERTEX_POINT ( 'NONE', #261 ) ;
#264 = CIRCLE ( 'NONE', #191, 0.3736999999999996991 ) ;
#265 = CC_DESIGN_PERSON_AND_ORGANIZATION_ASSIGNMENT ( #142, #350, ( #41 ) ) ;
#266 = DIRECTION ( 'NONE',  ( 2.438088387897960049E-29, -3.491481338843145188E-15, -1.000000000000000000 ) ) ;
#267 = CC_DESIGN_DATE_AND_TIME_ASSIGNMENT ( #311, #105, ( #74 ) ) ;
#268 = ADVANCED_FACE ( 'NONE', ( #7 ), #343, .T. ) ;
#269 = AXIS2_PLACEMENT_3D ( 'NONE', #214, #180, #352 ) ;
#270 = CARTESIAN_POINT ( 'NONE',  ( 0.3926999999999999935, -1.126456624350963332E-14, -2.440900000000000514 ) ) ;
#271 = ORIENTED_EDGE ( 'NONE', *, *, #72, .T. ) ;
#272 = CARTESIAN_POINT ( 'NONE',  ( -1.043851414335219820E-46, 1.490343170380447200E-32, 4.268512490100411279E-18 ) ) ;
#273 = EDGE_CURVE ( 'NONE', #342, #152, #243, .T. ) ;
#274 = DIRECTION ( 'NONE',  ( 1.000000000000000000, -6.982962677686268288E-15, 0.000000000000000000 ) ) ;
#275 = PERSON_AND_ORGANIZATION ( #299, #231 ) ;
#276 = AXIS2_PLACEMENT_3D ( 'NONE', #233, #266, #9 ) ;
#277 = APPROVAL ( #217, 'UNSPECIFIED' ) ;
#278 = VERTEX_POINT ( 'NONE', #139 ) ;
#279 = DIRECTION ( 'NONE',  ( 1.000000000000000000, -6.982962677686267499E-15, 0.000000000000000000 ) ) ;
#280 = VERTEX_POINT ( 'NONE', #38 ) ;
#281 = VERTEX_POINT ( 'NONE', #34 ) ;
#282 = CALENDAR_DATE ( 2024, 27, 2 ) ;
#283 = DIRECTION ( 'NONE',  ( -2.445468806185136597E-29, 3.491481338843145583E-15, 1.000000000000000000 ) ) ;
#284 = VERTEX_POINT ( 'NONE', #145 ) ;
#285 = CARTESIAN_POINT ( 'NONE',  ( 2.749192406205179063E-15, 0.3936999999999862832, -3.937000000000001609 ) ) ;
#286 = VECTOR ( 'NONE', #223, 39.37007874015748143 ) ;
#287 = APPROVAL_STATUS ( 'not_yet_approved' ) ;
#288 = ORIENTED_EDGE ( 'NONE', *, *, #184, .F. ) ;
#289 = ORIENTED_EDGE ( 'NONE', *, *, #121, .F. ) ;
#290 = DIRECTION ( 'NONE',  ( -2.445468806185136877E-29, 3.491481338843145188E-15, 1.000000000000000000 ) ) ;
#291 = APPLICATION_CONTEXT ( 'configuration controlled 3d designs of mechanical parts and assemblies' ) ;
#292 = PERSON_AND_ORGANIZATION ( #299, #231 ) ;
#293 = PRODUCT_DEFINITION ( 'UNKNOWN', '', #41, #218 ) ;
#294 = COORDINATED_UNIVERSAL_TIME_OFFSET ( 5, 0, .BEHIND. ) ;
#295 = PLANE ( 'NONE',  #276 ) ;
#296 = LOCAL_TIME ( 21, 6, 36.00000000000000000, #69 ) ;
#297 = VECTOR ( 'NONE', #126, 39.37007874015748143 ) ;
#298 = DATE_AND_TIME ( #210, #162 ) ;
#299 = PERSON ( 'UNSPECIFIED', 'UNSPECIFIED', 'UNSPECIFIED', ('UNSPECIFIED'), ('UNSPECIFIED'), ('UNSPECIFIED') ) ;
#300 = ADVANCED_FACE ( 'NONE', ( #229 ), #362, .T. ) ;
#301 = LENGTH_MEASURE_WITH_UNIT ( LENGTH_MEASURE( 0.02539999999999999897 ), #330 );
#302 = VECTOR ( 'NONE', #290, 39.37007874015748143 ) ;
#303 = DIRECTION ( 'NONE',  ( 1.000000000000000000, -6.982962677686265922E-15, 4.876176775795935793E-29 ) ) ;
#304 =( NAMED_UNIT ( * ) PLANE_ANGLE_UNIT ( ) SI_UNIT ( $, .RADIAN. ) );
#305 = ORIENTED_EDGE ( 'NONE', *, *, #33, .F. ) ;
#306 = CARTESIAN_POINT ( 'NONE',  ( 5.966699340211115678E-29, -8.518865318643391536E-15, -2.439900000000000180 ) ) ;
#307 =( CONVERSION_BASED_UNIT ( 'INCH', #301 ) LENGTH_UNIT ( ) NAMED_UNIT ( #35 ) );
#308 = EDGE_CURVE ( 'NONE', #36, #152, #249, .T. ) ;
#309 = DIRECTION ( 'NONE',  ( 1.000000000000000000, -6.982962677686266711E-15, 0.000000000000000000 ) ) ;
#310 = CARTESIAN_POINT ( 'NONE',  ( 5.966699340211115678E-29, -8.518865318643391536E-15, -2.439900000000000180 ) ) ;
#311 = DATE_AND_TIME ( #12, #313 ) ;
#312 = DIRECTION ( 'NONE',  ( -2.438088387897960049E-29, 3.491481338843145188E-15, 1.000000000000000000 ) ) ;
#313 = LOCAL_TIME ( 21, 6, 36.00000000000000000, #66 ) ;
#314 = SHAPE_DEFINITION_REPRESENTATION ( #259, #49 ) ;
#315 = CARTESIAN_POINT ( 'NONE',  ( 0.000000000000000000, 0.000000000000000000, 0.000000000000000000 ) ) ;
#316 = PERSON_AND_ORGANIZATION_ROLE ( 'design_owner' ) ;
#317 = DIRECTION ( 'NONE',  ( -2.445468806185136597E-29, 3.491481338843145583E-15, 1.000000000000000000 ) ) ;
#318 = DIRECTION ( 'NONE',  ( 0.000000000000000000, 0.000000000000000000, 1.000000000000000000 ) ) ;
#319 = CARTESIAN_POINT ( 'NONE',  ( 4.890937612370295054E-31, -6.982962677686322424E-17, -0.02000000000000009062 ) ) ;
#320 = CIRCLE ( 'NONE', #65, 0.3937000000000000499 ) ;
#321 = APPROVAL_ROLE ( '' ) ;
#322 = DIRECTION ( 'NONE',  ( 1.000000000000000000, -6.982962677686265922E-15, 4.876176775795935793E-29 ) ) ;
#323 = ORIENTED_EDGE ( 'NONE', *, *, #115, .T. ) ;
#324 = EDGE_LOOP ( 'NONE', ( #21, #289 ) ) ;
#325 = AXIS2_PLACEMENT_3D ( 'NONE', #158, #283, #274 ) ;
#326 = UNCERTAINTY_MEASURE_WITH_UNIT (LENGTH_MEASURE( 1.000000000000000082E-05 ), #307, 'distance_accuracy_value', 'NONE');
#327 = ORIENTED_EDGE ( 'NONE', *, *, #146, .T. ) ;
#328 = ORIENTED_EDGE ( 'NONE', *, *, #273, .T. ) ;
#329 = DIRECTION ( 'NONE',  ( 2.445468806185136597E-29, -3.491481338843145583E-15, -1.000000000000000000 ) ) ;
#330 =( LENGTH_UNIT ( ) NAMED_UNIT ( * ) SI_UNIT ( $, .METRE. ) );
#331 = VERTEX_POINT ( 'NONE', #257 ) ;
#332 = APPROVAL_PERSON_ORGANIZATION ( #275, #277, #183 ) ;
#333 = DIRECTION ( 'NONE',  ( -1.000000000000000000, 6.982962677686265922E-15, -4.876176775795935793E-29 ) ) ;
#334 = ADVANCED_FACE ( 'NONE', ( #3 ), #82, .T. ) ;
#335 = CARTESIAN_POINT ( 'NONE',  ( 0.3937000000000000499, -2.749192406205083217E-15, 1.919750796630860172E-29 ) ) ;
#336 = EDGE_CURVE ( 'NONE', #281, #152, #61, .T. ) ;
#337 = AXIS2_PLACEMENT_3D ( 'NONE', #30, #251, #258 ) ;
#338 = DIRECTION ( 'NONE',  ( -2.445468806185136597E-29, 3.491481338843145583E-15, 1.000000000000000000 ) ) ;
#339 = CARTESIAN_POINT ( 'NONE',  ( 9.627810689950883669E-29, -1.374596203102546341E-14, -3.937000000000000277 ) ) ;
#340 = ORIENTED_EDGE ( 'NONE', *, *, #111, .T. ) ;
#341 = DIRECTION ( 'NONE',  ( -1.000000000000000000, 6.982962677686266711E-15, 0.000000000000000000 ) ) ;
#342 = VERTEX_POINT ( 'NONE', #228 ) ;
#343 = CONICAL_SURFACE ( 'NONE', #179, 0.3926999999999999935, 0.7853981633972775267 ) ;
#344 = DIRECTION ( 'NONE',  ( -2.445468806185136597E-29, 3.491481338843145583E-15, 1.000000000000000000 ) ) ;
#345 = DIRECTION ( 'NONE',  ( -2.445468806185136597E-29, 3.491481338843145583E-15, 1.000000000000000000 ) ) ;
#346 = ORIENTED_EDGE ( 'NONE', *, *, #360, .T. ) ;
#347 = SECURITY_CLASSIFICATION_LEVEL ( 'unclassified' ) ;
#348 = CIRCLE ( 'NONE', #237, 0.3937000000000000499 ) ;
#349 = ORIENTED_EDGE ( 'NONE', *, *, #115, .F. ) ;
#350 = PERSON_AND_ORGANIZATION_ROLE ( 'creator' ) ;
#351 = ORIENTED_EDGE ( 'NONE', *, *, #131, .T. ) ;
#352 = DIRECTION ( 'NONE',  ( 1.000000000000000000, -6.982962677686267499E-15, 0.000000000000000000 ) ) ;
#353 = APPROVAL_DATE_TIME ( #45, #155 ) ;
#354 = PLANE ( 'NONE',  #206 ) ;
#355 = ADVANCED_FACE ( 'NONE', ( #77 ), #240, .T. ) ;
#356 = CARTESIAN_POINT ( 'NONE',  ( -0.3936999999999998834, 2.797406750687513603E-15, -1.936584745033355895E-29 ) ) ;
#357 = CIRCLE ( 'NONE', #337, 0.3736999999999996991 ) ;
#358 =( NAMED_UNIT ( * ) SI_UNIT ( $, .STERADIAN. ) SOLID_ANGLE_UNIT ( ) );
#359 = CARTESIAN_POINT ( 'NONE',  ( 0.000000000000000000, 0.000000000000000000, 0.000000000000000000 ) ) ;
#360 = EDGE_CURVE ( 'NONE', #284, #342, #236, .T. ) ;
#361 = FACE_OUTER_BOUND ( 'NONE', #232, .T. ) ;
#362 = CONICAL_SURFACE ( 'NONE', #128, 0.3926999999999999935, 0.7853981633972775267 ) ;
#363 = CARTESIAN_POINT ( 'NONE',  ( 5.969144809017300159E-29, -8.522356799982234543E-15, -2.440900000000000070 ) ) ;
#364 = CIRCLE ( 'NONE', #238, 0.3937000000000000499 ) ;
#365 = ORIENTED_EDGE ( 'NONE', *, *, #127, .T. ) ;
#366 = DIRECTION ( 'NONE',  ( 1.000000000000000000, 0.000000000000000000, 0.000000000000000000 ) ) ;
ENDSEC;
END-ISO-10303-21;
