ISO-10303-21;
HEADER;
FILE_DESCRIPTION (( 'STEP AP203' ),
    '1' );
FILE_NAME ('43506.STEP',
    '2024-04-10T11:43:48',
    ( '' ),
    ( '' ),
    'SwSTEP 2.0',
    'SolidWorks 2023',
    '' );
FILE_SCHEMA (( 'CONFIG_CONTROL_DESIGN' ));
ENDSEC;

DATA;
#1 = VERTEX_POINT ( 'NONE', #164 ) ;
#2 = AXIS2_PLACEMENT_3D ( 'NONE', #168, #166, #261 ) ;
#3 = DIRECTION ( 'NONE',  ( -6.982962677686265922E-15, -1.000000000000000000, 3.481260124123204048E-15 ) ) ;
#4 = DIRECTION ( 'NONE',  ( 1.000000000000000000, -6.982962677686266711E-15, 4.876176775795936353E-29 ) ) ;
#5 = CARTESIAN_POINT ( 'NONE',  ( -0.1180999999999999966, -7.545990612433018277E-15, -2.834699999999999331 ) ) ;
#6 = DIRECTION ( 'NONE',  ( -2.445468806185136877E-29, 3.491481338843145188E-15, 1.000000000000000000 ) ) ;
#7 = CIRCLE ( 'NONE', #407, 0.1181000000000002603 ) ;
#8 = CIRCLE ( 'NONE', #52, 0.1181000000000002187 ) ;
#9 = APPROVAL_PERSON_ORGANIZATION ( #31, #50, #344 ) ;
#10 = FACE_OUTER_BOUND ( 'NONE', #224, .T. ) ;
#11 = ORIENTED_EDGE ( 'NONE', *, *, #97, .T. ) ;
#12 = EDGE_CURVE ( 'NONE', #65, #384, #112, .T. ) ;
#13 = DIRECTION ( 'NONE',  ( -2.452606242276133797E-29, 3.481260124123203654E-15, 1.000000000000000000 ) ) ;
#14 = ORIENTED_EDGE ( 'NONE', *, *, #270, .T. ) ;
#15 = CC_DESIGN_PERSON_AND_ORGANIZATION_ASSIGNMENT ( #367, #204, ( #99 ) ) ;
#16 = ORIENTED_EDGE ( 'NONE', *, *, #124, .T. ) ;
#17 = CARTESIAN_POINT ( 'NONE',  ( 8.246878922348164991E-16, 0.1180999999999899908, -2.834699999999999775 ) ) ;
#18 = LENGTH_MEASURE_WITH_UNIT ( LENGTH_MEASURE( 0.02539999999999999897 ), #333 );
#19 = EDGE_LOOP ( 'NONE', ( #137, #167, #326, #319 ) ) ;
#20 = CALENDAR_DATE ( 2024, 10, 4 ) ;
#21 = CARTESIAN_POINT ( 'NONE',  ( 0.000000000000000000, 0.000000000000000000, 0.000000000000000000 ) ) ;
#22 = CLOSED_SHELL ( 'NONE', ( #292, #377, #309, #345, #198, #80, #72, #410 ) ) ;
#23 = APPROVAL_ROLE ( '' ) ;
#24 = EDGE_CURVE ( 'NONE', #47, #169, #275, .T. ) ;
#25 = CALENDAR_DATE ( 2024, 10, 4 ) ;
#26 = CC_DESIGN_DATE_AND_TIME_ASSIGNMENT ( #365, #332, ( #99 ) ) ;
#27 = CARTESIAN_POINT ( 'NONE',  ( 6.601050646979120055E-29, -1.037148451935871469E-14, -2.834699999999999775 ) ) ;
#28 = CIRCLE ( 'NONE', #254, 0.1180999999999999966 ) ;
#29 = APPROVAL_PERSON_ORGANIZATION ( #293, #233, #23 ) ;
#30 = DIRECTION ( 'NONE',  ( -2.445468806185136597E-29, 3.491481338843145583E-15, 1.000000000000000000 ) ) ;
#31 = PERSON_AND_ORGANIZATION ( #60, #210 ) ;
#32 = CARTESIAN_POINT ( 'NONE',  ( -8.177049295570133389E-16, -0.1171000000000068236, -1.968499999999999694 ) ) ;
#33 = EDGE_LOOP ( 'NONE', ( #38, #252, #193, #357 ) ) ;
#34 = DIRECTION ( 'NONE',  ( -2.452606242276133797E-29, 3.481260124123203654E-15, 1.000000000000000000 ) ) ;
#35 = ORIENTED_EDGE ( 'NONE', *, *, #181, .F. ) ;
#36 = DIRECTION ( 'NONE',  ( 5.024295867787803643E-15, 0.7071067811865135999, 0.7071067811865812125 ) ) ;
#37 = LOCAL_TIME ( 7, 43, 48.00000000000000000, #206 ) ;
#38 = ORIENTED_EDGE ( 'NONE', *, *, #97, .F. ) ;
#39 = FACE_OUTER_BOUND ( 'NONE', #49, .T. ) ;
#40 = ORIENTED_EDGE ( 'NONE', *, *, #24, .F. ) ;
#41 = CARTESIAN_POINT ( 'NONE',  ( -8.246878922347486570E-16, -0.1181000000000001077, 4.111368206589506915E-16 ) ) ;
#42 = EDGE_CURVE ( 'NONE', #395, #340, #385, .T. ) ;
#43 = LINE ( 'NONE', #41, #297 ) ;
#44 = AXIS2_PLACEMENT_3D ( 'NONE', #378, #62, #59 ) ;
#45 = EDGE_LOOP ( 'NONE', ( #111, #260, #105, #35 ) ) ;
#46 = LINE ( 'NONE', #313, #125 ) ;
#47 = VERTEX_POINT ( 'NONE', #213 ) ;
#48 = PLANE ( 'NONE',  #230 ) ;
#49 = EDGE_LOOP ( 'NONE', ( #103, #200, #257, #390 ) ) ;
#50 = APPROVAL ( #249, 'UNSPECIFIED' ) ;
#51 = PERSON_AND_ORGANIZATION ( #60, #210 ) ;
#52 = AXIS2_PLACEMENT_3D ( 'NONE', #225, #88, #237 ) ;
#53 = DATE_AND_TIME ( #176, #37 ) ;
#54 = AXIS2_PLACEMENT_3D ( 'NONE', #106, #171, #141 ) ;
#55 = APPLICATION_CONTEXT ( 'configuration controlled 3d designs of mechanical parts and assemblies' ) ;
#56 = UNCERTAINTY_MEASURE_WITH_UNIT (LENGTH_MEASURE( 1.000000000000000082E-05 ), #401, 'distance_accuracy_value', 'NONE');
#57 = CARTESIAN_POINT ( 'NONE',  ( 8.320455435751253094E-16, 0.1170999999999931263, -1.968500000000000361 ) ) ;
#58 = EDGE_CURVE ( 'NONE', #295, #259, #222, .T. ) ;
#59 = DIRECTION ( 'NONE',  ( -6.982962677686265922E-15, -1.000000000000000000, 4.626330217890360659E-15 ) ) ;
#60 = PERSON ( 'UNSPECIFIED', 'UNSPECIFIED', 'UNSPECIFIED', ('UNSPECIFIED'), ('UNSPECIFIED'), ('UNSPECIFIED') ) ;
#61 = CIRCLE ( 'NONE', #352, 0.1181000000000002603 ) ;
#62 = DIRECTION ( 'NONE',  ( -2.452606242276133797E-29, 3.481260124123203654E-15, 1.000000000000000000 ) ) ;
#63 = CALENDAR_DATE ( 2024, 10, 4 ) ;
#64 = CARTESIAN_POINT ( 'NONE',  ( 6.932170424893004060E-29, -9.897302151218662819E-15, -2.834699999999999331 ) ) ;
#65 = VERTEX_POINT ( 'NONE', #216 ) ;
#66 = LINE ( 'NONE', #32, #196 ) ;
#67 = VECTOR ( 'NONE', #182, 39.37007874015748143 ) ;
#68 = CARTESIAN_POINT ( 'NONE',  ( 6.932170424893004060E-29, -9.897302151218662819E-15, -2.834699999999999331 ) ) ;
#69 = ORIENTED_EDGE ( 'NONE', *, *, #175, .F. ) ;
#70 = CARTESIAN_POINT ( 'NONE',  ( 0.000000000000000000, 0.000000000000000000, 0.000000000000000000 ) ) ;
#71 = VERTEX_POINT ( 'NONE', #250 ) ;
#72 = ADVANCED_FACE ( 'NONE', ( #278 ), #244, .F. ) ;
#73 = DIRECTION ( 'NONE',  ( -2.445468806185136597E-29, 3.491481338843145583E-15, 1.000000000000000000 ) ) ;
#74 = ORIENTED_EDGE ( 'NONE', *, *, #42, .F. ) ;
#75 = DIRECTION ( 'NONE',  ( 2.452606242276133797E-29, -3.481260124123203654E-15, -1.000000000000000000 ) ) ;
#76 = AXIS2_PLACEMENT_3D ( 'NONE', #159, #276, #283 ) ;
#77 = ORIENTED_EDGE ( 'NONE', *, *, #181, .T. ) ;
#78 = CARTESIAN_POINT ( 'NONE',  ( -0.1180999999999999966, -7.545990612433018277E-15, -1.968499999999999694 ) ) ;
#79 = DIRECTION ( 'NONE',  ( 6.982962677686265922E-15, 1.000000000000000000, -3.481260124123204048E-15 ) ) ;
#80 = ADVANCED_FACE ( 'NONE', ( #300 ), #214, .T. ) ;
#81 = COORDINATED_UNIVERSAL_TIME_OFFSET ( 5, 0, .BEHIND. ) ;
#82 = AXIS2_PLACEMENT_3D ( 'NONE', #92, #212, #341 ) ;
#83 = AXIS2_PLACEMENT_3D ( 'NONE', #389, #363, #232 ) ;
#84 = EDGE_LOOP ( 'NONE', ( #400, #219 ) ) ;
#85 = APPROVAL_STATUS ( 'not_yet_approved' ) ;
#86 = EDGE_CURVE ( 'NONE', #71, #295, #7, .T. ) ;
#87 = PLANE ( 'NONE',  #242 ) ;
#88 = DIRECTION ( 'NONE',  ( -2.452606242276133797E-29, 3.481260124123203654E-15, 1.000000000000000000 ) ) ;
#89 = CIRCLE ( 'NONE', #248, 0.1180999999999999966 ) ;
#90 = CALENDAR_DATE ( 2024, 10, 4 ) ;
#91 = DESIGN_CONTEXT ( 'detailed design', #317, 'design' ) ;
#92 = CARTESIAN_POINT ( 'NONE',  ( 6.601050646979120055E-29, -1.037148451935871469E-14, -2.834699999999999775 ) ) ;
#93 = DIRECTION ( 'NONE',  ( 1.000000000000000000, -6.982962677686273021E-15, 0.000000000000000000 ) ) ;
#94 = CIRCLE ( 'NONE', #371, 0.1180999999999999966 ) ;
#95 = DIRECTION ( 'NONE',  ( 1.000000000000000000, -6.982962677686265133E-15, 0.000000000000000000 ) ) ;
#96 = CARTESIAN_POINT ( 'NONE',  ( 0.000000000000000000, 0.000000000000000000, 0.000000000000000000 ) ) ;
#97 = EDGE_CURVE ( 'NONE', #71, #314, #61, .T. ) ;
#98 = SPHERICAL_SURFACE ( 'NONE', #82, 0.1181000000000002603 ) ;
#99 = PRODUCT_DEFINITION ( 'UNKNOWN', '', #405, #91 ) ;
#100 = ORIENTED_EDGE ( 'NONE', *, *, #147, .F. ) ;
#101 = VECTOR ( 'NONE', #307, 39.37007874015748143 ) ;
#102 = CARTESIAN_POINT ( 'NONE',  ( 8.391509709327039337E-16, 0.1180999999999933908, -1.967500000000000249 ) ) ;
#103 = ORIENTED_EDGE ( 'NONE', *, *, #394, .T. ) ;
#104 = CARTESIAN_POINT ( 'NONE',  ( 4.905212484552273515E-31, -6.962520248246416231E-17, -0.02000000000000002470 ) ) ;
#105 = ORIENTED_EDGE ( 'NONE', *, *, #221, .T. ) ;
#106 = CARTESIAN_POINT ( 'NONE',  ( 6.601050646979120055E-29, -1.037148451935871469E-14, -2.834699999999999775 ) ) ;
#107 = ORIENTED_EDGE ( 'NONE', *, *, #175, .T. ) ;
#108 = EDGE_LOOP ( 'NONE', ( #217, #16, #231, #74 ) ) ;
#109 = CARTESIAN_POINT ( 'NONE',  ( 4.905212484552273515E-31, -6.962520248246416231E-17, -0.02000000000000002470 ) ) ;
#110 = AXIS2_PLACEMENT_3D ( 'NONE', #358, #13, #223 ) ;
#111 = ORIENTED_EDGE ( 'NONE', *, *, #140, .F. ) ;
#112 = LINE ( 'NONE', #132, #184 ) ;
#113 = DIRECTION ( 'NONE',  ( -2.445468806185136597E-29, 3.491481338843145583E-15, 1.000000000000000000 ) ) ;
#114 = CC_DESIGN_APPROVAL ( #50, ( #118 ) ) ;
#115 = PERSON_AND_ORGANIZATION ( #60, #210 ) ;
#116 = CC_DESIGN_PERSON_AND_ORGANIZATION_ASSIGNMENT ( #187, #338, ( #405 ) ) ;
#117 = CLOSED_SHELL ( 'NONE', ( #151, #286, #170, #282, #402 ) ) ;
#118 = SECURITY_CLASSIFICATION ( '', '', #122 ) ;
#119 = PERSON_AND_ORGANIZATION_ROLE ( 'creator' ) ;
#120 = FACE_OUTER_BOUND ( 'NONE', #33, .T. ) ;
#121 = CARTESIAN_POINT ( 'NONE',  ( -8.102248135368172434E-16, -0.1181000000000000660, -0.01999999999999961531 ) ) ;
#122 = SECURITY_CLASSIFICATION_LEVEL ( 'unclassified' ) ;
#123 = CARTESIAN_POINT ( 'NONE',  ( 4.827955387920569844E-29, -6.852860554336525962E-15, -1.968500000000000139 ) ) ;
#124 = EDGE_CURVE ( 'NONE', #1, #161, #128, .T. ) ;
#125 = VECTOR ( 'NONE', #6, 39.37007874015748143 ) ;
#126 = EDGE_LOOP ( 'NONE', ( #325, #107 ) ) ;
#127 = ORIENTED_EDGE ( 'NONE', *, *, #269, .T. ) ;
#128 = LINE ( 'NONE', #155, #101 ) ;
#129 = ORIENTED_EDGE ( 'NONE', *, *, #227, .T. ) ;
#130 = DIRECTION ( 'NONE',  ( -2.452606242276133797E-29, 3.481260124123203654E-15, 1.000000000000000000 ) ) ;
#131 = CARTESIAN_POINT ( 'NONE',  ( 8.246878922347960873E-16, 0.1180999999999931133, -1.968500000000000361 ) ) ;
#132 = CARTESIAN_POINT ( 'NONE',  ( 0.1180999999999999966, -8.246878922347480654E-16, 5.758764772215000440E-30 ) ) ;
#133 = CIRCLE ( 'NONE', #404, 0.1180999999999999966 ) ;
#134 = DIRECTION ( 'NONE',  ( -6.982962677686265922E-15, -1.000000000000000000, 3.481260124123203654E-15 ) ) ;
#135 = AXIS2_PLACEMENT_3D ( 'NONE', #109, #290, #162 ) ;
#136 = DIRECTION ( 'NONE',  ( -1.000000000000000000, 6.982962677686265922E-15, -4.876176775795935793E-29 ) ) ;
#137 = ORIENTED_EDGE ( 'NONE', *, *, #24, .T. ) ;
#138 = CARTESIAN_POINT ( 'NONE',  ( 8.246878922347484598E-16, 0.1180999999999999273, -0.02000000000000043410 ) ) ;
#139 = ORIENTED_EDGE ( 'NONE', *, *, #364, .T. ) ;
#140 = EDGE_CURVE ( 'NONE', #169, #349, #409, .T. ) ;
#141 = DIRECTION ( 'NONE',  ( 6.982962677686265922E-15, 1.000000000000000000, -4.626330217890359870E-15 ) ) ;
#142 = CONICAL_SURFACE ( 'NONE', #375, 0.1180999999999999966, 0.7853981633974477239 ) ;
#143 = MANIFOLD_SOLID_BREP ( 'Body-Move/Copy2[2]', #22 ) ;
#144 =( GEOMETRIC_REPRESENTATION_CONTEXT ( 3 ) GLOBAL_UNCERTAINTY_ASSIGNED_CONTEXT ( ( #56 ) ) GLOBAL_UNIT_ASSIGNED_CONTEXT ( ( #401, #403, #180 ) ) REPRESENTATION_CONTEXT ( 'NONE', 'WORKASPACE' ) );
#145 = DATE_AND_TIME ( #25, #215 ) ;
#146 = APPROVAL_STATUS ( 'not_yet_approved' ) ;
#147 = EDGE_CURVE ( 'NONE', #169, #47, #342, .T. ) ;
#148 = CIRCLE ( 'NONE', #178, 0.1180999999999999966 ) ;
#149 = ORIENTED_EDGE ( 'NONE', *, *, #209, .F. ) ;
#150 = APPROVAL_DATE_TIME ( #145, #233 ) ;
#151 = ADVANCED_FACE ( 'NONE', ( #274 ), #247, .T. ) ;
#152 = DIRECTION ( 'NONE',  ( -1.000000000000000000, 7.105427357601001070E-15, -4.926315508542082329E-29 ) ) ;
#153 = VECTOR ( 'NONE', #36, 39.37007874015748854 ) ;
#154 = ORIENTED_EDGE ( 'NONE', *, *, #58, .T. ) ;
#155 = CARTESIAN_POINT ( 'NONE',  ( -8.102248135368172434E-16, -0.1181000000000000660, -0.01999999999999961531 ) ) ;
#156 = DIRECTION ( 'NONE',  ( -4.937700262164294818E-15, -0.7071067811865088260, 0.7071067811865862085 ) ) ;
#157 = CARTESIAN_POINT ( 'NONE',  ( 6.601050646979120055E-29, -1.037148451935871469E-14, -2.834699999999999775 ) ) ;
#158 = COORDINATED_UNIVERSAL_TIME_OFFSET ( 5, 0, .BEHIND. ) ;
#159 = CARTESIAN_POINT ( 'NONE',  ( 4.827955387920569844E-29, -6.852860554336525962E-15, -1.968500000000000139 ) ) ;
#160 = CYLINDRICAL_SURFACE ( 'NONE', #255, 0.1181000000000001077 ) ;
#161 = VERTEX_POINT ( 'NONE', #121 ) ;
#162 = DIRECTION ( 'NONE',  ( 6.982962677686265922E-15, 1.000000000000000000, -3.469747663417777397E-15 ) ) ;
#163 = EDGE_CURVE ( 'NONE', #314, #65, #28, .T. ) ;
#164 = CARTESIAN_POINT ( 'NONE',  ( -7.416198335591027009E-16, -0.09810000000000014542, 1.953794923490464607E-16 ) ) ;
#165 = AXIS2_PLACEMENT_3D ( 'NONE', #393, #202, #329 ) ;
#166 = DIRECTION ( 'NONE',  ( -2.452606242276133797E-29, 3.481260124123203654E-15, 1.000000000000000000 ) ) ;
#167 = ORIENTED_EDGE ( 'NONE', *, *, #140, .T. ) ;
#168 = CARTESIAN_POINT ( 'NONE',  ( 3.584045640014615916E-45, -5.087239424964224647E-31, -1.461321258274403273E-16 ) ) ;
#169 = VERTEX_POINT ( 'NONE', #218 ) ;
#170 = ADVANCED_FACE ( 'NONE', ( #120 ), #98, .T. ) ;
#171 = DIRECTION ( 'NONE',  ( -1.000000000000000000, 6.982962677686265922E-15, -4.883557194083112901E-29 ) ) ;
#172 = EDGE_LOOP ( 'NONE', ( #287, #77, #262, #392 ) ) ;
#173 = DIRECTION ( 'NONE',  ( 1.000000000000000000, 0.000000000000000000, 0.000000000000000000 ) ) ;
#174 = LOCAL_TIME ( 7, 43, 48.00000000000000000, #158 ) ;
#175 = EDGE_CURVE ( 'NONE', #362, #384, #133, .T. ) ;
#176 = CALENDAR_DATE ( 2024, 10, 4 ) ;
#177 = APPROVAL_DATE_TIME ( #53, #366 ) ;
#178 = AXIS2_PLACEMENT_3D ( 'NONE', #302, #30, #95 ) ;
#179 = CARTESIAN_POINT ( 'NONE',  ( 8.246878922347484598E-16, 0.1180999999999999273, -0.02000000000000043410 ) ) ;
#180 =( NAMED_UNIT ( * ) SI_UNIT ( $, .STERADIAN. ) SOLID_ANGLE_UNIT ( ) );
#181 = EDGE_CURVE ( 'NONE', #349, #291, #263, .T. ) ;
#182 = DIRECTION ( 'NONE',  ( 4.937700262164544887E-15, 0.7071067811865446862, -0.7071067811865503483 ) ) ;
#183 = DIRECTION ( 'NONE',  ( -6.982962677686265133E-15, -1.000000000000000000, 3.481260124123203259E-15 ) ) ;
#184 = VECTOR ( 'NONE', #315, 39.37007874015748143 ) ;
#185 = LOCAL_TIME ( 7, 43, 48.00000000000000000, #211 ) ;
#186 = FACE_OUTER_BOUND ( 'NONE', #172, .T. ) ;
#187 = PERSON_AND_ORGANIZATION ( #60, #210 ) ;
#188 = DIRECTION ( 'NONE',  ( 6.982962677686265133E-15, 1.000000000000000000, 0.000000000000000000 ) ) ;
#189 = DIRECTION ( 'NONE',  ( -7.105427357601000281E-15, -1.000000000000000000, 0.000000000000000000 ) ) ;
#190 = CIRCLE ( 'NONE', #360, 0.1180999999999999966 ) ;
#191 = DIRECTION ( 'NONE',  ( -2.452606242276134078E-29, 3.481260124123204048E-15, 1.000000000000000000 ) ) ;
#192 = CARTESIAN_POINT ( 'NONE',  ( 3.584045640014615916E-45, -5.087239424964224647E-31, -1.461321258274403273E-16 ) ) ;
#193 = ORIENTED_EDGE ( 'NONE', *, *, #227, .F. ) ;
#194 = DIRECTION ( 'NONE',  ( 1.000000000000000000, -6.982962677686273021E-15, 0.000000000000000000 ) ) ;
#195 = ORIENTED_EDGE ( 'NONE', *, *, #163, .T. ) ;
#196 = VECTOR ( 'NONE', #156, 39.37007874015748143 ) ;
#197 = VECTOR ( 'NONE', #191, 39.37007874015748143 ) ;
#198 = ADVANCED_FACE ( 'NONE', ( #186 ), #305, .T. ) ;
#199 = CARTESIAN_POINT ( 'NONE',  ( -8.391509709326113411E-16, -0.1181000000000102662, -2.834699999999998443 ) ) ;
#200 = ORIENTED_EDGE ( 'NONE', *, *, #369, .T. ) ;
#201 = LINE ( 'NONE', #220, #197 ) ;
#202 = DIRECTION ( 'NONE',  ( -2.452606242276133797E-29, 3.481260124123203654E-15, 1.000000000000000000 ) ) ;
#203 = EDGE_LOOP ( 'NONE', ( #154, #127, #149, #234, #129 ) ) ;
#204 = PERSON_AND_ORGANIZATION_ROLE ( 'creator' ) ;
#205 = APPLICATION_PROTOCOL_DEFINITION ( 'international standard', 'config_control_design', 1994, #55 ) ;
#206 = COORDINATED_UNIVERSAL_TIME_OFFSET ( 5, 0, .BEHIND. ) ;
#207 = CARTESIAN_POINT ( 'NONE',  ( 6.850286386810237370E-16, 0.09810000000000014542, -4.145776810902069024E-16 ) ) ;
#208 = CIRCLE ( 'NONE', #2, 0.09810000000000014542 ) ;
#209 = EDGE_CURVE ( 'NONE', #384, #362, #148, .T. ) ;
#210 = ORGANIZATION ( 'UNSPECIFIED', 'UNSPECIFIED', '' ) ;
#211 = COORDINATED_UNIVERSAL_TIME_OFFSET ( 5, 0, .BEHIND. ) ;
#212 = DIRECTION ( 'NONE',  ( -1.000000000000000000, 6.982962677686265922E-15, -4.883557194083112901E-29 ) ) ;
#213 = CARTESIAN_POINT ( 'NONE',  ( -8.177049295570133389E-16, -0.1171000000000068236, -1.968499999999999694 ) ) ;
#214 = CONICAL_SURFACE ( 'NONE', #303, 0.1170999999999999819, 0.7853981633973970977 ) ;
#215 = LOCAL_TIME ( 7, 43, 48.00000000000000000, #238 ) ;
#216 = CARTESIAN_POINT ( 'NONE',  ( 0.1180999999999999966, -9.209829475600443948E-15, -2.834699999999999331 ) ) ;
#217 = ORIENTED_EDGE ( 'NONE', *, *, #277, .F. ) ;
#218 = CARTESIAN_POINT ( 'NONE',  ( 8.355982572539272926E-16, 0.1170999999999931540, -1.968500000000000361 ) ) ;
#219 = ORIENTED_EDGE ( 'NONE', *, *, #277, .T. ) ;
#220 = CARTESIAN_POINT ( 'NONE',  ( 8.391509709326788873E-16, 0.1181000000000001077, -4.111368206589506915E-16 ) ) ;
#221 = EDGE_CURVE ( 'NONE', #47, #291, #66, .T. ) ;
#222 = CIRCLE ( 'NONE', #334, 0.1180999999999999966 ) ;
#223 = DIRECTION ( 'NONE',  ( -6.982962677686265922E-15, -1.000000000000000000, 2.332918867347791515E-15 ) ) ;
#224 = EDGE_LOOP ( 'NONE', ( #397, #11, #289, #322 ) ) ;
#225 = CARTESIAN_POINT ( 'NONE',  ( 4.825502781678292621E-29, -6.849379294212400691E-15, -1.967499999999999805 ) ) ;
#226 = ORIENTED_EDGE ( 'NONE', *, *, #124, .F. ) ;
#227 = EDGE_CURVE ( 'NONE', #65, #295, #89, .T. ) ;
#228 = FACE_OUTER_BOUND ( 'NONE', #19, .T. ) ;
#229 = ORIENTED_EDGE ( 'NONE', *, *, #12, .T. ) ;
#230 = AXIS2_PLACEMENT_3D ( 'NONE', #131, #253, #136 ) ;
#231 = ORIENTED_EDGE ( 'NONE', *, *, #347, .T. ) ;
#232 = DIRECTION ( 'NONE',  ( -6.982962677686265922E-15, -1.000000000000000000, 3.469747663417777397E-15 ) ) ;
#233 = APPROVAL ( #85, 'UNSPECIFIED' ) ;
#234 = ORIENTED_EDGE ( 'NONE', *, *, #12, .F. ) ;
#235 = CARTESIAN_POINT ( 'NONE',  ( 7.548582654578861477E-16, 0.09810000000000014542, -4.876437440039271154E-16 ) ) ;
#236 = CC_DESIGN_PERSON_AND_ORGANIZATION_ASSIGNMENT ( #380, #301, ( #118 ) ) ;
#237 = DIRECTION ( 'NONE',  ( -6.982962677686265922E-15, -1.000000000000000000, 4.626330217890360659E-15 ) ) ;
#238 = COORDINATED_UNIVERSAL_TIME_OFFSET ( 5, 0, .BEHIND. ) ;
#239 = EDGE_CURVE ( 'NONE', #291, #161, #43, .T. ) ;
#240 = DATE_TIME_ROLE ( 'classification_date' ) ;
#241 = AXIS2_PLACEMENT_3D ( 'NONE', #192, #323, #134 ) ;
#242 = AXIS2_PLACEMENT_3D ( 'NONE', #207, #267, #79 ) ;
#243 = SHAPE_DEFINITION_REPRESENTATION ( #328, #308 ) ;
#244 = PLANE ( 'NONE',  #387 ) ;
#245 = DATE_AND_TIME ( #90, #174 ) ;
#246 = CARTESIAN_POINT ( 'NONE',  ( 4.813905344975440714E-29, -6.872981015512730918E-15, -1.968499999999999694 ) ) ;
#247 = CYLINDRICAL_SURFACE ( 'NONE', #268, 0.1180999999999999966 ) ;
#248 = AXIS2_PLACEMENT_3D ( 'NONE', #356, #73, #194 ) ;
#249 = APPROVAL_STATUS ( 'not_yet_approved' ) ;
#250 = CARTESIAN_POINT ( 'NONE',  ( 6.894910269927188200E-29, -1.077659692612712662E-14, -2.952799999999999869 ) ) ;
#251 = DIRECTION ( 'NONE',  ( -2.445468806185136597E-29, 3.491481338843145583E-15, 1.000000000000000000 ) ) ;
#252 = ORIENTED_EDGE ( 'NONE', *, *, #86, .T. ) ;
#253 = DIRECTION ( 'NONE',  ( 2.438088387897960049E-29, -3.491481338843145188E-15, -1.000000000000000000 ) ) ;
#254 = AXIS2_PLACEMENT_3D ( 'NONE', #343, #251, #408 ) ;
#255 = AXIS2_PLACEMENT_3D ( 'NONE', #70, #284, #285 ) ;
#256 = CARTESIAN_POINT ( 'NONE',  ( 0.1180999999999999966, -7.697668907747478392E-15, -1.968499999999999694 ) ) ;
#257 = ORIENTED_EDGE ( 'NONE', *, *, #347, .F. ) ;
#258 = DIRECTION ( 'NONE',  ( 1.000000000000000000, -6.982962677686273021E-15, 0.000000000000000000 ) ) ;
#259 = VERTEX_POINT ( 'NONE', #5 ) ;
#260 = ORIENTED_EDGE ( 'NONE', *, *, #147, .T. ) ;
#261 = DIRECTION ( 'NONE',  ( -6.982962677686265922E-15, -1.000000000000000000, 3.481260124123203654E-15 ) ) ;
#262 = ORIENTED_EDGE ( 'NONE', *, *, #239, .T. ) ;
#263 = CIRCLE ( 'NONE', #44, 0.1181000000000002187 ) ;
#264 = LOCAL_TIME ( 7, 43, 48.00000000000000000, #81 ) ;
#265 = FACE_OUTER_BOUND ( 'NONE', #108, .T. ) ;
#266 = DIMENSIONAL_EXPONENTS ( 1.000000000000000000, 0.000000000000000000, 0.000000000000000000, 0.000000000000000000, 0.000000000000000000, 0.000000000000000000, 0.000000000000000000 ) ;
#267 = DIRECTION ( 'NONE',  ( 2.452606242276133237E-29, -3.481260124123204048E-15, -1.000000000000000000 ) ) ;
#268 = AXIS2_PLACEMENT_3D ( 'NONE', #96, #346, #4 ) ;
#269 = EDGE_CURVE ( 'NONE', #259, #362, #46, .T. ) ;
#270 = EDGE_CURVE ( 'NONE', #259, #314, #190, .T. ) ;
#271 = DIRECTION ( 'NONE',  ( 0.000000000000000000, 0.000000000000000000, 1.000000000000000000 ) ) ;
#272 = CYLINDRICAL_SURFACE ( 'NONE', #304, 0.1180999999999999966 ) ;
#273 = MANIFOLD_SOLID_BREP ( 'Body-Move/Copy2[1]', #117 ) ;
#274 = FACE_OUTER_BOUND ( 'NONE', #203, .T. ) ;
#275 = CIRCLE ( 'NONE', #165, 0.1170999999999999819 ) ;
#276 = DIRECTION ( 'NONE',  ( -2.452606242276133797E-29, 3.481260124123203654E-15, 1.000000000000000000 ) ) ;
#277 = EDGE_CURVE ( 'NONE', #1, #395, #208, .T. ) ;
#278 = FACE_OUTER_BOUND ( 'NONE', #398, .T. ) ;
#279 = DIRECTION ( 'NONE',  ( -2.445468806185136597E-29, 3.491481338843145583E-15, 1.000000000000000000 ) ) ;
#280 = CONICAL_SURFACE ( 'NONE', #110, 0.1170999999999999819, 0.7853981633973970977 ) ;
#281 = AXIS2_PLACEMENT_3D ( 'NONE', #294, #271, #173 ) ;
#282 = ADVANCED_FACE ( 'NONE', ( #327 ), #48, .F. ) ;
#283 = DIRECTION ( 'NONE',  ( -6.982962677686265922E-15, -1.000000000000000000, 2.332918867347791515E-15 ) ) ;
#284 = DIRECTION ( 'NONE',  ( -2.452606242276133797E-29, 3.481260124123203654E-15, 1.000000000000000000 ) ) ;
#285 = DIRECTION ( 'NONE',  ( -6.982962677686265133E-15, -1.000000000000000000, 3.481260124123203259E-15 ) ) ;
#286 = ADVANCED_FACE ( 'NONE', ( #10 ), #391, .T. ) ;
#287 = ORIENTED_EDGE ( 'NONE', *, *, #369, .F. ) ;
#288 = CARTESIAN_POINT ( 'NONE',  ( -8.246878922347012268E-16, -0.1181000000000070604, -1.967499999999999138 ) ) ;
#289 = ORIENTED_EDGE ( 'NONE', *, *, #270, .F. ) ;
#290 = DIRECTION ( 'NONE',  ( 2.452606242276133797E-29, -3.481260124123203654E-15, -1.000000000000000000 ) ) ;
#291 = VERTEX_POINT ( 'NONE', #288 ) ;
#292 = ADVANCED_FACE ( 'NONE', ( #228 ), #280, .T. ) ;
#293 = PERSON_AND_ORGANIZATION ( #60, #210 ) ;
#294 = CARTESIAN_POINT ( 'NONE',  ( 0.000000000000000000, 0.000000000000000000, 0.000000000000000000 ) ) ;
#295 = VERTEX_POINT ( 'NONE', #17 ) ;
#296 = PERSON_AND_ORGANIZATION_ROLE ( 'design_owner' ) ;
#297 = VECTOR ( 'NONE', #318, 39.37007874015748143 ) ;
#298 = PERSON_AND_ORGANIZATION ( #60, #210 ) ;
#299 = ORIENTED_EDGE ( 'NONE', *, *, #330, .F. ) ;
#300 = FACE_OUTER_BOUND ( 'NONE', #45, .T. ) ;
#301 = PERSON_AND_ORGANIZATION_ROLE ( 'classification_officer' ) ;
#302 = CARTESIAN_POINT ( 'NONE',  ( 4.813905344975440714E-29, -6.872981015512730918E-15, -1.968499999999999694 ) ) ;
#303 = AXIS2_PLACEMENT_3D ( 'NONE', #123, #130, #379 ) ;
#304 = AXIS2_PLACEMENT_3D ( 'NONE', #21, #113, #331 ) ;
#305 = CYLINDRICAL_SURFACE ( 'NONE', #320, 0.1181000000000001077 ) ;
#306 = APPROVAL_DATE_TIME ( #376, #50 ) ;
#307 = DIRECTION ( 'NONE',  ( -4.851104656540961119E-15, -0.7071067811865495711, -0.7071067811865454633 ) ) ;
#308 = ADVANCED_BREP_SHAPE_REPRESENTATION ( '43506', ( #273, #143, #281 ), #144 ) ;
#309 = ADVANCED_FACE ( 'NONE', ( #265 ), #142, .T. ) ;
#310 = DIRECTION ( 'NONE',  ( 1.000000000000000000, -6.982962677686265922E-15, 4.883557194083112340E-29 ) ) ;
#311 = CIRCLE ( 'NONE', #241, 0.09810000000000014542 ) ;
#312 = CC_DESIGN_APPROVAL ( #233, ( #99 ) ) ;
#313 = CARTESIAN_POINT ( 'NONE',  ( -0.1180999999999999966, 8.391509709326782957E-16, -5.809262341591043784E-30 ) ) ;
#314 = VERTEX_POINT ( 'NONE', #199 ) ;
#315 = DIRECTION ( 'NONE',  ( -2.445468806185136877E-29, 3.491481338843145188E-15, 1.000000000000000000 ) ) ;
#316 = DIRECTION ( 'NONE',  ( -6.982962677686265922E-15, -1.000000000000000000, 3.469747663417777397E-15 ) ) ;
#317 = APPLICATION_CONTEXT ( 'configuration controlled 3d designs of mechanical parts and assemblies' ) ;
#318 = DIRECTION ( 'NONE',  ( -2.452606242276134078E-29, 3.481260124123204048E-15, 1.000000000000000000 ) ) ;
#319 = ORIENTED_EDGE ( 'NONE', *, *, #221, .F. ) ;
#320 = AXIS2_PLACEMENT_3D ( 'NONE', #381, #34, #183 ) ;
#321 = CC_DESIGN_SECURITY_CLASSIFICATION ( #118, ( #405 ) ) ;
#322 = ORIENTED_EDGE ( 'NONE', *, *, #58, .F. ) ;
#323 = DIRECTION ( 'NONE',  ( -2.452606242276133797E-29, 3.481260124123203654E-15, 1.000000000000000000 ) ) ;
#324 = CC_DESIGN_DATE_AND_TIME_ASSIGNMENT ( #245, #240, ( #118 ) ) ;
#325 = ORIENTED_EDGE ( 'NONE', *, *, #209, .T. ) ;
#326 = ORIENTED_EDGE ( 'NONE', *, *, #394, .F. ) ;
#327 = FACE_OUTER_BOUND ( 'NONE', #126, .T. ) ;
#328 = PRODUCT_DEFINITION_SHAPE ( 'NONE', 'NONE',  #99 ) ;
#329 = DIRECTION ( 'NONE',  ( -6.982962677686265922E-15, -1.000000000000000000, 2.332918867347791515E-15 ) ) ;
#330 = EDGE_CURVE ( 'NONE', #395, #1, #311, .T. ) ;
#331 = DIRECTION ( 'NONE',  ( 1.000000000000000000, -6.982962677686266711E-15, 4.876176775795936353E-29 ) ) ;
#332 = DATE_TIME_ROLE ( 'creation_date' ) ;
#333 =( LENGTH_UNIT ( ) NAMED_UNIT ( * ) SI_UNIT ( $, .METRE. ) );
#334 = AXIS2_PLACEMENT_3D ( 'NONE', #64, #279, #93 ) ;
#335 = APPLICATION_PROTOCOL_DEFINITION ( 'international standard', 'config_control_design', 1994, #317 ) ;
#336 = CC_DESIGN_APPROVAL ( #366, ( #405 ) ) ;
#337 = PRODUCT_RELATED_PRODUCT_CATEGORY ( 'detail', '', ( #348 ) ) ;
#338 = PERSON_AND_ORGANIZATION_ROLE ( 'design_supplier' ) ;
#339 = DIRECTION ( 'NONE',  ( 1.000000000000000000, -6.982962677686265133E-15, 0.000000000000000000 ) ) ;
#340 = VERTEX_POINT ( 'NONE', #138 ) ;
#341 = DIRECTION ( 'NONE',  ( 6.982962677686265922E-15, 1.000000000000000000, -4.626330217890359870E-15 ) ) ;
#342 = CIRCLE ( 'NONE', #76, 0.1170999999999999819 ) ;
#343 = CARTESIAN_POINT ( 'NONE',  ( 6.932170424893004060E-29, -9.897302151218662819E-15, -2.834699999999999331 ) ) ;
#344 = APPROVAL_ROLE ( '' ) ;
#345 = ADVANCED_FACE ( 'NONE', ( #354 ), #388, .T. ) ;
#346 = DIRECTION ( 'NONE',  ( -2.445468806185136597E-29, 3.491481338843145583E-15, 1.000000000000000000 ) ) ;
#347 = EDGE_CURVE ( 'NONE', #161, #340, #353, .T. ) ;
#348 = PRODUCT ( '43506', '43506', '', ( #406 ) ) ;
#349 = VERTEX_POINT ( 'NONE', #102 ) ;
#350 = DIRECTION ( 'NONE',  ( -2.445468806185136597E-29, 3.491481338843145583E-15, 1.000000000000000000 ) ) ;
#351 = DIRECTION ( 'NONE',  ( -2.445468806185136597E-29, 3.491481338843145583E-15, 1.000000000000000000 ) ) ;
#352 = AXIS2_PLACEMENT_3D ( 'NONE', #27, #152, #189 ) ;
#353 = CIRCLE ( 'NONE', #83, 0.1180999999999999966 ) ;
#354 = FACE_OUTER_BOUND ( 'NONE', #359, .T. ) ;
#355 = ORIENTED_EDGE ( 'NONE', *, *, #269, .F. ) ;
#356 = CARTESIAN_POINT ( 'NONE',  ( 6.932170424893004060E-29, -9.897302151218662819E-15, -2.834699999999999331 ) ) ;
#357 = ORIENTED_EDGE ( 'NONE', *, *, #163, .F. ) ;
#358 = CARTESIAN_POINT ( 'NONE',  ( 4.827955387920569844E-29, -6.852860554336525962E-15, -1.968500000000000139 ) ) ;
#359 = EDGE_LOOP ( 'NONE', ( #226, #299, #370, #139 ) ) ;
#360 = AXIS2_PLACEMENT_3D ( 'NONE', #68, #351, #258 ) ;
#361 = APPROVAL_PERSON_ORGANIZATION ( #115, #366, #372 ) ;
#362 = VERTEX_POINT ( 'NONE', #78 ) ;
#363 = DIRECTION ( 'NONE',  ( -2.452606242276133797E-29, 3.481260124123203654E-15, 1.000000000000000000 ) ) ;
#364 = EDGE_CURVE ( 'NONE', #340, #161, #94, .T. ) ;
#365 = DATE_AND_TIME ( #20, #264 ) ;
#366 = APPROVAL ( #146, 'UNSPECIFIED' ) ;
#367 = PERSON_AND_ORGANIZATION ( #60, #210 ) ;
#368 = CC_DESIGN_PERSON_AND_ORGANIZATION_ASSIGNMENT ( #298, #119, ( #405 ) ) ;
#369 = EDGE_CURVE ( 'NONE', #349, #340, #201, .T. ) ;
#370 = ORIENTED_EDGE ( 'NONE', *, *, #42, .T. ) ;
#371 = AXIS2_PLACEMENT_3D ( 'NONE', #104, #399, #316 ) ;
#372 = APPROVAL_ROLE ( '' ) ;
#373 = FACE_OUTER_BOUND ( 'NONE', #84, .T. ) ;
#374 = FACE_OUTER_BOUND ( 'NONE', #411, .T. ) ;
#375 = AXIS2_PLACEMENT_3D ( 'NONE', #396, #75, #386 ) ;
#376 = DATE_AND_TIME ( #63, #185 ) ;
#377 = ADVANCED_FACE ( 'NONE', ( #39 ), #160, .T. ) ;
#378 = CARTESIAN_POINT ( 'NONE',  ( 4.825502781678292621E-29, -6.849379294212400691E-15, -1.967499999999999805 ) ) ;
#379 = DIRECTION ( 'NONE',  ( -6.982962677686265922E-15, -1.000000000000000000, 2.332918867347791515E-15 ) ) ;
#380 = PERSON_AND_ORGANIZATION ( #60, #210 ) ;
#381 = CARTESIAN_POINT ( 'NONE',  ( 0.000000000000000000, 0.000000000000000000, 0.000000000000000000 ) ) ;
#382 = CC_DESIGN_PERSON_AND_ORGANIZATION_ASSIGNMENT ( #51, #296, ( #348 ) ) ;
#383 = CARTESIAN_POINT ( 'NONE',  ( 4.827955387920569844E-29, -6.852860554336525962E-15, -1.968500000000000139 ) ) ;
#384 = VERTEX_POINT ( 'NONE', #256 ) ;
#385 = LINE ( 'NONE', #179, #67 ) ;
#386 = DIRECTION ( 'NONE',  ( 6.982962677686265922E-15, 1.000000000000000000, -3.469747663417777397E-15 ) ) ;
#387 = AXIS2_PLACEMENT_3D ( 'NONE', #383, #412, #3 ) ;
#388 = CONICAL_SURFACE ( 'NONE', #135, 0.1180999999999999966, 0.7853981633974477239 ) ;
#389 = CARTESIAN_POINT ( 'NONE',  ( 4.905212484552273515E-31, -6.962520248246416231E-17, -0.02000000000000002470 ) ) ;
#390 = ORIENTED_EDGE ( 'NONE', *, *, #239, .F. ) ;
#391 = SPHERICAL_SURFACE ( 'NONE', #54, 0.1181000000000002603 ) ;
#392 = ORIENTED_EDGE ( 'NONE', *, *, #364, .F. ) ;
#393 = CARTESIAN_POINT ( 'NONE',  ( 4.827955387920569844E-29, -6.852860554336525962E-15, -1.968500000000000139 ) ) ;
#394 = EDGE_CURVE ( 'NONE', #291, #349, #8, .T. ) ;
#395 = VERTEX_POINT ( 'NONE', #235 ) ;
#396 = CARTESIAN_POINT ( 'NONE',  ( 4.905212484552273515E-31, -6.962520248246416231E-17, -0.02000000000000002470 ) ) ;
#397 = ORIENTED_EDGE ( 'NONE', *, *, #86, .F. ) ;
#398 = EDGE_LOOP ( 'NONE', ( #40, #100 ) ) ;
#399 = DIRECTION ( 'NONE',  ( -2.452606242276133797E-29, 3.481260124123203654E-15, 1.000000000000000000 ) ) ;
#400 = ORIENTED_EDGE ( 'NONE', *, *, #330, .T. ) ;
#401 =( CONVERSION_BASED_UNIT ( 'INCH', #18 ) LENGTH_UNIT ( ) NAMED_UNIT ( #266 ) );
#402 = ADVANCED_FACE ( 'NONE', ( #374 ), #272, .T. ) ;
#403 =( NAMED_UNIT ( * ) PLANE_ANGLE_UNIT ( ) SI_UNIT ( $, .RADIAN. ) );
#404 = AXIS2_PLACEMENT_3D ( 'NONE', #246, #350, #339 ) ;
#405 = PRODUCT_DEFINITION_FORMATION_WITH_SPECIFIED_SOURCE ( 'ANY', '', #348, .NOT_KNOWN. ) ;
#406 = MECHANICAL_CONTEXT ( 'NONE', #55, 'mechanical' ) ;
#407 = AXIS2_PLACEMENT_3D ( 'NONE', #157, #310, #188 ) ;
#408 = DIRECTION ( 'NONE',  ( 1.000000000000000000, -6.982962677686273021E-15, 0.000000000000000000 ) ) ;
#409 = LINE ( 'NONE', #57, #153 ) ;
#410 = ADVANCED_FACE ( 'NONE', ( #373 ), #87, .F. ) ;
#411 = EDGE_LOOP ( 'NONE', ( #355, #14, #195, #229, #69 ) ) ;
#412 = DIRECTION ( 'NONE',  ( -2.452606242276133237E-29, 3.481260124123204048E-15, 1.000000000000000000 ) ) ;
ENDSEC;
END-ISO-10303-21;
