ISO-10303-21;
HEADER;
FILE_DESCRIPTION (( 'STEP AP203' ),
    '1' );
FILE_NAME ('43935.STEP',
    '2024-02-28T05:45:22',
    ( '' ),
    ( '' ),
    'SwSTEP 2.0',
    'SolidWorks 2023',
    '' );
FILE_SCHEMA (( 'CONFIG_CONTROL_DESIGN' ));
ENDSEC;

DATA;
#1 = DATE_AND_TIME ( #5, #37 ) ;
#2 = ORIENTED_EDGE ( 'NONE', *, *, #310, .T. ) ;
#3 = APPROVAL_STATUS ( 'not_yet_approved' ) ;
#4 = ORIENTED_EDGE ( 'NONE', *, *, #232, .T. ) ;
#5 = CALENDAR_DATE ( 2024, 28, 2 ) ;
#6 = ORIENTED_EDGE ( 'NONE', *, *, #252, .F. ) ;
#7 = CIRCLE ( 'NONE', #83, 0.2361999999999999933 ) ;
#8 = CC_DESIGN_PERSON_AND_ORGANIZATION_ASSIGNMENT ( #286, #112, ( #164 ) ) ;
#9 = EDGE_LOOP ( 'NONE', ( #294, #198, #149, #33 ) ) ;
#10 = FACE_OUTER_BOUND ( 'NONE', #196, .T. ) ;
#11 = DIRECTION ( 'NONE',  ( -2.445468806185136597E-29, 3.491481338843145583E-15, 1.000000000000000000 ) ) ;
#12 = LOCAL_TIME ( 0, 45, 22.00000000000000000, #223 ) ;
#13 = CARTESIAN_POINT ( 'NONE',  ( -0.2351999999999999924, -9.320274655964395310E-15, -3.149600000000000399 ) ) ;
#14 = CARTESIAN_POINT ( 'NONE',  ( 0.000000000000000000, 0.000000000000000000, 0.000000000000000000 ) ) ;
#15 = EDGE_CURVE ( 'NONE', #222, #341, #132, .T. ) ;
#16 = CARTESIAN_POINT ( 'NONE',  ( 7.699803083154522229E-29, -1.099327814348152930E-14, -3.148600000000000509 ) ) ;
#17 = AXIS2_PLACEMENT_3D ( 'NONE', #16, #244, #102 ) ;
#18 = DIRECTION ( 'NONE',  ( -2.445468806185136597E-29, 3.491481338843145583E-15, 1.000000000000000000 ) ) ;
#19 = DIMENSIONAL_EXPONENTS ( 1.000000000000000000, 0.000000000000000000, 0.000000000000000000, 0.000000000000000000, 0.000000000000000000, 0.000000000000000000, 0.000000000000000000 ) ;
#20 = DIRECTION ( 'NONE',  ( 2.445468806185136597E-29, -3.491481338843145583E-15, -1.000000000000000000 ) ) ;
#21 = EDGE_CURVE ( 'NONE', #292, #259, #97, .T. ) ;
#22 = CLOSED_SHELL ( 'NONE', ( #344, #91, #278, #329 ) ) ;
#23 = CARTESIAN_POINT ( 'NONE',  ( 0.000000000000000000, 0.000000000000000000, 0.000000000000000000 ) ) ;
#24 = DIRECTION ( 'NONE',  ( 1.000000000000000000, -6.982962677686268288E-15, 0.000000000000000000 ) ) ;
#25 = ORIENTED_EDGE ( 'NONE', *, *, #213, .F. ) ;
#26 = AXIS2_PLACEMENT_3D ( 'NONE', #121, #267, #69 ) ;
#27 = SECURITY_CLASSIFICATION_LEVEL ( 'unclassified' ) ;
#28 = EDGE_CURVE ( 'NONE', #169, #338, #210, .T. ) ;
#29 = LOCAL_TIME ( 0, 45, 22.00000000000000000, #34 ) ;
#30 = VERTEX_POINT ( 'NONE', #324 ) ;
#31 = ORIENTED_EDGE ( 'NONE', *, *, #128, .F. ) ;
#32 = COORDINATED_UNIVERSAL_TIME_OFFSET ( 5, 0, .BEHIND. ) ;
#33 = ORIENTED_EDGE ( 'NONE', *, *, #137, .F. ) ;
#34 = COORDINATED_UNIVERSAL_TIME_OFFSET ( 5, 0, .BEHIND. ) ;
#35 = AXIS2_PLACEMENT_3D ( 'NONE', #180, #125, #103 ) ;
#36 = VERTEX_POINT ( 'NONE', #154 ) ;
#37 = LOCAL_TIME ( 0, 45, 22.00000000000000000, #258 ) ;
#38 = DIRECTION ( 'NONE',  ( -2.445468806185136597E-29, 3.491481338843145583E-15, 1.000000000000000000 ) ) ;
#39 = EDGE_CURVE ( 'NONE', #338, #216, #104, .T. ) ;
#40 = LINE ( 'NONE', #74, #139 ) ;
#41 = DIRECTION ( 'NONE',  ( 1.000000000000000000, -6.982962677686265922E-15, 4.876176775795935793E-29 ) ) ;
#42 = AXIS2_PLACEMENT_3D ( 'NONE', #206, #11, #240 ) ;
#43 = CARTESIAN_POINT ( 'NONE',  ( 0.2361999999999999933, -1.649375784469496131E-15, 1.151752954443000088E-29 ) ) ;
#44 = ADVANCED_FACE ( 'NONE', ( #151 ), #101, .F. ) ;
#45 = FACE_OUTER_BOUND ( 'NONE', #311, .T. ) ;
#46 = FACE_OUTER_BOUND ( 'NONE', #62, .T. ) ;
#47 = VECTOR ( 'NONE', #191, 39.37007874015748143 ) ;
#48 = APPROVAL_PERSON_ORGANIZATION ( #200, #77, #141 ) ;
#49 = CARTESIAN_POINT ( 'NONE',  ( 1.649375784469572847E-15, 0.2361999999999890021, -3.149600000000001288 ) ) ;
#50 = ORIENTED_EDGE ( 'NONE', *, *, #137, .T. ) ;
#51 = LINE ( 'NONE', #217, #236 ) ;
#52 = CARTESIAN_POINT ( 'NONE',  ( 7.702248551960706711E-29, -1.099676962482037231E-14, -3.149600000000000399 ) ) ;
#53 = AXIS2_PLACEMENT_3D ( 'NONE', #212, #328, #299 ) ;
#54 = AXIS2_PLACEMENT_3D ( 'NONE', #194, #166, #291 ) ;
#55 = ADVANCED_FACE ( 'NONE', ( #272 ), #152, .T. ) ;
#56 = ORIENTED_EDGE ( 'NONE', *, *, #239, .T. ) ;
#57 = PERSON_AND_ORGANIZATION ( #100, #219 ) ;
#58 = EDGE_LOOP ( 'NONE', ( #143, #342, #4, #255 ) ) ;
#59 = CIRCLE ( 'NONE', #249, 0.2361999999999999933 ) ;
#60 = SHAPE_DEFINITION_REPRESENTATION ( #251, #124 ) ;
#61 = APPROVAL_PERSON_ORGANIZATION ( #115, #254, #168 ) ;
#62 = EDGE_LOOP ( 'NONE', ( #129, #63, #172, #316 ) ) ;
#63 = ORIENTED_EDGE ( 'NONE', *, *, #252, .T. ) ;
#64 = DATE_TIME_ROLE ( 'creation_date' ) ;
#65 = CARTESIAN_POINT ( 'NONE',  ( 1.059059175894597327E-28, -1.512055823412801291E-14, -4.330700000000000216 ) ) ;
#66 = AXIS2_PLACEMENT_3D ( 'NONE', #68, #183, #303 ) ;
#67 = DIRECTION ( 'NONE',  ( -2.445468806185136597E-29, 3.491481338843145583E-15, 1.000000000000000000 ) ) ;
#68 = CARTESIAN_POINT ( 'NONE',  ( 4.890937612370283668E-31, -6.982962677686305168E-17, -0.02000000000000004205 ) ) ;
#69 = DIRECTION ( 'NONE',  ( -1.000000000000000000, 6.982962677686265922E-15, -4.876176775795935793E-29 ) ) ;
#70 = CYLINDRICAL_SURFACE ( 'NONE', #92, 0.2361999999999997990 ) ;
#71 = ADVANCED_FACE ( 'NONE', ( #153 ), #347, .F. ) ;
#72 = AXIS2_PLACEMENT_3D ( 'NONE', #49, #106, #160 ) ;
#73 = AXIS2_PLACEMENT_3D ( 'NONE', #189, #165, #108 ) ;
#74 = CARTESIAN_POINT ( 'NONE',  ( 0.2351999999999999924, -1.263916244661218282E-14, -3.149600000000000399 ) ) ;
#75 = LINE ( 'NONE', #161, #162 ) ;
#76 = DIRECTION ( 'NONE',  ( 1.000000000000000000, -6.982962677686265133E-15, 0.000000000000000000 ) ) ;
#77 = APPROVAL ( #3, 'UNSPECIFIED' ) ;
#78 = CARTESIAN_POINT ( 'NONE',  ( -0.2161999999999995870, 1.544631344304199211E-15, 4.268512490089730842E-18 ) ) ;
#79 = MANIFOLD_SOLID_BREP ( 'Body-Move/Copy2[2]', #181 ) ;
#80 = CARTESIAN_POINT ( 'NONE',  ( -0.2361999999999999933, -1.138036198760883543E-14, -4.330700000000000216 ) ) ;
#81 = DIRECTION ( 'NONE',  ( -2.445468806185136597E-29, 3.491481338843145583E-15, 1.000000000000000000 ) ) ;
#82 = EDGE_CURVE ( 'NONE', #30, #159, #231, .T. ) ;
#83 = AXIS2_PLACEMENT_3D ( 'NONE', #220, #18, #134 ) ;
#84 = CIRCLE ( 'NONE', #211, 0.2361999999999996325 ) ;
#85 = DATE_AND_TIME ( #89, #12 ) ;
#86 = CALENDAR_DATE ( 2024, 28, 2 ) ;
#87 = ORIENTED_EDGE ( 'NONE', *, *, #82, .F. ) ;
#88 = MANIFOLD_SOLID_BREP ( 'Body-Move/Copy2[1]', #22 ) ;
#89 = CALENDAR_DATE ( 2024, 28, 2 ) ;
#90 = ORIENTED_EDGE ( 'NONE', *, *, #213, .T. ) ;
#91 = ADVANCED_FACE ( 'NONE', ( #178 ), #302, .T. ) ;
#92 = AXIS2_PLACEMENT_3D ( 'NONE', #208, #182, #155 ) ;
#93 = DIRECTION ( 'NONE',  ( -2.445468806185136597E-29, 3.491481338843145583E-15, 1.000000000000000000 ) ) ;
#94 = DATE_AND_TIME ( #86, #140 ) ;
#95 = ORIENTED_EDGE ( 'NONE', *, *, #283, .T. ) ;
#96 = DIRECTION ( 'NONE',  ( 1.000000000000000000, -6.982962677686265133E-15, 0.000000000000000000 ) ) ;
#97 = CIRCLE ( 'NONE', #241, 0.2361999999999999933 ) ;
#98 = DIRECTION ( 'NONE',  ( -2.445468806185136597E-29, 3.491481338843145583E-15, 1.000000000000000000 ) ) ;
#99 =( GEOMETRIC_REPRESENTATION_CONTEXT ( 3 ) GLOBAL_UNCERTAINTY_ASSIGNED_CONTEXT ( ( #173 ) ) GLOBAL_UNIT_ASSIGNED_CONTEXT ( ( #131, #136, #317 ) ) REPRESENTATION_CONTEXT ( 'NONE', 'WORKASPACE' ) );
#100 = PERSON ( 'UNSPECIFIED', 'UNSPECIFIED', 'UNSPECIFIED', ('UNSPECIFIED'), ('UNSPECIFIED'), ('UNSPECIFIED') ) ;
#101 = PLANE ( 'NONE',  #35 ) ;
#102 = DIRECTION ( 'NONE',  ( 1.000000000000000000, -6.982962677686265133E-15, 0.000000000000000000 ) ) ;
#103 = DIRECTION ( 'NONE',  ( -1.000000000000000000, 6.982962677686265922E-15, -4.876176775795935793E-29 ) ) ;
#104 = LINE ( 'NONE', #273, #218 ) ;
#105 = CYLINDRICAL_SURFACE ( 'NONE', #256, 0.2361999999999999933 ) ;
#106 = DIRECTION ( 'NONE',  ( 2.438088387897960049E-29, -3.491481338843145188E-15, -1.000000000000000000 ) ) ;
#107 = FACE_OUTER_BOUND ( 'NONE', #9, .T. ) ;
#108 = DIRECTION ( 'NONE',  ( 1.000000000000000000, -6.982962677686265133E-15, 0.000000000000000000 ) ) ;
#109 = PERSON_AND_ORGANIZATION ( #100, #219 ) ;
#110 = EDGE_CURVE ( 'NONE', #259, #292, #205, .T. ) ;
#111 = AXIS2_PLACEMENT_3D ( 'NONE', #307, #20, #127 ) ;
#112 = PERSON_AND_ORGANIZATION_ROLE ( 'design_supplier' ) ;
#113 = ORIENTED_EDGE ( 'NONE', *, *, #128, .T. ) ;
#114 = EDGE_LOOP ( 'NONE', ( #138, #2, #50, #345 ) ) ;
#115 = PERSON_AND_ORGANIZATION ( #100, #219 ) ;
#116 = CARTESIAN_POINT ( 'NONE',  ( 7.699803083154522229E-29, -1.099327814348152930E-14, -3.148600000000000509 ) ) ;
#117 = AXIS2_PLACEMENT_3D ( 'NONE', #235, #271, #323 ) ;
#118 = PERSON_AND_ORGANIZATION ( #100, #219 ) ;
#119 = EDGE_LOOP ( 'NONE', ( #287, #309, #175, #227 ) ) ;
#120 = DIRECTION ( 'NONE',  ( -2.445468806185136597E-29, 3.491481338843145583E-15, 1.000000000000000000 ) ) ;
#121 = CARTESIAN_POINT ( 'NONE',  ( 1.649375784469601641E-15, 0.2361999999999848665, -4.330700000000001104 ) ) ;
#122 = DIRECTION ( 'NONE',  ( -2.438088387897960049E-29, 3.491481338843145188E-15, 1.000000000000000000 ) ) ;
#123 = CARTESIAN_POINT ( 'NONE',  ( 0.2361999999999996325, -1.690279253850496207E-15, -0.02000000000000004205 ) ) ;
#124 = ADVANCED_BREP_SHAPE_REPRESENTATION ( '43935', ( #88, #79, #54 ), #99 ) ;
#125 = DIRECTION ( 'NONE',  ( 2.438088387897960049E-29, -3.491481338843145188E-15, -1.000000000000000000 ) ) ;
#126 = DIRECTION ( 'NONE',  ( -2.445468806185136877E-29, 3.491481338843145188E-15, 1.000000000000000000 ) ) ;
#127 = DIRECTION ( 'NONE',  ( -1.000000000000000000, 6.982962677686266711E-15, 0.000000000000000000 ) ) ;
#128 = EDGE_CURVE ( 'NONE', #341, #222, #282, .T. ) ;
#129 = ORIENTED_EDGE ( 'NONE', *, *, #15, .F. ) ;
#130 = DIRECTION ( 'NONE',  ( 1.000000000000000000, -6.982962677686266711E-15, 0.000000000000000000 ) ) ;
#131 =( CONVERSION_BASED_UNIT ( 'INCH', #363 ) LENGTH_UNIT ( ) NAMED_UNIT ( #19 ) );
#132 = CIRCLE ( 'NONE', #274, 0.2161999999999995870 ) ;
#133 = ADVANCED_FACE ( 'NONE', ( #351 ), #358, .T. ) ;
#134 = DIRECTION ( 'NONE',  ( 1.000000000000000000, -6.982962677686265133E-15, 0.000000000000000000 ) ) ;
#135 = CC_DESIGN_PERSON_AND_ORGANIZATION_ASSIGNMENT ( #109, #202, ( #187 ) ) ;
#136 =( NAMED_UNIT ( * ) PLANE_ANGLE_UNIT ( ) SI_UNIT ( $, .RADIAN. ) );
#137 = EDGE_CURVE ( 'NONE', #30, #259, #40, .T. ) ;
#138 = ORIENTED_EDGE ( 'NONE', *, *, #289, .F. ) ;
#139 = VECTOR ( 'NONE', #350, 39.37007874015748143 ) ;
#140 = LOCAL_TIME ( 0, 45, 22.00000000000000000, #32 ) ;
#141 = APPROVAL_ROLE ( '' ) ;
#142 = CC_DESIGN_DATE_AND_TIME_ASSIGNMENT ( #94, #64, ( #185 ) ) ;
#143 = ORIENTED_EDGE ( 'NONE', *, *, #39, .F. ) ;
#144 = EDGE_LOOP ( 'NONE', ( #113, #290 ) ) ;
#145 = DATE_AND_TIME ( #174, #348 ) ;
#146 = EDGE_LOOP ( 'NONE', ( #87, #366 ) ) ;
#147 = AXIS2_PLACEMENT_3D ( 'NONE', #14, #38, #179 ) ;
#148 = CALENDAR_DATE ( 2024, 28, 2 ) ;
#149 = ORIENTED_EDGE ( 'NONE', *, *, #110, .F. ) ;
#150 = PRODUCT_RELATED_PRODUCT_CATEGORY ( 'detail', '', ( #247 ) ) ;
#151 = FACE_OUTER_BOUND ( 'NONE', #144, .T. ) ;
#152 = CYLINDRICAL_SURFACE ( 'NONE', #147, 0.2361999999999997990 ) ;
#153 = FACE_OUTER_BOUND ( 'NONE', #146, .T. ) ;
#154 = CARTESIAN_POINT ( 'NONE',  ( 0.2361999999999999933, -1.264614540928986883E-14, -3.149600000000000399 ) ) ;
#155 = DIRECTION ( 'NONE',  ( 1.000000000000000000, -6.982962677686266711E-15, 4.876176775795935232E-29 ) ) ;
#156 = ADVANCED_FACE ( 'NONE', ( #10 ), #225, .T. ) ;
#157 = DIRECTION ( 'NONE',  ( -2.445468806185136597E-29, 3.491481338843145583E-15, 1.000000000000000000 ) ) ;
#158 = DIRECTION ( 'NONE',  ( -2.445468806185136877E-29, 3.491481338843145188E-15, 1.000000000000000000 ) ) ;
#159 = VERTEX_POINT ( 'NONE', #13 ) ;
#160 = DIRECTION ( 'NONE',  ( -1.000000000000000000, 6.982962677686265922E-15, -4.876176775795935793E-29 ) ) ;
#161 = CARTESIAN_POINT ( 'NONE',  ( -0.2351999999999999924, -9.325573110312616134E-15, -3.149600000000000399 ) ) ;
#162 = VECTOR ( 'NONE', #281, 39.37007874015748143 ) ;
#163 = AXIS2_PLACEMENT_3D ( 'NONE', #269, #122, #41 ) ;
#164 = PRODUCT_DEFINITION_FORMATION_WITH_SPECIFIED_SOURCE ( 'ANY', '', #247, .NOT_KNOWN. ) ;
#165 = DIRECTION ( 'NONE',  ( -2.445468806185136597E-29, 3.491481338843145583E-15, 1.000000000000000000 ) ) ;
#166 = DIRECTION ( 'NONE',  ( 0.000000000000000000, 0.000000000000000000, 1.000000000000000000 ) ) ;
#167 = EDGE_LOOP ( 'NONE', ( #265, #346 ) ) ;
#168 = APPROVAL_ROLE ( '' ) ;
#169 = VERTEX_POINT ( 'NONE', #237 ) ;
#170 = CIRCLE ( 'NONE', #73, 0.2361999999999999933 ) ;
#171 = MECHANICAL_CONTEXT ( 'NONE', #257, 'mechanical' ) ;
#172 = ORIENTED_EDGE ( 'NONE', *, *, #355, .T. ) ;
#173 = UNCERTAINTY_MEASURE_WITH_UNIT (LENGTH_MEASURE( 1.000000000000000082E-05 ), #131, 'distance_accuracy_value', 'NONE');
#174 = CALENDAR_DATE ( 2024, 28, 2 ) ;
#175 = ORIENTED_EDGE ( 'NONE', *, *, #239, .F. ) ;
#176 = APPLICATION_PROTOCOL_DEFINITION ( 'international standard', 'config_control_design', 1994, #276 ) ;
#177 = ORIENTED_EDGE ( 'NONE', *, *, #361, .F. ) ;
#178 = FACE_OUTER_BOUND ( 'NONE', #167, .T. ) ;
#179 = DIRECTION ( 'NONE',  ( 1.000000000000000000, -6.982962677686266711E-15, 4.876176775795935232E-29 ) ) ;
#180 = CARTESIAN_POINT ( 'NONE',  ( 1.509716530915767759E-15, 0.2161999999999995870, -7.527240092128365260E-16 ) ) ;
#181 = CLOSED_SHELL ( 'NONE', ( #296, #224, #266, #156, #55, #133, #71, #44 ) ) ;
#182 = DIRECTION ( 'NONE',  ( -2.445468806185136597E-29, 3.491481338843145583E-15, 1.000000000000000000 ) ) ;
#183 = DIRECTION ( 'NONE',  ( -2.445468806185136597E-29, 3.491481338843145583E-15, 1.000000000000000000 ) ) ;
#184 = PLANE ( 'NONE',  #72 ) ;
#185 = PRODUCT_DEFINITION ( 'UNKNOWN', '', #164, #280 ) ;
#186 = CARTESIAN_POINT ( 'NONE',  ( 0.2361999999999999933, -1.264265392795102583E-14, -3.148600000000000509 ) ) ;
#187 = SECURITY_CLASSIFICATION ( '', '', #27 ) ;
#188 = DIRECTION ( 'NONE',  ( 1.000000000000000000, -6.982962677686266711E-15, 4.876176775795936353E-29 ) ) ;
#189 = CARTESIAN_POINT ( 'NONE',  ( 1.059059175894597327E-28, -1.512055823412801291E-14, -4.330700000000000216 ) ) ;
#190 = EDGE_LOOP ( 'NONE', ( #177, #204, #262, #25 ) ) ;
#191 = DIRECTION ( 'NONE',  ( -0.7071067811865471286, 2.468850131082252722E-15, -0.7071067811865479058 ) ) ;
#192 = VERTEX_POINT ( 'NONE', #123 ) ;
#193 = VECTOR ( 'NONE', #158, 39.37007874015748143 ) ;
#194 = CARTESIAN_POINT ( 'NONE',  ( 0.000000000000000000, 0.000000000000000000, 0.000000000000000000 ) ) ;
#195 = APPROVAL_STATUS ( 'not_yet_approved' ) ;
#196 = EDGE_LOOP ( 'NONE', ( #6, #31, #318, #90 ) ) ;
#197 = PERSON_AND_ORGANIZATION_ROLE ( 'creator' ) ;
#198 = ORIENTED_EDGE ( 'NONE', *, *, #289, .T. ) ;
#199 = AXIS2_PLACEMENT_3D ( 'NONE', #298, #98, #209 ) ;
#200 = PERSON_AND_ORGANIZATION ( #100, #219 ) ;
#201 = VERTEX_POINT ( 'NONE', #238 ) ;
#202 = PERSON_AND_ORGANIZATION_ROLE ( 'classification_officer' ) ;
#203 = DIRECTION ( 'NONE',  ( -2.445468806185136597E-29, 3.491481338843145583E-15, 1.000000000000000000 ) ) ;
#204 = ORIENTED_EDGE ( 'NONE', *, *, #21, .T. ) ;
#205 = CIRCLE ( 'NONE', #17, 0.2361999999999999933 ) ;
#206 = CARTESIAN_POINT ( 'NONE',  ( 7.702248551960706711E-29, -1.099676962482037231E-14, -3.149600000000000399 ) ) ;
#207 = CC_DESIGN_PERSON_AND_ORGANIZATION_ASSIGNMENT ( #57, #293, ( #247 ) ) ;
#208 = CARTESIAN_POINT ( 'NONE',  ( 0.000000000000000000, 0.000000000000000000, 0.000000000000000000 ) ) ;
#209 = DIRECTION ( 'NONE',  ( 1.000000000000000000, -6.982962677686268288E-15, 0.000000000000000000 ) ) ;
#210 = CIRCLE ( 'NONE', #314, 0.2361999999999999933 ) ;
#211 = AXIS2_PLACEMENT_3D ( 'NONE', #221, #305, #130 ) ;
#212 = CARTESIAN_POINT ( 'NONE',  ( -1.043851414335219820E-46, 1.490343170380447200E-32, 4.268512490100411279E-18 ) ) ;
#213 = EDGE_CURVE ( 'NONE', #201, #192, #263, .T. ) ;
#214 = CC_DESIGN_APPROVAL ( #242, ( #185 ) ) ;
#215 = LINE ( 'NONE', #357, #359 ) ;
#216 = VERTEX_POINT ( 'NONE', #325 ) ;
#217 = CARTESIAN_POINT ( 'NONE',  ( 0.2361999999999996325, -1.690279253850496207E-15, -0.02000000000000004205 ) ) ;
#218 = VECTOR ( 'NONE', #297, 39.37007874015748143 ) ;
#219 = ORGANIZATION ( 'UNSPECIFIED', 'UNSPECIFIED', '' ) ;
#220 = CARTESIAN_POINT ( 'NONE',  ( 7.702248551960706711E-29, -1.099676962482037231E-14, -3.149600000000000399 ) ) ;
#221 = CARTESIAN_POINT ( 'NONE',  ( 4.890937612370283668E-31, -6.982962677686305168E-17, -0.02000000000000004205 ) ) ;
#222 = VERTEX_POINT ( 'NONE', #349 ) ;
#223 = COORDINATED_UNIVERSAL_TIME_OFFSET ( 5, 0, .BEHIND. ) ;
#224 = ADVANCED_FACE ( 'NONE', ( #45 ), #70, .T. ) ;
#225 = CONICAL_SURFACE ( 'NONE', #117, 0.2361999999999996325, 0.7853981633974477239 ) ;
#226 = DATE_TIME_ROLE ( 'classification_date' ) ;
#227 = ORIENTED_EDGE ( 'NONE', *, *, #232, .F. ) ;
#228 = APPROVAL_ROLE ( '' ) ;
#229 = ORIENTED_EDGE ( 'NONE', *, *, #300, .F. ) ;
#230 = DIRECTION ( 'NONE',  ( 1.000000000000000000, -6.982962677686265133E-15, 0.000000000000000000 ) ) ;
#231 = CIRCLE ( 'NONE', #42, 0.2351999999999999924 ) ;
#232 = EDGE_CURVE ( 'NONE', #169, #36, #354, .T. ) ;
#233 = CARTESIAN_POINT ( 'NONE',  ( -1.043851414335219820E-46, 1.490343170380447200E-32, 4.268512490100411279E-18 ) ) ;
#234 = ORIENTED_EDGE ( 'NONE', *, *, #361, .T. ) ;
#235 = CARTESIAN_POINT ( 'NONE',  ( 4.890937612370283668E-31, -6.982962677686305168E-17, -0.02000000000000004205 ) ) ;
#236 = VECTOR ( 'NONE', #304, 39.37007874015748143 ) ;
#237 = CARTESIAN_POINT ( 'NONE',  ( 0.2361999999999999933, -1.676993401859750628E-14, -4.330700000000000216 ) ) ;
#238 = CARTESIAN_POINT ( 'NONE',  ( -0.2361999999999996325, 1.579546157692630466E-15, -0.02000000000000004205 ) ) ;
#239 = EDGE_CURVE ( 'NONE', #36, #216, #59, .T. ) ;
#240 = DIRECTION ( 'NONE',  ( 1.000000000000000000, -6.982962677686268288E-15, 0.000000000000000000 ) ) ;
#241 = AXIS2_PLACEMENT_3D ( 'NONE', #116, #93, #230 ) ;
#242 = APPROVAL ( #343, 'UNSPECIFIED' ) ;
#243 = CC_DESIGN_SECURITY_CLASSIFICATION ( #187, ( #164 ) ) ;
#244 = DIRECTION ( 'NONE',  ( -2.445468806185136597E-29, 3.491481338843145583E-15, 1.000000000000000000 ) ) ;
#245 = LINE ( 'NONE', #360, #193 ) ;
#246 = FACE_OUTER_BOUND ( 'NONE', #261, .T. ) ;
#247 = PRODUCT ( '43935', '43935', '', ( #171 ) ) ;
#248 = DIRECTION ( 'NONE',  ( -2.445468806185136597E-29, 3.491481338843145583E-15, 1.000000000000000000 ) ) ;
#249 = AXIS2_PLACEMENT_3D ( 'NONE', #320, #67, #76 ) ;
#250 = CARTESIAN_POINT ( 'NONE',  ( -0.2361999999999996325, 1.579546157692630466E-15, -0.02000000000000004205 ) ) ;
#251 = PRODUCT_DEFINITION_SHAPE ( 'NONE', 'NONE',  #185 ) ;
#252 = EDGE_CURVE ( 'NONE', #222, #192, #51, .T. ) ;
#253 = APPROVAL_DATE_TIME ( #260, #242 ) ;
#254 = APPROVAL ( #195, 'UNSPECIFIED' ) ;
#255 = ORIENTED_EDGE ( 'NONE', *, *, #283, .F. ) ;
#256 = AXIS2_PLACEMENT_3D ( 'NONE', #23, #81, #362 ) ;
#257 = APPLICATION_CONTEXT ( 'configuration controlled 3d designs of mechanical parts and assemblies' ) ;
#258 = COORDINATED_UNIVERSAL_TIME_OFFSET ( 5, 0, .BEHIND. ) ;
#259 = VERTEX_POINT ( 'NONE', #186 ) ;
#260 = DATE_AND_TIME ( #148, #29 ) ;
#261 = EDGE_LOOP ( 'NONE', ( #56, #95 ) ) ;
#262 = ORIENTED_EDGE ( 'NONE', *, *, #300, .T. ) ;
#263 = CIRCLE ( 'NONE', #66, 0.2361999999999996325 ) ;
#264 = PERSON_AND_ORGANIZATION_ROLE ( 'creator' ) ;
#265 = ORIENTED_EDGE ( 'NONE', *, *, #28, .F. ) ;
#266 = ADVANCED_FACE ( 'NONE', ( #46 ), #326, .T. ) ;
#267 = DIRECTION ( 'NONE',  ( 2.438088387897960049E-29, -3.491481338843145188E-15, -1.000000000000000000 ) ) ;
#268 = CC_DESIGN_PERSON_AND_ORGANIZATION_ASSIGNMENT ( #337, #197, ( #185 ) ) ;
#269 = CARTESIAN_POINT ( 'NONE',  ( 7.702248551960706711E-29, -1.099676962482037231E-14, -3.149600000000000399 ) ) ;
#270 = AXIS2_PLACEMENT_3D ( 'NONE', #331, #284, #24 ) ;
#271 = DIRECTION ( 'NONE',  ( 2.445468806185136597E-29, -3.491481338843145583E-15, -1.000000000000000000 ) ) ;
#272 = FACE_OUTER_BOUND ( 'NONE', #190, .T. ) ;
#273 = CARTESIAN_POINT ( 'NONE',  ( -0.2361999999999999933, 1.678301941865356591E-15, -1.161852468318208757E-29 ) ) ;
#274 = AXIS2_PLACEMENT_3D ( 'NONE', #233, #203, #313 ) ;
#275 = FACE_OUTER_BOUND ( 'NONE', #119, .T. ) ;
#276 = APPLICATION_CONTEXT ( 'configuration controlled 3d designs of mechanical parts and assemblies' ) ;
#277 = LINE ( 'NONE', #250, #47 ) ;
#278 = ADVANCED_FACE ( 'NONE', ( #246 ), #184, .F. ) ;
#279 = CYLINDRICAL_SURFACE ( 'NONE', #327, 0.2361999999999999933 ) ;
#280 = DESIGN_CONTEXT ( 'detailed design', #276, 'design' ) ;
#281 = DIRECTION ( 'NONE',  ( -0.7071067811866199593, 7.493145998870616062E-15, 0.7071067811864750752 ) ) ;
#282 = CIRCLE ( 'NONE', #53, 0.2161999999999995870 ) ;
#283 = EDGE_CURVE ( 'NONE', #216, #36, #7, .T. ) ;
#284 = DIRECTION ( 'NONE',  ( -2.445468806185136597E-29, 3.491481338843145583E-15, 1.000000000000000000 ) ) ;
#285 = ORIENTED_EDGE ( 'NONE', *, *, #110, .T. ) ;
#286 = PERSON_AND_ORGANIZATION ( #100, #219 ) ;
#287 = ORIENTED_EDGE ( 'NONE', *, *, #28, .T. ) ;
#288 = APPROVAL_DATE_TIME ( #145, #77 ) ;
#289 = EDGE_CURVE ( 'NONE', #159, #292, #75, .T. ) ;
#290 = ORIENTED_EDGE ( 'NONE', *, *, #15, .T. ) ;
#291 = DIRECTION ( 'NONE',  ( 1.000000000000000000, 0.000000000000000000, 0.000000000000000000 ) ) ;
#292 = VERTEX_POINT ( 'NONE', #306 ) ;
#293 = PERSON_AND_ORGANIZATION_ROLE ( 'design_owner' ) ;
#294 = ORIENTED_EDGE ( 'NONE', *, *, #82, .T. ) ;
#295 = CONICAL_SURFACE ( 'NONE', #270, 0.2351999999999999924, 0.7853981633975507526 ) ;
#296 = ADVANCED_FACE ( 'NONE', ( #107 ), #295, .T. ) ;
#297 = DIRECTION ( 'NONE',  ( -2.445468806185136877E-29, 3.491481338843145188E-15, 1.000000000000000000 ) ) ;
#298 = CARTESIAN_POINT ( 'NONE',  ( 7.702248551960706711E-29, -1.099676962482037231E-14, -3.149600000000000399 ) ) ;
#299 = DIRECTION ( 'NONE',  ( 1.000000000000000000, -6.982962677686267499E-15, 4.876217060660165204E-29 ) ) ;
#300 = EDGE_CURVE ( 'NONE', #259, #192, #245, .T. ) ;
#301 = CC_DESIGN_APPROVAL ( #77, ( #164 ) ) ;
#302 = PLANE ( 'NONE',  #26 ) ;
#303 = DIRECTION ( 'NONE',  ( 1.000000000000000000, -6.982962677686266711E-15, 0.000000000000000000 ) ) ;
#304 = DIRECTION ( 'NONE',  ( 0.7071067811865471286, -7.319954787623254468E-15, -0.7071067811865479058 ) ) ;
#305 = DIRECTION ( 'NONE',  ( -2.445468806185136597E-29, 3.491481338843145583E-15, 1.000000000000000000 ) ) ;
#306 = CARTESIAN_POINT ( 'NONE',  ( -0.2361999999999999933, -3.853251943263834384E-15, -3.148600000000000509 ) ) ;
#307 = CARTESIAN_POINT ( 'NONE',  ( 4.890937612370283668E-31, -6.982962677686305168E-17, -0.02000000000000004205 ) ) ;
#308 = DIRECTION ( 'NONE',  ( -2.445468806185136877E-29, 3.491481338843145188E-15, 1.000000000000000000 ) ) ;
#309 = ORIENTED_EDGE ( 'NONE', *, *, #39, .T. ) ;
#310 = EDGE_CURVE ( 'NONE', #159, #30, #321, .T. ) ;
#311 = EDGE_LOOP ( 'NONE', ( #285, #234, #335, #229 ) ) ;
#312 = APPROVAL_DATE_TIME ( #1, #254 ) ;
#313 = DIRECTION ( 'NONE',  ( 1.000000000000000000, -6.982962677686267499E-15, 4.876217060660165204E-29 ) ) ;
#314 = AXIS2_PLACEMENT_3D ( 'NONE', #65, #120, #96 ) ;
#315 = CC_DESIGN_APPROVAL ( #254, ( #187 ) ) ;
#316 = ORIENTED_EDGE ( 'NONE', *, *, #319, .F. ) ;
#317 =( NAMED_UNIT ( * ) SI_UNIT ( $, .STERADIAN. ) SOLID_ANGLE_UNIT ( ) );
#318 = ORIENTED_EDGE ( 'NONE', *, *, #319, .T. ) ;
#319 = EDGE_CURVE ( 'NONE', #341, #201, #277, .T. ) ;
#320 = CARTESIAN_POINT ( 'NONE',  ( 7.702248551960706711E-29, -1.099676962482037231E-14, -3.149600000000000399 ) ) ;
#321 = CIRCLE ( 'NONE', #364, 0.2351999999999999924 ) ;
#322 = CC_DESIGN_DATE_AND_TIME_ASSIGNMENT ( #85, #226, ( #187 ) ) ;
#323 = DIRECTION ( 'NONE',  ( -1.000000000000000000, 6.982962677686266711E-15, 0.000000000000000000 ) ) ;
#324 = CARTESIAN_POINT ( 'NONE',  ( 0.2351999999999999924, -1.263916244661218282E-14, -3.149600000000000399 ) ) ;
#325 = CARTESIAN_POINT ( 'NONE',  ( -0.2361999999999999933, -1.138036198760883543E-14, -3.149600000000000399 ) ) ;
#326 = CONICAL_SURFACE ( 'NONE', #111, 0.2361999999999996325, 0.7853981633974477239 ) ;
#327 = AXIS2_PLACEMENT_3D ( 'NONE', #333, #248, #188 ) ;
#328 = DIRECTION ( 'NONE',  ( -2.445468806185136597E-29, 3.491481338843145583E-15, 1.000000000000000000 ) ) ;
#329 = ADVANCED_FACE ( 'NONE', ( #356 ), #105, .T. ) ;
#330 =( LENGTH_UNIT ( ) NAMED_UNIT ( * ) SI_UNIT ( $, .METRE. ) );
#331 = CARTESIAN_POINT ( 'NONE',  ( 7.702248551960706711E-29, -1.099676962482037231E-14, -3.149600000000000399 ) ) ;
#332 = DIRECTION ( 'NONE',  ( 1.000000000000000000, -6.982962677686268288E-15, 0.000000000000000000 ) ) ;
#333 = CARTESIAN_POINT ( 'NONE',  ( 0.000000000000000000, 0.000000000000000000, 0.000000000000000000 ) ) ;
#334 = CC_DESIGN_PERSON_AND_ORGANIZATION_ASSIGNMENT ( #340, #264, ( #164 ) ) ;
#335 = ORIENTED_EDGE ( 'NONE', *, *, #355, .F. ) ;
#336 = APPLICATION_PROTOCOL_DEFINITION ( 'international standard', 'config_control_design', 1994, #257 ) ;
#337 = PERSON_AND_ORGANIZATION ( #100, #219 ) ;
#338 = VERTEX_POINT ( 'NONE', #80 ) ;
#339 = EDGE_CURVE ( 'NONE', #338, #169, #170, .T. ) ;
#340 = PERSON_AND_ORGANIZATION ( #100, #219 ) ;
#341 = VERTEX_POINT ( 'NONE', #78 ) ;
#342 = ORIENTED_EDGE ( 'NONE', *, *, #339, .T. ) ;
#343 = APPROVAL_STATUS ( 'not_yet_approved' ) ;
#344 = ADVANCED_FACE ( 'NONE', ( #275 ), #279, .T. ) ;
#345 = ORIENTED_EDGE ( 'NONE', *, *, #21, .F. ) ;
#346 = ORIENTED_EDGE ( 'NONE', *, *, #339, .F. ) ;
#347 = PLANE ( 'NONE',  #163 ) ;
#348 = LOCAL_TIME ( 0, 45, 22.00000000000000000, #365 ) ;
#349 = CARTESIAN_POINT ( 'NONE',  ( 0.2161999999999995870, -1.586759460484349227E-15, 4.268512490111238857E-18 ) ) ;
#350 = DIRECTION ( 'NONE',  ( 0.7071067811866199593, -2.468850131083015945E-15, 0.7071067811864750752 ) ) ;
#351 = FACE_OUTER_BOUND ( 'NONE', #114, .T. ) ;
#352 = VECTOR ( 'NONE', #126, 39.37007874015748143 ) ;
#353 = APPROVAL_PERSON_ORGANIZATION ( #118, #242, #228 ) ;
#354 = LINE ( 'NONE', #43, #352 ) ;
#355 = EDGE_CURVE ( 'NONE', #192, #201, #84, .T. ) ;
#356 = FACE_OUTER_BOUND ( 'NONE', #58, .T. ) ;
#357 = CARTESIAN_POINT ( 'NONE',  ( -0.2361999999999997990, 1.678301941865355211E-15, -1.161852468318207776E-29 ) ) ;
#358 = CONICAL_SURFACE ( 'NONE', #199, 0.2351999999999999924, 0.7853981633975507526 ) ;
#359 = VECTOR ( 'NONE', #308, 39.37007874015748143 ) ;
#360 = CARTESIAN_POINT ( 'NONE',  ( 0.2361999999999997990, -1.649375784469494750E-15, 1.151752954442998967E-29 ) ) ;
#361 = EDGE_CURVE ( 'NONE', #292, #201, #215, .T. ) ;
#362 = DIRECTION ( 'NONE',  ( 1.000000000000000000, -6.982962677686266711E-15, 4.876176775795936353E-29 ) ) ;
#363 = LENGTH_MEASURE_WITH_UNIT ( LENGTH_MEASURE( 0.02539999999999999897 ), #330 );
#364 = AXIS2_PLACEMENT_3D ( 'NONE', #52, #157, #332 ) ;
#365 = COORDINATED_UNIVERSAL_TIME_OFFSET ( 5, 0, .BEHIND. ) ;
#366 = ORIENTED_EDGE ( 'NONE', *, *, #310, .F. ) ;
ENDSEC;
END-ISO-10303-21;
