ISO-10303-21;
HEADER;
FILE_DESCRIPTION (( 'STEP AP203' ),
    '1' );
FILE_NAME ('44703.STEP',
    '2024-02-28T07:31:22',
    ( '' ),
    ( '' ),
    'SwSTEP 2.0',
    'SolidWorks 2023',
    '' );
FILE_SCHEMA (( 'CONFIG_CONTROL_DESIGN' ));
ENDSEC;

DATA;
#1 = CARTESIAN_POINT ( 'NONE',  ( -1.043851414335219820E-46, 1.490343170380447200E-32, 4.268512490100411279E-18 ) ) ;
#2 = DIRECTION ( 'NONE',  ( -1.000000000000000000, 6.982962677686265922E-15, -4.876176775795935793E-29 ) ) ;
#3 = APPROVAL_DATE_TIME ( #181, #188 ) ;
#4 = VERTEX_POINT ( 'NONE', #52 ) ;
#5 = CALENDAR_DATE ( 2024, 28, 2 ) ;
#6 = DIRECTION ( 'NONE',  ( -2.445468806185136877E-29, 3.491481338843145188E-15, 1.000000000000000000 ) ) ;
#7 = EDGE_CURVE ( 'NONE', #339, #18, #14, .T. ) ;
#8 = DIRECTION ( 'NONE',  ( -2.445468806185136597E-29, 3.491481338843145583E-15, 1.000000000000000000 ) ) ;
#9 = MECHANICAL_CONTEXT ( 'NONE', #231, 'mechanical' ) ;
#10 = CARTESIAN_POINT ( 'NONE',  ( 4.890937612370281041E-31, -6.982962677686302702E-17, -0.02000000000000003511 ) ) ;
#11 = PERSON_AND_ORGANIZATION ( #297, #292 ) ;
#12 = ADVANCED_FACE ( 'NONE', ( #223 ), #34, .F. ) ;
#13 = FACE_OUTER_BOUND ( 'NONE', #79, .T. ) ;
#14 = CIRCLE ( 'NONE', #361, 0.1565000000000000002 ) ;
#15 = EDGE_CURVE ( 'NONE', #4, #303, #194, .T. ) ;
#16 = DIRECTION ( 'NONE',  ( -0.7071067811864267805, 7.493145998869918709E-15, 0.7071067811866682540 ) ) ;
#17 = CARTESIAN_POINT ( 'NONE',  ( 0.000000000000000000, 0.000000000000000000, 0.000000000000000000 ) ) ;
#18 = VERTEX_POINT ( 'NONE', #177 ) ;
#19 = DIRECTION ( 'NONE',  ( -2.445468806185136877E-29, 3.491481338843145188E-15, 1.000000000000000000 ) ) ;
#20 = CLOSED_SHELL ( 'NONE', ( #93, #196, #170, #270 ) ) ;
#21 = ORIENTED_EDGE ( 'NONE', *, *, #264, .F. ) ;
#22 = ORIENTED_EDGE ( 'NONE', *, *, #138, .F. ) ;
#23 = EDGE_CURVE ( 'NONE', #167, #255, #89, .T. ) ;
#24 = ORIENTED_EDGE ( 'NONE', *, *, #207, .F. ) ;
#25 = DESIGN_CONTEXT ( 'detailed design', #224, 'design' ) ;
#26 = AXIS2_PLACEMENT_3D ( 'NONE', #226, #8, #283 ) ;
#27 = CARTESIAN_POINT ( 'NONE',  ( 6.065496279980994755E-29, -8.659921164732655335E-15, -2.480300000000000171 ) ) ;
#28 = AXIS2_PLACEMENT_3D ( 'NONE', #76, #199, #49 ) ;
#29 = DIRECTION ( 'NONE',  ( 1.000000000000000000, -6.982962677686266711E-15, 4.876176775795935793E-29 ) ) ;
#30 = CALENDAR_DATE ( 2024, 28, 2 ) ;
#31 = ORIENTED_EDGE ( 'NONE', *, *, #307, .F. ) ;
#32 = EDGE_CURVE ( 'NONE', #104, #214, #318, .T. ) ;
#33 = COORDINATED_UNIVERSAL_TIME_OFFSET ( 5, 0, .BEHIND. ) ;
#34 = PLANE ( 'NONE',  #114 ) ;
#35 = VECTOR ( 'NONE', #242, 39.37007874015748143 ) ;
#36 = APPLICATION_PROTOCOL_DEFINITION ( 'international standard', 'config_control_design', 1994, #224 ) ;
#37 = CONICAL_SURFACE ( 'NONE', #73, 0.1565000000000000002, 0.7853981633972775267 ) ;
#38 = FACE_OUTER_BOUND ( 'NONE', #190, .T. ) ;
#39 = COORDINATED_UNIVERSAL_TIME_OFFSET ( 5, 0, .BEHIND. ) ;
#40 = PLANE ( 'NONE',  #201 ) ;
#41 = PRODUCT_DEFINITION ( 'UNKNOWN', '', #100, #25 ) ;
#42 = DIRECTION ( 'NONE',  ( 1.000000000000000000, -6.982962677686266711E-15, 0.000000000000000000 ) ) ;
#43 = ORIENTED_EDGE ( 'NONE', *, *, #264, .T. ) ;
#44 = AXIS2_PLACEMENT_3D ( 'NONE', #197, #221, #310 ) ;
#45 = DIRECTION ( 'NONE',  ( 1.000000000000000000, -6.982962677686261977E-15, 0.000000000000000000 ) ) ;
#46 = ADVANCED_FACE ( 'NONE', ( #313 ), #315, .T. ) ;
#47 = DIRECTION ( 'NONE',  ( 1.000000000000000000, -6.982962677686267499E-15, 0.000000000000000000 ) ) ;
#48 = AXIS2_PLACEMENT_3D ( 'NONE', #215, #322, #331 ) ;
#49 = DIRECTION ( 'NONE',  ( 1.000000000000000000, 0.000000000000000000, 0.000000000000000000 ) ) ;
#50 = AXIS2_PLACEMENT_3D ( 'NONE', #298, #135, #42 ) ;
#51 = DIRECTION ( 'NONE',  ( -2.445468806185136597E-29, 3.491481338843145583E-15, 1.000000000000000000 ) ) ;
#52 = CARTESIAN_POINT ( 'NONE',  ( -0.1374999999999997335, 9.950721815702909552E-16, 4.268512490093574228E-18 ) ) ;
#53 = FACE_OUTER_BOUND ( 'NONE', #75, .T. ) ;
#54 = ORIENTED_EDGE ( 'NONE', *, *, #317, .T. ) ;
#55 = DIRECTION ( 'NONE',  ( -2.445468806185136597E-29, 3.491481338843145583E-15, 1.000000000000000000 ) ) ;
#56 = PERSON_AND_ORGANIZATION ( #297, #292 ) ;
#57 = DIRECTION ( 'NONE',  ( -2.445468806185136597E-29, 3.491481338843145583E-15, 1.000000000000000000 ) ) ;
#58 = PERSON_AND_ORGANIZATION_ROLE ( 'classification_officer' ) ;
#59 = LINE ( 'NONE', #62, #187 ) ;
#60 = PERSON_AND_ORGANIZATION ( #297, #292 ) ;
#61 = APPROVAL_PERSON_ORGANIZATION ( #11, #188, #345 ) ;
#62 = CARTESIAN_POINT ( 'NONE',  ( -0.1574999999999997513, 1.029986994958722210E-15, -0.02000000000000003511 ) ) ;
#63 = COORDINATED_UNIVERSAL_TIME_OFFSET ( 5, 0, .BEHIND. ) ;
#64 = MANIFOLD_SOLID_BREP ( 'Body-Move/Copy2[2]', #88 ) ;
#65 = EDGE_CURVE ( 'NONE', #263, #167, #217, .T. ) ;
#66 = DIRECTION ( 'NONE',  ( 1.000000000000000000, -6.982962677686265922E-15, 4.876176775795935793E-29 ) ) ;
#67 = EDGE_LOOP ( 'NONE', ( #43, #363, #218, #360 ) ) ;
#68 = CARTESIAN_POINT ( 'NONE',  ( 6.065496279980994755E-29, -8.659921164732655335E-15, -2.480300000000000171 ) ) ;
#69 = EDGE_LOOP ( 'NONE', ( #216, #252, #137, #366 ) ) ;
#70 = EDGE_CURVE ( 'NONE', #278, #104, #205, .T. ) ;
#71 = CONICAL_SURFACE ( 'NONE', #105, 0.1574999999999997513, 0.7853981633974479459 ) ;
#72 = CARTESIAN_POINT ( 'NONE',  ( 0.1574999999999997513, -1.150358061425877697E-15, -0.02000000000000003511 ) ) ;
#73 = AXIS2_PLACEMENT_3D ( 'NONE', #308, #248, #225 ) ;
#74 = CARTESIAN_POINT ( 'NONE',  ( 0.1374999999999997335, -1.046838268059730717E-15, 4.268512490107428597E-18 ) ) ;
#75 = EDGE_LOOP ( 'NONE', ( #24, #258, #247, #193 ) ) ;
#76 = CARTESIAN_POINT ( 'NONE',  ( 0.000000000000000000, 0.000000000000000000, 0.000000000000000000 ) ) ;
#77 = CIRCLE ( 'NONE', #327, 0.1374999999999997335 ) ;
#78 = ADVANCED_FACE ( 'NONE', ( #85 ), #122, .T. ) ;
#79 = EDGE_LOOP ( 'NONE', ( #143, #241, #219, #22 ) ) ;
#80 = CIRCLE ( 'NONE', #121, 0.1575000000000000011 ) ;
#81 = CARTESIAN_POINT ( 'NONE',  ( 0.000000000000000000, 0.000000000000000000, 0.000000000000000000 ) ) ;
#82 = FACE_OUTER_BOUND ( 'NONE', #69, .T. ) ;
#83 = CARTESIAN_POINT ( 'NONE',  ( 0.1574999999999998901, -1.099816621735586297E-15, 7.679978421878593829E-30 ) ) ;
#84 =( NAMED_UNIT ( * ) PLANE_ANGLE_UNIT ( ) SI_UNIT ( $, .RADIAN. ) );
#85 = FACE_OUTER_BOUND ( 'NONE', #202, .T. ) ;
#86 = EDGE_CURVE ( 'NONE', #104, #278, #144, .T. ) ;
#87 = PERSON_AND_ORGANIZATION_ROLE ( 'creator' ) ;
#88 = CLOSED_SHELL ( 'NONE', ( #354, #46, #233, #338, #78, #282, #180, #12 ) ) ;
#89 = LINE ( 'NONE', #206, #302 ) ;
#90 = APPROVAL_PERSON_ORGANIZATION ( #146, #243, #235 ) ;
#91 = CARTESIAN_POINT ( 'NONE',  ( 4.233840144148327350E-29, -6.044801641939138860E-15, -1.731300000000000283 ) ) ;
#92 = APPROVAL_STATUS ( 'not_yet_approved' ) ;
#93 = ADVANCED_FACE ( 'NONE', ( #117 ), #152, .T. ) ;
#94 = CARTESIAN_POINT ( 'NONE',  ( 4.236285612954513513E-29, -6.048293123277983445E-15, -1.732300000000000617 ) ) ;
#95 = APPROVAL_ROLE ( '' ) ;
#96 = CARTESIAN_POINT ( 'NONE',  ( 1.099816621735629290E-15, 0.1574999999999939504, -1.732300000000000839 ) ) ;
#97 = EDGE_CURVE ( 'NONE', #173, #214, #328, .T. ) ;
#98 = AXIS2_PLACEMENT_3D ( 'NONE', #94, #358, #66 ) ;
#99 = DIRECTION ( 'NONE',  ( 2.438088387897960049E-29, -3.491481338843145188E-15, -1.000000000000000000 ) ) ;
#100 = PRODUCT_DEFINITION_FORMATION_WITH_SPECIFIED_SOURCE ( 'ANY', '', #337, .NOT_KNOWN. ) ;
#101 = LOCAL_TIME ( 2, 31, 22.00000000000000000, #63 ) ;
#102 = DIRECTION ( 'NONE',  ( 2.445468806185136597E-29, -3.491481338843145583E-15, -1.000000000000000000 ) ) ;
#103 = CYLINDRICAL_SURFACE ( 'NONE', #157, 0.1575000000000000011 ) ;
#104 = VERTEX_POINT ( 'NONE', #129 ) ;
#105 = AXIS2_PLACEMENT_3D ( 'NONE', #10, #102, #272 ) ;
#106 = APPLICATION_PROTOCOL_DEFINITION ( 'international standard', 'config_control_design', 1994, #231 ) ;
#107 = AXIS2_PLACEMENT_3D ( 'NONE', #305, #245, #111 ) ;
#108 =( NAMED_UNIT ( * ) SI_UNIT ( $, .STERADIAN. ) SOLID_ANGLE_UNIT ( ) );
#109 = ORIENTED_EDGE ( 'NONE', *, *, #365, .T. ) ;
#110 = EDGE_CURVE ( 'NONE', #339, #278, #191, .T. ) ;
#111 = DIRECTION ( 'NONE',  ( 1.000000000000000000, -6.982962677686268288E-15, 0.000000000000000000 ) ) ;
#112 = EDGE_LOOP ( 'NONE', ( #31, #120, #147, #166 ) ) ;
#113 = CARTESIAN_POINT ( 'NONE',  ( -0.1575000000000000011, -6.235002335183160998E-15, -1.732300000000000173 ) ) ;
#114 = AXIS2_PLACEMENT_3D ( 'NONE', #288, #256, #2 ) ;
#115 = DIRECTION ( 'NONE',  ( -2.445468806185136597E-29, 3.491481338843145583E-15, 1.000000000000000000 ) ) ;
#116 = CARTESIAN_POINT ( 'NONE',  ( -0.1565000000000000002, -4.930995287465203658E-15, -1.732300000000000617 ) ) ;
#117 = FACE_OUTER_BOUND ( 'NONE', #67, .T. ) ;
#118 = PRODUCT_DEFINITION_SHAPE ( 'NONE', 'NONE',  #41 ) ;
#119 = APPROVAL_STATUS ( 'not_yet_approved' ) ;
#120 = ORIENTED_EDGE ( 'NONE', *, *, #207, .T. ) ;
#121 = AXIS2_PLACEMENT_3D ( 'NONE', #209, #267, #357 ) ;
#122 = CYLINDRICAL_SURFACE ( 'NONE', #261, 0.1574999999999998901 ) ;
#123 = PERSON_AND_ORGANIZATION_ROLE ( 'design_owner' ) ;
#124 = EDGE_CURVE ( 'NONE', #4, #173, #59, .T. ) ;
#125 = CARTESIAN_POINT ( 'NONE',  ( 1.099816621735647434E-15, 0.1574999999999913136, -2.480300000000001059 ) ) ;
#126 = PERSON_AND_ORGANIZATION ( #297, #292 ) ;
#127 = CARTESIAN_POINT ( 'NONE',  ( 4.890937612370281041E-31, -6.982962677686302702E-17, -0.02000000000000003511 ) ) ;
#128 = DATE_AND_TIME ( #232, #341 ) ;
#129 = CARTESIAN_POINT ( 'NONE',  ( 0.1575000000000000011, -7.144618263674725551E-15, -1.731300000000000283 ) ) ;
#130 =( GEOMETRIC_REPRESENTATION_CONTEXT ( 3 ) GLOBAL_UNCERTAINTY_ASSIGNED_CONTEXT ( ( #185 ) ) GLOBAL_UNIT_ASSIGNED_CONTEXT ( ( #171, #84, #108 ) ) REPRESENTATION_CONTEXT ( 'NONE', 'WORKASPACE' ) );
#131 = EDGE_CURVE ( 'NONE', #263, #344, #329, .T. ) ;
#132 = ADVANCED_BREP_SHAPE_REPRESENTATION ( '44703', ( #321, #64, #28 ), #130 ) ;
#133 = DIRECTION ( 'NONE',  ( -2.445468806185136877E-29, 3.491481338843145188E-15, 1.000000000000000000 ) ) ;
#134 = SECURITY_CLASSIFICATION ( '', '', #178 ) ;
#135 = DIRECTION ( 'NONE',  ( -2.445468806185136597E-29, 3.491481338843145583E-15, 1.000000000000000000 ) ) ;
#136 = EDGE_LOOP ( 'NONE', ( #229, #54, #333, #274 ) ) ;
#137 = ORIENTED_EDGE ( 'NONE', *, *, #86, .F. ) ;
#138 = EDGE_CURVE ( 'NONE', #344, #255, #80, .T. ) ;
#139 = CARTESIAN_POINT ( 'NONE',  ( -0.1574999999999998901, 1.119104808822157012E-15, -7.747322767151471379E-30 ) ) ;
#140 = ORIENTED_EDGE ( 'NONE', *, *, #110, .F. ) ;
#141 = VECTOR ( 'NONE', #277, 39.37007874015748143 ) ;
#142 = DIRECTION ( 'NONE',  ( -2.445468806185136597E-29, 3.491481338843145583E-15, 1.000000000000000000 ) ) ;
#143 = ORIENTED_EDGE ( 'NONE', *, *, #131, .F. ) ;
#144 = CIRCLE ( 'NONE', #352, 0.1575000000000000011 ) ;
#145 = DIRECTION ( 'NONE',  ( 1.000000000000000000, -6.982962677686268288E-15, 0.000000000000000000 ) ) ;
#146 = PERSON_AND_ORGANIZATION ( #297, #292 ) ;
#147 = ORIENTED_EDGE ( 'NONE', *, *, #259, .T. ) ;
#148 = CONICAL_SURFACE ( 'NONE', #48, 0.1565000000000000002, 0.7853981633972775267 ) ;
#149 = PERSON_AND_ORGANIZATION ( #297, #292 ) ;
#150 = CARTESIAN_POINT ( 'NONE',  ( 4.233840144148327350E-29, -6.044801641939138860E-15, -1.731300000000000283 ) ) ;
#151 = CALENDAR_DATE ( 2024, 28, 2 ) ;
#152 = CYLINDRICAL_SURFACE ( 'NONE', #26, 0.1575000000000000011 ) ;
#153 = CALENDAR_DATE ( 2024, 28, 2 ) ;
#154 = LOCAL_TIME ( 2, 31, 22.00000000000000000, #290 ) ;
#155 = DIRECTION ( 'NONE',  ( 1.000000000000000000, -6.982962677686265922E-15, 4.876176775795935232E-29 ) ) ;
#156 = DATE_TIME_ROLE ( 'classification_date' ) ;
#157 = AXIS2_PLACEMENT_3D ( 'NONE', #17, #165, #155 ) ;
#158 = DIRECTION ( 'NONE',  ( -1.000000000000000000, 6.982962677686265922E-15, -4.876176775795935793E-29 ) ) ;
#159 = CIRCLE ( 'NONE', #222, 0.1574999999999997513 ) ;
#160 = AXIS2_PLACEMENT_3D ( 'NONE', #68, #301, #45 ) ;
#161 = CARTESIAN_POINT ( 'NONE',  ( -0.1565000000000000002, -4.936293741813426849E-15, -1.732300000000000617 ) ) ;
#162 = ORIENTED_EDGE ( 'NONE', *, *, #317, .F. ) ;
#163 = CARTESIAN_POINT ( 'NONE',  ( 4.236285612954513513E-29, -6.048293123277983445E-15, -1.732300000000000617 ) ) ;
#164 = ORIENTED_EDGE ( 'NONE', *, *, #138, .T. ) ;
#165 = DIRECTION ( 'NONE',  ( -2.445468806185136597E-29, 3.491481338843145583E-15, 1.000000000000000000 ) ) ;
#166 = ORIENTED_EDGE ( 'NONE', *, *, #124, .F. ) ;
#167 = VERTEX_POINT ( 'NONE', #234 ) ;
#168 = CC_DESIGN_PERSON_AND_ORGANIZATION_ASSIGNMENT ( #60, #262, ( #100 ) ) ;
#169 = CARTESIAN_POINT ( 'NONE',  ( 4.236285612954513513E-29, -6.048293123277983445E-15, -1.732300000000000617 ) ) ;
#170 = ADVANCED_FACE ( 'NONE', ( #351 ), #265, .F. ) ;
#171 =( CONVERSION_BASED_UNIT ( 'INCH', #343 ) LENGTH_UNIT ( ) NAMED_UNIT ( #334 ) );
#172 = DIRECTION ( 'NONE',  ( 1.000000000000000000, -6.982962677686267499E-15, 0.000000000000000000 ) ) ;
#173 = VERTEX_POINT ( 'NONE', #271 ) ;
#174 = APPROVAL_PERSON_ORGANIZATION ( #319, #285, #95 ) ;
#175 = CIRCLE ( 'NONE', #160, 0.1575000000000000011 ) ;
#176 = PERSON_AND_ORGANIZATION_ROLE ( 'creator' ) ;
#177 = CARTESIAN_POINT ( 'NONE',  ( 0.1565000000000000002, -7.141126782335884122E-15, -1.732300000000000617 ) ) ;
#178 = SECURITY_CLASSIFICATION_LEVEL ( 'unclassified' ) ;
#179 = DIRECTION ( 'NONE',  ( 1.000000000000000000, -6.982962677686268288E-15, 0.000000000000000000 ) ) ;
#180 = ADVANCED_FACE ( 'NONE', ( #295 ), #184, .F. ) ;
#181 = DATE_AND_TIME ( #5, #212 ) ;
#182 = AXIS2_PLACEMENT_3D ( 'NONE', #150, #260, #145 ) ;
#183 = FACE_OUTER_BOUND ( 'NONE', #112, .T. ) ;
#184 = PLANE ( 'NONE',  #98 ) ;
#185 = UNCERTAINTY_MEASURE_WITH_UNIT (LENGTH_MEASURE( 1.000000000000000082E-05 ), #171, 'distance_accuracy_value', 'NONE');
#186 = CC_DESIGN_PERSON_AND_ORGANIZATION_ASSIGNMENT ( #326, #176, ( #41 ) ) ;
#187 = VECTOR ( 'NONE', #324, 39.37007874015748143 ) ;
#188 = APPROVAL ( #92, 'UNSPECIFIED' ) ;
#189 = CARTESIAN_POINT ( 'NONE',  ( -0.1575000000000000011, -6.235002335183160998E-15, -2.480300000000000171 ) ) ;
#190 = EDGE_LOOP ( 'NONE', ( #21, #279 ) ) ;
#191 = LINE ( 'NONE', #161, #275 ) ;
#192 = CONICAL_SURFACE ( 'NONE', #44, 0.1574999999999997513, 0.7853981633974479459 ) ;
#193 = ORIENTED_EDGE ( 'NONE', *, *, #97, .T. ) ;
#194 = CIRCLE ( 'NONE', #239, 0.1374999999999997335 ) ;
#195 = CARTESIAN_POINT ( 'NONE',  ( 0.1565000000000000002, -7.141126782335884122E-15, -1.732300000000000617 ) ) ;
#196 = ADVANCED_FACE ( 'NONE', ( #38 ), #40, .T. ) ;
#197 = CARTESIAN_POINT ( 'NONE',  ( 4.890937612370281041E-31, -6.982962677686302702E-17, -0.02000000000000003511 ) ) ;
#198 = ORIENTED_EDGE ( 'NONE', *, *, #7, .F. ) ;
#199 = DIRECTION ( 'NONE',  ( 0.000000000000000000, 0.000000000000000000, 1.000000000000000000 ) ) ;
#200 = ORIENTED_EDGE ( 'NONE', *, *, #237, .F. ) ;
#201 = AXIS2_PLACEMENT_3D ( 'NONE', #125, #99, #158 ) ;
#202 = EDGE_LOOP ( 'NONE', ( #162, #220, #362, #276 ) ) ;
#203 = CARTESIAN_POINT ( 'NONE',  ( 0.000000000000000000, 0.000000000000000000, 0.000000000000000000 ) ) ;
#204 = EDGE_LOOP ( 'NONE', ( #140, #336, #244, #299 ) ) ;
#205 = CIRCLE ( 'NONE', #182, 0.1575000000000000011 ) ;
#206 = CARTESIAN_POINT ( 'NONE',  ( 0.1575000000000000011, -1.099816621735586889E-15, 7.679978421878598033E-30 ) ) ;
#207 = EDGE_CURVE ( 'NONE', #303, #214, #213, .T. ) ;
#208 = EDGE_LOOP ( 'NONE', ( #200, #198 ) ) ;
#209 = CARTESIAN_POINT ( 'NONE',  ( 4.236285612954512953E-29, -6.048293123277982656E-15, -1.732300000000000173 ) ) ;
#210 = LINE ( 'NONE', #195, #141 ) ;
#211 = DIRECTION ( 'NONE',  ( -2.445468806185136597E-29, 3.491481338843145583E-15, 1.000000000000000000 ) ) ;
#212 = LOCAL_TIME ( 2, 31, 22.00000000000000000, #33 ) ;
#213 = LINE ( 'NONE', #291, #35 ) ;
#214 = VERTEX_POINT ( 'NONE', #72 ) ;
#215 = CARTESIAN_POINT ( 'NONE',  ( 4.236285612954513513E-29, -6.048293123277983445E-15, -1.732300000000000617 ) ) ;
#216 = ORIENTED_EDGE ( 'NONE', *, *, #237, .T. ) ;
#217 = CIRCLE ( 'NONE', #332, 0.1575000000000000011 ) ;
#218 = ORIENTED_EDGE ( 'NONE', *, *, #365, .F. ) ;
#219 = ORIENTED_EDGE ( 'NONE', *, *, #23, .T. ) ;
#220 = ORIENTED_EDGE ( 'NONE', *, *, #70, .T. ) ;
#221 = DIRECTION ( 'NONE',  ( 2.445468806185136597E-29, -3.491481338843145583E-15, -1.000000000000000000 ) ) ;
#222 = AXIS2_PLACEMENT_3D ( 'NONE', #127, #330, #359 ) ;
#223 = FACE_OUTER_BOUND ( 'NONE', #306, .T. ) ;
#224 = APPLICATION_CONTEXT ( 'configuration controlled 3d designs of mechanical parts and assemblies' ) ;
#225 = DIRECTION ( 'NONE',  ( 1.000000000000000000, -6.982962677686267499E-15, 0.000000000000000000 ) ) ;
#226 = CARTESIAN_POINT ( 'NONE',  ( 0.000000000000000000, 0.000000000000000000, 0.000000000000000000 ) ) ;
#227 = DATE_AND_TIME ( #153, #154 ) ;
#228 = ORIENTED_EDGE ( 'NONE', *, *, #307, .T. ) ;
#229 = ORIENTED_EDGE ( 'NONE', *, *, #86, .T. ) ;
#230 = CARTESIAN_POINT ( 'NONE',  ( 0.1575000000000000011, -7.148109745013570136E-15, -1.732300000000000173 ) ) ;
#231 = APPLICATION_CONTEXT ( 'configuration controlled 3d designs of mechanical parts and assemblies' ) ;
#232 = CALENDAR_DATE ( 2024, 28, 2 ) ;
#233 = ADVANCED_FACE ( 'NONE', ( #183 ), #71, .T. ) ;
#234 = CARTESIAN_POINT ( 'NONE',  ( 0.1575000000000000011, -9.759737786468242027E-15, -2.480300000000000171 ) ) ;
#235 = APPROVAL_ROLE ( '' ) ;
#236 = CC_DESIGN_APPROVAL ( #285, ( #134 ) ) ;
#237 = EDGE_CURVE ( 'NONE', #18, #339, #314, .T. ) ;
#238 = CARTESIAN_POINT ( 'NONE',  ( -0.1575000000000000011, 1.119104808822157801E-15, -7.747322767151475583E-30 ) ) ;
#239 = AXIS2_PLACEMENT_3D ( 'NONE', #346, #51, #342 ) ;
#240 = DIRECTION ( 'NONE',  ( -1.000000000000000000, 6.982962677686265922E-15, -4.876176775795935793E-29 ) ) ;
#241 = ORIENTED_EDGE ( 'NONE', *, *, #65, .T. ) ;
#242 = DIRECTION ( 'NONE',  ( 0.7071067811865472397, -7.319954787623254468E-15, -0.7071067811865477948 ) ) ;
#243 = APPROVAL ( #119, 'UNSPECIFIED' ) ;
#244 = ORIENTED_EDGE ( 'NONE', *, *, #300, .T. ) ;
#245 = DIRECTION ( 'NONE',  ( -2.445468806185136597E-29, 3.491481338843145583E-15, 1.000000000000000000 ) ) ;
#246 = CC_DESIGN_PERSON_AND_ORGANIZATION_ASSIGNMENT ( #149, #58, ( #134 ) ) ;
#247 = ORIENTED_EDGE ( 'NONE', *, *, #124, .T. ) ;
#248 = DIRECTION ( 'NONE',  ( -2.445468806185136597E-29, 3.491481338843145583E-15, 1.000000000000000000 ) ) ;
#249 = EDGE_LOOP ( 'NONE', ( #109, #164 ) ) ;
#250 = CC_DESIGN_DATE_AND_TIME_ASSIGNMENT ( #266, #257, ( #41 ) ) ;
#251 =( LENGTH_UNIT ( ) NAMED_UNIT ( * ) SI_UNIT ( $, .METRE. ) );
#252 = ORIENTED_EDGE ( 'NONE', *, *, #110, .T. ) ;
#253 = CC_DESIGN_DATE_AND_TIME_ASSIGNMENT ( #128, #156, ( #134 ) ) ;
#254 = DIRECTION ( 'NONE',  ( 1.000000000000000000, -6.982962677686265922E-15, 4.876173381029109571E-29 ) ) ;
#255 = VERTEX_POINT ( 'NONE', #230 ) ;
#256 = DIRECTION ( 'NONE',  ( 2.438088387897960049E-29, -3.491481338843145188E-15, -1.000000000000000000 ) ) ;
#257 = DATE_TIME_ROLE ( 'creation_date' ) ;
#258 = ORIENTED_EDGE ( 'NONE', *, *, #15, .F. ) ;
#259 = EDGE_CURVE ( 'NONE', #214, #173, #159, .T. ) ;
#260 = DIRECTION ( 'NONE',  ( -2.445468806185136597E-29, 3.491481338843145583E-15, 1.000000000000000000 ) ) ;
#261 = AXIS2_PLACEMENT_3D ( 'NONE', #81, #347, #29 ) ;
#262 = PERSON_AND_ORGANIZATION_ROLE ( 'design_supplier' ) ;
#263 = VERTEX_POINT ( 'NONE', #189 ) ;
#264 = EDGE_CURVE ( 'NONE', #167, #263, #175, .T. ) ;
#265 = PLANE ( 'NONE',  #289 ) ;
#266 = DATE_AND_TIME ( #30, #269 ) ;
#267 = DIRECTION ( 'NONE',  ( -2.445468806185136597E-29, 3.491481338843145583E-15, 1.000000000000000000 ) ) ;
#268 = VECTOR ( 'NONE', #133, 39.37007874015748143 ) ;
#269 = LOCAL_TIME ( 2, 31, 22.00000000000000000, #39 ) ;
#270 = ADVANCED_FACE ( 'NONE', ( #13 ), #103, .T. ) ;
#271 = CARTESIAN_POINT ( 'NONE',  ( -0.1574999999999997513, 1.029986994958722210E-15, -0.02000000000000003511 ) ) ;
#272 = DIRECTION ( 'NONE',  ( -1.000000000000000000, 6.982962677686266711E-15, 0.000000000000000000 ) ) ;
#273 = FACE_OUTER_BOUND ( 'NONE', #204, .T. ) ;
#274 = ORIENTED_EDGE ( 'NONE', *, *, #32, .F. ) ;
#275 = VECTOR ( 'NONE', #16, 39.37007874015748143 ) ;
#276 = ORIENTED_EDGE ( 'NONE', *, *, #97, .F. ) ;
#277 = DIRECTION ( 'NONE',  ( 0.7071067811864267805, -2.468850131080992517E-15, 0.7071067811866682540 ) ) ;
#278 = VERTEX_POINT ( 'NONE', #349 ) ;
#279 = ORIENTED_EDGE ( 'NONE', *, *, #65, .F. ) ;
#280 = DIRECTION ( 'NONE',  ( 1.000000000000000000, -6.982962677686266711E-15, 4.876176775795935793E-29 ) ) ;
#281 = COORDINATED_UNIVERSAL_TIME_OFFSET ( 5, 0, .BEHIND. ) ;
#282 = ADVANCED_FACE ( 'NONE', ( #273 ), #148, .T. ) ;
#283 = DIRECTION ( 'NONE',  ( 1.000000000000000000, -6.982962677686265922E-15, 4.876176775795935232E-29 ) ) ;
#284 = CIRCLE ( 'NONE', #107, 0.1575000000000000011 ) ;
#285 = APPROVAL ( #350, 'UNSPECIFIED' ) ;
#286 = DIRECTION ( 'NONE',  ( 1.000000000000000000, -6.982962677686261977E-15, 0.000000000000000000 ) ) ;
#287 = APPROVAL_DATE_TIME ( #227, #285 ) ;
#288 = CARTESIAN_POINT ( 'NONE',  ( 9.601573681818597005E-16, 0.1374999999999997335, -4.779444278458813133E-16 ) ) ;
#289 = AXIS2_PLACEMENT_3D ( 'NONE', #96, #304, #240 ) ;
#290 = COORDINATED_UNIVERSAL_TIME_OFFSET ( 5, 0, .BEHIND. ) ;
#291 = CARTESIAN_POINT ( 'NONE',  ( 0.1574999999999997513, -1.150358061425877697E-15, -0.02000000000000003511 ) ) ;
#292 = ORGANIZATION ( 'UNSPECIFIED', 'UNSPECIFIED', '' ) ;
#293 = PRODUCT_RELATED_PRODUCT_CATEGORY ( 'detail', '', ( #337 ) ) ;
#294 = DATE_AND_TIME ( #151, #101 ) ;
#295 = FACE_OUTER_BOUND ( 'NONE', #208, .T. ) ;
#296 = VECTOR ( 'NONE', #6, 39.37007874015748143 ) ;
#297 = PERSON ( 'UNSPECIFIED', 'UNSPECIFIED', 'UNSPECIFIED', ('UNSPECIFIED'), ('UNSPECIFIED'), ('UNSPECIFIED') ) ;
#298 = CARTESIAN_POINT ( 'NONE',  ( 4.890937612370281041E-31, -6.982962677686302702E-17, -0.02000000000000003511 ) ) ;
#299 = ORIENTED_EDGE ( 'NONE', *, *, #70, .F. ) ;
#300 = EDGE_CURVE ( 'NONE', #18, #104, #210, .T. ) ;
#301 = DIRECTION ( 'NONE',  ( -2.445468806185136597E-29, 3.491481338843145583E-15, 1.000000000000000000 ) ) ;
#302 = VECTOR ( 'NONE', #309, 39.37007874015748143 ) ;
#303 = VERTEX_POINT ( 'NONE', #74 ) ;
#304 = DIRECTION ( 'NONE',  ( 2.438088387897960049E-29, -3.491481338843145188E-15, -1.000000000000000000 ) ) ;
#305 = CARTESIAN_POINT ( 'NONE',  ( 4.236285612954512953E-29, -6.048293123277982656E-15, -1.732300000000000173 ) ) ;
#306 = EDGE_LOOP ( 'NONE', ( #340, #228 ) ) ;
#307 = EDGE_CURVE ( 'NONE', #303, #4, #77, .T. ) ;
#308 = CARTESIAN_POINT ( 'NONE',  ( 4.236285612954513513E-29, -6.048293123277983445E-15, -1.732300000000000617 ) ) ;
#309 = DIRECTION ( 'NONE',  ( -2.445468806185136877E-29, 3.491481338843145188E-15, 1.000000000000000000 ) ) ;
#310 = DIRECTION ( 'NONE',  ( -1.000000000000000000, 6.982962677686266711E-15, 0.000000000000000000 ) ) ;
#311 = DIRECTION ( 'NONE',  ( -2.445468806185136597E-29, 3.491481338843145583E-15, 1.000000000000000000 ) ) ;
#312 = CC_DESIGN_PERSON_AND_ORGANIZATION_ASSIGNMENT ( #56, #123, ( #337 ) ) ;
#313 = FACE_OUTER_BOUND ( 'NONE', #136, .T. ) ;
#314 = CIRCLE ( 'NONE', #323, 0.1565000000000000002 ) ;
#315 = CYLINDRICAL_SURFACE ( 'NONE', #355, 0.1574999999999998901 ) ;
#316 = CC_DESIGN_APPROVAL ( #188, ( #100 ) ) ;
#317 = EDGE_CURVE ( 'NONE', #278, #173, #364, .T. ) ;
#318 = LINE ( 'NONE', #83, #296 ) ;
#319 = PERSON_AND_ORGANIZATION ( #297, #292 ) ;
#320 = VECTOR ( 'NONE', #19, 39.37007874015748143 ) ;
#321 = MANIFOLD_SOLID_BREP ( 'Body-Move/Copy2[1]', #20 ) ;
#322 = DIRECTION ( 'NONE',  ( -2.445468806185136597E-29, 3.491481338843145583E-15, 1.000000000000000000 ) ) ;
#323 = AXIS2_PLACEMENT_3D ( 'NONE', #163, #211, #47 ) ;
#324 = DIRECTION ( 'NONE',  ( -0.7071067811865472397, 2.468850131082253905E-15, -0.7071067811865477948 ) ) ;
#325 = CC_DESIGN_APPROVAL ( #243, ( #41 ) ) ;
#326 = PERSON_AND_ORGANIZATION ( #297, #292 ) ;
#327 = AXIS2_PLACEMENT_3D ( 'NONE', #1, #142, #254 ) ;
#328 = CIRCLE ( 'NONE', #50, 0.1574999999999997513 ) ;
#329 = LINE ( 'NONE', #238, #268 ) ;
#330 = DIRECTION ( 'NONE',  ( -2.445468806185136597E-29, 3.491481338843145583E-15, 1.000000000000000000 ) ) ;
#331 = DIRECTION ( 'NONE',  ( 1.000000000000000000, -6.982962677686267499E-15, 0.000000000000000000 ) ) ;
#332 = AXIS2_PLACEMENT_3D ( 'NONE', #27, #55, #286 ) ;
#333 = ORIENTED_EDGE ( 'NONE', *, *, #259, .F. ) ;
#334 = DIMENSIONAL_EXPONENTS ( 1.000000000000000000, 0.000000000000000000, 0.000000000000000000, 0.000000000000000000, 0.000000000000000000, 0.000000000000000000, 0.000000000000000000 ) ;
#335 = CC_DESIGN_SECURITY_CLASSIFICATION ( #134, ( #100 ) ) ;
#336 = ORIENTED_EDGE ( 'NONE', *, *, #7, .T. ) ;
#337 = PRODUCT ( '44703', '44703', '', ( #9 ) ) ;
#338 = ADVANCED_FACE ( 'NONE', ( #53 ), #192, .T. ) ;
#339 = VERTEX_POINT ( 'NONE', #116 ) ;
#340 = ORIENTED_EDGE ( 'NONE', *, *, #15, .T. ) ;
#341 = LOCAL_TIME ( 2, 31, 22.00000000000000000, #281 ) ;
#342 = DIRECTION ( 'NONE',  ( 1.000000000000000000, -6.982962677686265922E-15, 4.876173381029109571E-29 ) ) ;
#343 = LENGTH_MEASURE_WITH_UNIT ( LENGTH_MEASURE( 0.02539999999999999897 ), #251 );
#344 = VERTEX_POINT ( 'NONE', #113 ) ;
#345 = APPROVAL_ROLE ( '' ) ;
#346 = CARTESIAN_POINT ( 'NONE',  ( -1.043851414335219820E-46, 1.490343170380447200E-32, 4.268512490100411279E-18 ) ) ;
#347 = DIRECTION ( 'NONE',  ( -2.445468806185136597E-29, 3.491481338843145583E-15, 1.000000000000000000 ) ) ;
#348 = APPROVAL_DATE_TIME ( #294, #243 ) ;
#349 = CARTESIAN_POINT ( 'NONE',  ( -0.1575000000000000011, -1.938210825535841109E-15, -1.731300000000000283 ) ) ;
#350 = APPROVAL_STATUS ( 'not_yet_approved' ) ;
#351 = FACE_OUTER_BOUND ( 'NONE', #249, .T. ) ;
#352 = AXIS2_PLACEMENT_3D ( 'NONE', #91, #57, #179 ) ;
#353 = SHAPE_DEFINITION_REPRESENTATION ( #118, #132 ) ;
#354 = ADVANCED_FACE ( 'NONE', ( #82 ), #37, .T. ) ;
#355 = AXIS2_PLACEMENT_3D ( 'NONE', #203, #311, #280 ) ;
#356 = CC_DESIGN_PERSON_AND_ORGANIZATION_ASSIGNMENT ( #126, #87, ( #100 ) ) ;
#357 = DIRECTION ( 'NONE',  ( 1.000000000000000000, -6.982962677686268288E-15, 0.000000000000000000 ) ) ;
#358 = DIRECTION ( 'NONE',  ( -2.438088387897960049E-29, 3.491481338843145188E-15, 1.000000000000000000 ) ) ;
#359 = DIRECTION ( 'NONE',  ( 1.000000000000000000, -6.982962677686266711E-15, 0.000000000000000000 ) ) ;
#360 = ORIENTED_EDGE ( 'NONE', *, *, #23, .F. ) ;
#361 = AXIS2_PLACEMENT_3D ( 'NONE', #169, #115, #172 ) ;
#362 = ORIENTED_EDGE ( 'NONE', *, *, #32, .T. ) ;
#363 = ORIENTED_EDGE ( 'NONE', *, *, #131, .T. ) ;
#364 = LINE ( 'NONE', #139, #320 ) ;
#365 = EDGE_CURVE ( 'NONE', #255, #344, #284, .T. ) ;
#366 = ORIENTED_EDGE ( 'NONE', *, *, #300, .F. ) ;
ENDSEC;
END-ISO-10303-21;
