ISO-10303-21;
HEADER;
FILE_DESCRIPTION (( 'STEP AP203' ),
    '1' );
FILE_NAME ('45013.STEP',
    '2024-02-28T08:40:33',
    ( '' ),
    ( '' ),
    'SwSTEP 2.0',
    'SolidWorks 2023',
    '' );
FILE_SCHEMA (( 'CONFIG_CONTROL_DESIGN' ));
ENDSEC;

DATA;
#1 = MANIFOLD_SOLID_BREP ( 'Body-Move/Copy2[2]', #286 ) ;
#2 = CARTESIAN_POINT ( 'NONE',  ( 0.000000000000000000, 0.000000000000000000, 0.000000000000000000 ) ) ;
#3 = CARTESIAN_POINT ( 'NONE',  ( 0.4911499999999999755, -1.236473201337910037E-14, -2.559099999999999486 ) ) ;
#4 = EDGE_CURVE ( 'NONE', #160, #20, #176, .T. ) ;
#5 = APPROVAL_PERSON_ORGANIZATION ( #349, #363, #128 ) ;
#6 = DIRECTION ( 'NONE',  ( -2.445468806185136597E-29, 3.491481338843145583E-15, 1.000000000000000000 ) ) ;
#7 = DIRECTION ( 'NONE',  ( -2.445468806185136877E-29, 3.491481338843145188E-15, 1.000000000000000000 ) ) ;
#8 = EDGE_LOOP ( 'NONE', ( #155, #268, #240, #215 ) ) ;
#9 = AXIS2_PLACEMENT_3D ( 'NONE', #141, #86, #273 ) ;
#10 = ADVANCED_FACE ( 'NONE', ( #29 ), #66, .F. ) ;
#11 = CARTESIAN_POINT ( 'NONE',  ( 0.000000000000000000, 0.000000000000000000, 0.000000000000000000 ) ) ;
#12 = CC_DESIGN_PERSON_AND_ORGANIZATION_ASSIGNMENT ( #89, #101, ( #26 ) ) ;
#13 = CARTESIAN_POINT ( 'NONE',  ( -0.4911499999999999755, -5.439920793199539473E-15, -2.559099999999999486 ) ) ;
#14 = ADVANCED_BREP_SHAPE_REPRESENTATION ( '45013', ( #122, #1, #294 ), #96 ) ;
#15 = SHAPE_DEFINITION_REPRESENTATION ( #329, #14 ) ;
#16 = CARTESIAN_POINT ( 'NONE',  ( -0.4921499999999999209, -1.003757945792422947E-15, -2.558099999999999596 ) ) ;
#17 = APPROVAL_STATUS ( 'not_yet_approved' ) ;
#18 = AXIS2_PLACEMENT_3D ( 'NONE', #116, #315, #146 ) ;
#19 = FACE_OUTER_BOUND ( 'NONE', #250, .T. ) ;
#20 = VERTEX_POINT ( 'NONE', #3 ) ;
#21 = ORIENTED_EDGE ( 'NONE', *, *, #148, .T. ) ;
#22 = DIRECTION ( 'NONE',  ( -2.445468806185136597E-29, 3.491481338843145583E-15, 1.000000000000000000 ) ) ;
#23 = ORIENTED_EDGE ( 'NONE', *, *, #348, .F. ) ;
#24 = DIRECTION ( 'NONE',  ( 1.000000000000000000, -6.982962677686265922E-15, 4.876176775795935793E-29 ) ) ;
#25 = VERTEX_POINT ( 'NONE', #311 ) ;
#26 = PRODUCT ( '45013', '45013', '', ( #350 ) ) ;
#27 = AXIS2_PLACEMENT_3D ( 'NONE', #104, #28, #219 ) ;
#28 = DIRECTION ( 'NONE',  ( -2.445468806185136597E-29, 3.491481338843145583E-15, 1.000000000000000000 ) ) ;
#29 = FACE_OUTER_BOUND ( 'NONE', #266, .T. ) ;
#30 = CC_DESIGN_PERSON_AND_ORGANIZATION_ASSIGNMENT ( #346, #288, ( #144 ) ) ;
#31 = EDGE_CURVE ( 'NONE', #186, #34, #258, .T. ) ;
#32 = CIRCLE ( 'NONE', #326, 0.4921499999999996433 ) ;
#33 = DIRECTION ( 'NONE',  ( -2.445468806185136597E-29, 3.491481338843145583E-15, 1.000000000000000000 ) ) ;
#34 = VERTEX_POINT ( 'NONE', #124 ) ;
#35 = AXIS2_PLACEMENT_3D ( 'NONE', #2, #336, #275 ) ;
#36 = ADVANCED_FACE ( 'NONE', ( #145 ), #103, .T. ) ;
#37 = CARTESIAN_POINT ( 'NONE',  ( 1.039813336389919950E-28, -1.484577865276105326E-14, -4.251999999999999780 ) ) ;
#38 = SECURITY_CLASSIFICATION_LEVEL ( 'unclassified' ) ;
#39 = COORDINATED_UNIVERSAL_TIME_OFFSET ( 5, 0, .BEHIND. ) ;
#40 = DIRECTION ( 'NONE',  ( 1.000000000000000000, -6.982962677686265922E-15, 0.000000000000000000 ) ) ;
#41 = PERSON_AND_ORGANIZATION ( #221, #208 ) ;
#42 = LINE ( 'NONE', #333, #149 ) ;
#43 = EDGE_LOOP ( 'NONE', ( #83, #211, #362, #77 ) ) ;
#44 = PERSON_AND_ORGANIZATION_ROLE ( 'design_supplier' ) ;
#45 = VECTOR ( 'NONE', #74, 39.37007874015748143 ) ;
#46 = CIRCLE ( 'NONE', #307, 0.4921499999999999764 ) ;
#47 = APPROVAL_ROLE ( '' ) ;
#48 = CYLINDRICAL_SURFACE ( 'NONE', #183, 0.4921499999999999764 ) ;
#49 = ORIENTED_EDGE ( 'NONE', *, *, #58, .F. ) ;
#50 = ADVANCED_FACE ( 'NONE', ( #226 ), #347, .T. ) ;
#51 = CARTESIAN_POINT ( 'NONE',  ( 0.000000000000000000, 0.000000000000000000, 0.000000000000000000 ) ) ;
#52 = ORIENTED_EDGE ( 'NONE', *, *, #109, .T. ) ;
#53 = DIRECTION ( 'NONE',  ( 1.000000000000000000, -6.982962677686265922E-15, 4.876176775795936353E-29 ) ) ;
#54 = ORIENTED_EDGE ( 'NONE', *, *, #4, .F. ) ;
#55 = CIRCLE ( 'NONE', #18, 0.4721499999999996255 ) ;
#56 = APPROVAL_PERSON_ORGANIZATION ( #61, #60, #203 ) ;
#57 = ORIENTED_EDGE ( 'NONE', *, *, #109, .F. ) ;
#58 = EDGE_CURVE ( 'NONE', #188, #274, #313, .T. ) ;
#59 = APPLICATION_CONTEXT ( 'configuration controlled 3d designs of mechanical parts and assemblies' ) ;
#60 = APPROVAL ( #167, 'UNSPECIFIED' ) ;
#61 = PERSON_AND_ORGANIZATION ( #221, #208 ) ;
#62 = VECTOR ( 'NONE', #7, 39.37007874015748143 ) ;
#63 = CARTESIAN_POINT ( 'NONE',  ( -0.4911499999999999755, -5.445219247547760298E-15, -2.559099999999999486 ) ) ;
#64 = SECURITY_CLASSIFICATION ( '', '', #38 ) ;
#65 = EDGE_CURVE ( 'NONE', #186, #25, #55, .T. ) ;
#66 = PLANE ( 'NONE',  #200 ) ;
#67 = APPROVAL_DATE_TIME ( #212, #205 ) ;
#68 = ADVANCED_FACE ( 'NONE', ( #316 ), #202, .F. ) ;
#69 = DIRECTION ( 'NONE',  ( 1.000000000000000000, -6.982962677686266711E-15, 0.000000000000000000 ) ) ;
#70 = CARTESIAN_POINT ( 'NONE',  ( 3.436665081823399512E-15, 0.4921499999999851549, -4.252000000000001556 ) ) ;
#71 = DESIGN_CONTEXT ( 'detailed design', #59, 'design' ) ;
#72 = DIRECTION ( 'NONE',  ( 1.000000000000000000, -6.982962677686266711E-15, 0.000000000000000000 ) ) ;
#73 = ORIENTED_EDGE ( 'NONE', *, *, #87, .F. ) ;
#74 = DIRECTION ( 'NONE',  ( 0.7071067811865451302, -7.319954787623248157E-15, -0.7071067811865499042 ) ) ;
#75 = AXIS2_PLACEMENT_3D ( 'NONE', #318, #174, #287 ) ;
#76 = FACE_OUTER_BOUND ( 'NONE', #163, .T. ) ;
#77 = ORIENTED_EDGE ( 'NONE', *, *, #246, .F. ) ;
#78 = DATE_AND_TIME ( #323, #314 ) ;
#79 = FACE_OUTER_BOUND ( 'NONE', #296, .T. ) ;
#80 = ORIENTED_EDGE ( 'NONE', *, *, #161, .F. ) ;
#81 = LINE ( 'NONE', #295, #247 ) ;
#82 = ORIENTED_EDGE ( 'NONE', *, *, #317, .T. ) ;
#83 = ORIENTED_EDGE ( 'NONE', *, *, #161, .T. ) ;
#84 = ORIENTED_EDGE ( 'NONE', *, *, #169, .T. ) ;
#85 = AXIS2_PLACEMENT_3D ( 'NONE', #248, #195, #365 ) ;
#86 = DIRECTION ( 'NONE',  ( -2.445468806185136597E-29, 3.491481338843145583E-15, 1.000000000000000000 ) ) ;
#87 = EDGE_CURVE ( 'NONE', #25, #216, #126, .T. ) ;
#88 = DATE_TIME_ROLE ( 'creation_date' ) ;
#89 = PERSON_AND_ORGANIZATION ( #221, #208 ) ;
#90 = CC_DESIGN_APPROVAL ( #363, ( #64 ) ) ;
#91 = DIRECTION ( 'NONE',  ( 2.438088387897960049E-29, -3.491481338843145188E-15, -1.000000000000000000 ) ) ;
#92 = ORIENTED_EDGE ( 'NONE', *, *, #110, .T. ) ;
#93 = DIRECTION ( 'NONE',  ( 1.000000000000000000, -6.982962677686265922E-15, 4.876176775795936353E-29 ) ) ;
#94 = CARTESIAN_POINT ( 'NONE',  ( 6.255753753102197222E-29, -8.931558412894650757E-15, -2.558099999999999596 ) ) ;
#95 = AXIS2_PLACEMENT_3D ( 'NONE', #120, #339, #261 ) ;
#96 =( GEOMETRIC_REPRESENTATION_CONTEXT ( 3 ) GLOBAL_UNCERTAINTY_ASSIGNED_CONTEXT ( ( #232 ) ) GLOBAL_UNIT_ASSIGNED_CONTEXT ( ( #140, #223, #108 ) ) REPRESENTATION_CONTEXT ( 'NONE', 'WORKASPACE' ) );
#97 = CARTESIAN_POINT ( 'NONE',  ( 0.4921499999999996433, -3.446223716380119982E-15, -0.02000000000000011491 ) ) ;
#98 = APPROVAL_DATE_TIME ( #78, #363 ) ;
#99 = DIRECTION ( 'NONE',  ( -2.445468806185136597E-29, 3.491481338843145583E-15, 1.000000000000000000 ) ) ;
#100 = VERTEX_POINT ( 'NONE', #117 ) ;
#101 = PERSON_AND_ORGANIZATION_ROLE ( 'design_owner' ) ;
#102 = ORIENTED_EDGE ( 'NONE', *, *, #65, .T. ) ;
#103 = CONICAL_SURFACE ( 'NONE', #319, 0.4921499999999996433, 0.7853981633974449483 ) ;
#104 = CARTESIAN_POINT ( 'NONE',  ( 6.258199221908381703E-29, -8.935049894233492186E-15, -2.559099999999999486 ) ) ;
#105 = ORIENTED_EDGE ( 'NONE', *, *, #196, .F. ) ;
#106 = AXIS2_PLACEMENT_3D ( 'NONE', #157, #137, #133 ) ;
#107 = CC_DESIGN_APPROVAL ( #205, ( #338 ) ) ;
#108 =( NAMED_UNIT ( * ) SI_UNIT ( $, .STERADIAN. ) SOLID_ANGLE_UNIT ( ) );
#109 = EDGE_CURVE ( 'NONE', #100, #121, #281, .T. ) ;
#110 = EDGE_CURVE ( 'NONE', #121, #138, #283, .T. ) ;
#111 = DIRECTION ( 'NONE',  ( 2.438088387897960049E-29, -3.491481338843145188E-15, -1.000000000000000000 ) ) ;
#112 =( LENGTH_UNIT ( ) NAMED_UNIT ( * ) SI_UNIT ( $, .METRE. ) );
#113 = AXIS2_PLACEMENT_3D ( 'NONE', #159, #353, #244 ) ;
#114 = CC_DESIGN_SECURITY_CLASSIFICATION ( #64, ( #144 ) ) ;
#115 = PERSON_AND_ORGANIZATION ( #221, #208 ) ;
#116 = CARTESIAN_POINT ( 'NONE',  ( -2.087702828670439639E-46, 2.980686340760894400E-32, 8.537024980200822558E-18 ) ) ;
#117 = CARTESIAN_POINT ( 'NONE',  ( -0.4921499999999999764, -8.393478199453939038E-15, -4.251999999999999780 ) ) ;
#118 = COORDINATED_UNIVERSAL_TIME_OFFSET ( 5, 0, .BEHIND. ) ;
#119 = CIRCLE ( 'NONE', #95, 0.4921499999999996433 ) ;
#120 = CARTESIAN_POINT ( 'NONE',  ( 4.890937612370302060E-31, -6.982962677686331052E-17, -0.02000000000000011491 ) ) ;
#121 = VERTEX_POINT ( 'NONE', #150 ) ;
#122 = MANIFOLD_SOLID_BREP ( 'Body-Move/Copy2[1]', #228 ) ;
#123 = ADVANCED_FACE ( 'NONE', ( #76 ), #178, .T. ) ;
#124 = CARTESIAN_POINT ( 'NONE',  ( -0.4921499999999996433, 3.366835455046430112E-15, -0.02000000000000011491 ) ) ;
#125 = CALENDAR_DATE ( 2024, 28, 2 ) ;
#126 = LINE ( 'NONE', #204, #45 ) ;
#127 = CC_DESIGN_DATE_AND_TIME_ASSIGNMENT ( #175, #342, ( #64 ) ) ;
#128 = APPROVAL_ROLE ( '' ) ;
#129 = CC_DESIGN_APPROVAL ( #60, ( #144 ) ) ;
#130 = EDGE_CURVE ( 'NONE', #138, #218, #154, .T. ) ;
#131 = CARTESIAN_POINT ( 'NONE',  ( 4.890937612370302060E-31, -6.982962677686331052E-17, -0.02000000000000011491 ) ) ;
#132 = EDGE_LOOP ( 'NONE', ( #322, #298 ) ) ;
#133 = DIRECTION ( 'NONE',  ( 1.000000000000000000, -6.982962677686265922E-15, 4.876006802227162976E-29 ) ) ;
#134 = ORIENTED_EDGE ( 'NONE', *, *, #278, .F. ) ;
#135 = EDGE_LOOP ( 'NONE', ( #299, #54 ) ) ;
#136 = AXIS2_PLACEMENT_3D ( 'NONE', #164, #192, #24 ) ;
#137 = DIRECTION ( 'NONE',  ( -2.445468806185136597E-29, 3.491481338843145583E-15, 1.000000000000000000 ) ) ;
#138 = VERTEX_POINT ( 'NONE', #151 ) ;
#139 = CONICAL_SURFACE ( 'NONE', #341, 0.4911499999999999755, 0.7853981633975165577 ) ;
#140 =( CONVERSION_BASED_UNIT ( 'INCH', #277 ) LENGTH_UNIT ( ) NAMED_UNIT ( #364 ) );
#141 = CARTESIAN_POINT ( 'NONE',  ( 6.258199221908381703E-29, -8.935049894233492186E-15, -2.559099999999999486 ) ) ;
#142 = CIRCLE ( 'NONE', #263, 0.4921499999999999209 ) ;
#143 = CALENDAR_DATE ( 2024, 28, 2 ) ;
#144 = PRODUCT_DEFINITION_FORMATION_WITH_SPECIFIED_SOURCE ( 'ANY', '', #26, .NOT_KNOWN. ) ;
#145 = FACE_OUTER_BOUND ( 'NONE', #8, .T. ) ;
#146 = DIRECTION ( 'NONE',  ( 1.000000000000000000, -6.982962677686265922E-15, 4.876006802227162976E-29 ) ) ;
#147 = ORIENTED_EDGE ( 'NONE', *, *, #260, .T. ) ;
#148 = EDGE_CURVE ( 'NONE', #100, #218, #256, .T. ) ;
#149 = VECTOR ( 'NONE', #239, 39.37007874015748143 ) ;
#150 = CARTESIAN_POINT ( 'NONE',  ( 0.4921499999999999764, -1.828244373458435062E-14, -4.251999999999999780 ) ) ;
#151 = CARTESIAN_POINT ( 'NONE',  ( 0.4921499999999999764, -1.237171497605678796E-14, -2.559099999999999486 ) ) ;
#152 = EDGE_CURVE ( 'NONE', #216, #34, #119, .T. ) ;
#153 = DIRECTION ( 'NONE',  ( 2.445468806185136597E-29, -3.491481338843145583E-15, -1.000000000000000000 ) ) ;
#154 = CIRCLE ( 'NONE', #302, 0.4921499999999999764 ) ;
#155 = ORIENTED_EDGE ( 'NONE', *, *, #169, .F. ) ;
#156 = CALENDAR_DATE ( 2024, 28, 2 ) ;
#157 = CARTESIAN_POINT ( 'NONE',  ( -2.087702828670439639E-46, 2.980686340760894400E-32, 8.537024980200822558E-18 ) ) ;
#158 = EDGE_LOOP ( 'NONE', ( #304, #245, #147, #49 ) ) ;
#159 = CARTESIAN_POINT ( 'NONE',  ( 4.890937612370302060E-31, -6.982962677686331052E-17, -0.02000000000000011491 ) ) ;
#160 = VERTEX_POINT ( 'NONE', #13 ) ;
#161 = EDGE_CURVE ( 'NONE', #274, #188, #142, .T. ) ;
#162 = CARTESIAN_POINT ( 'NONE',  ( 6.258199221908381703E-29, -8.935049894233492186E-15, -2.559099999999999486 ) ) ;
#163 = EDGE_LOOP ( 'NONE', ( #23, #57 ) ) ;
#164 = CARTESIAN_POINT ( 'NONE',  ( 6.258199221908381703E-29, -8.935049894233492186E-15, -2.559099999999999486 ) ) ;
#165 = ORIENTED_EDGE ( 'NONE', *, *, #148, .F. ) ;
#166 = FACE_OUTER_BOUND ( 'NONE', #135, .T. ) ;
#167 = APPROVAL_STATUS ( 'not_yet_approved' ) ;
#168 = DIRECTION ( 'NONE',  ( -0.7071067811865957564, 7.493145998870527710E-15, 0.7071067811864992780 ) ) ;
#169 = EDGE_CURVE ( 'NONE', #25, #186, #358, .T. ) ;
#170 = AXIS2_PLACEMENT_3D ( 'NONE', #94, #6, #72 ) ;
#171 = LOCAL_TIME ( 3, 40, 33.00000000000000000, #118 ) ;
#172 = CARTESIAN_POINT ( 'NONE',  ( 6.258199221908381703E-29, -8.935049894233492186E-15, -2.559099999999999486 ) ) ;
#173 = APPROVAL_DATE_TIME ( #285, #60 ) ;
#174 = DIRECTION ( 'NONE',  ( 2.438088387897960049E-29, -3.491481338843145188E-15, -1.000000000000000000 ) ) ;
#175 = DATE_AND_TIME ( #125, #171 ) ;
#176 = CIRCLE ( 'NONE', #85, 0.4911499999999999755 ) ;
#177 = DIRECTION ( 'NONE',  ( -2.445468806185136877E-29, 3.491481338843145188E-15, 1.000000000000000000 ) ) ;
#178 = PLANE ( 'NONE',  #257 ) ;
#179 = DIRECTION ( 'NONE',  ( 0.7071067811865957564, -2.468850131082761932E-15, 0.7071067811864992780 ) ) ;
#180 = ORIENTED_EDGE ( 'NONE', *, *, #332, .T. ) ;
#181 = DIRECTION ( 'NONE',  ( 0.000000000000000000, 0.000000000000000000, 1.000000000000000000 ) ) ;
#182 = LINE ( 'NONE', #321, #191 ) ;
#183 = AXIS2_PLACEMENT_3D ( 'NONE', #297, #22, #359 ) ;
#184 = APPLICATION_CONTEXT ( 'configuration controlled 3d designs of mechanical parts and assemblies' ) ;
#185 = CONICAL_SURFACE ( 'NONE', #9, 0.4911499999999999755, 0.7853981633975165577 ) ;
#186 = VERTEX_POINT ( 'NONE', #330 ) ;
#187 = DIRECTION ( 'NONE',  ( -2.445468806185136597E-29, 3.491481338843145583E-15, 1.000000000000000000 ) ) ;
#188 = VERTEX_POINT ( 'NONE', #16 ) ;
#189 = ADVANCED_FACE ( 'NONE', ( #19 ), #352, .T. ) ;
#190 = EDGE_LOOP ( 'NONE', ( #134, #361, #272, #328 ) ) ;
#191 = VECTOR ( 'NONE', #291, 39.37007874015748143 ) ;
#192 = DIRECTION ( 'NONE',  ( -2.438088387897960049E-29, 3.491481338843145188E-15, 1.000000000000000000 ) ) ;
#193 = DIRECTION ( 'NONE',  ( -2.445468806185136597E-29, 3.491481338843145583E-15, 1.000000000000000000 ) ) ;
#194 = VECTOR ( 'NONE', #168, 39.37007874015748143 ) ;
#195 = DIRECTION ( 'NONE',  ( -2.445468806185136597E-29, 3.491481338843145583E-15, 1.000000000000000000 ) ) ;
#196 = EDGE_CURVE ( 'NONE', #218, #138, #46, .T. ) ;
#197 = APPLICATION_PROTOCOL_DEFINITION ( 'international standard', 'config_control_design', 1994, #184 ) ;
#198 = DATE_AND_TIME ( #143, #303 ) ;
#199 = CARTESIAN_POINT ( 'NONE',  ( 6.255753753102197222E-29, -8.931558412894650757E-15, -2.558099999999999596 ) ) ;
#200 = AXIS2_PLACEMENT_3D ( 'NONE', #366, #111, #222 ) ;
#201 = DIRECTION ( 'NONE',  ( -1.000000000000000000, 6.982962677686265922E-15, 0.000000000000000000 ) ) ;
#202 = PLANE ( 'NONE',  #75 ) ;
#203 = APPROVAL_ROLE ( '' ) ;
#204 = CARTESIAN_POINT ( 'NONE',  ( 0.4921499999999996433, -3.446223716380119982E-15, -0.02000000000000011491 ) ) ;
#205 = APPROVAL ( #320, 'UNSPECIFIED' ) ;
#206 = CALENDAR_DATE ( 2024, 28, 2 ) ;
#207 = AXIS2_PLACEMENT_3D ( 'NONE', #37, #209, #231 ) ;
#208 = ORGANIZATION ( 'UNSPECIFIED', 'UNSPECIFIED', '' ) ;
#209 = DIRECTION ( 'NONE',  ( -2.445468806185136597E-29, 3.491481338843145583E-15, 1.000000000000000000 ) ) ;
#210 = ORIENTED_EDGE ( 'NONE', *, *, #130, .F. ) ;
#211 = ORIENTED_EDGE ( 'NONE', *, *, #278, .T. ) ;
#212 = DATE_AND_TIME ( #156, #264 ) ;
#213 = CYLINDRICAL_SURFACE ( 'NONE', #249, 0.4921499999999997543 ) ;
#214 = APPROVAL_PERSON_ORGANIZATION ( #289, #205, #47 ) ;
#215 = ORIENTED_EDGE ( 'NONE', *, *, #31, .F. ) ;
#216 = VERTEX_POINT ( 'NONE', #97 ) ;
#217 = FACE_OUTER_BOUND ( 'NONE', #190, .T. ) ;
#218 = VERTEX_POINT ( 'NONE', #269 ) ;
#219 = DIRECTION ( 'NONE',  ( 1.000000000000000000, -6.982962677686264344E-15, 0.000000000000000000 ) ) ;
#220 = AXIS2_PLACEMENT_3D ( 'NONE', #351, #345, #93 ) ;
#221 = PERSON ( 'UNSPECIFIED', 'UNSPECIFIED', 'UNSPECIFIED', ('UNSPECIFIED'), ('UNSPECIFIED'), ('UNSPECIFIED') ) ;
#222 = DIRECTION ( 'NONE',  ( -1.000000000000000000, 6.982962677686265922E-15, -4.876176775795935793E-29 ) ) ;
#223 =( NAMED_UNIT ( * ) PLANE_ANGLE_UNIT ( ) SI_UNIT ( $, .RADIAN. ) );
#224 = CARTESIAN_POINT ( 'NONE',  ( -0.4921499999999996433, 3.366835455046430112E-15, -0.02000000000000011491 ) ) ;
#225 = CC_DESIGN_DATE_AND_TIME_ASSIGNMENT ( #198, #88, ( #338 ) ) ;
#226 = FACE_OUTER_BOUND ( 'NONE', #43, .T. ) ;
#227 = PERSON_AND_ORGANIZATION_ROLE ( 'classification_officer' ) ;
#228 = CLOSED_SHELL ( 'NONE', ( #308, #123, #68, #344 ) ) ;
#229 = DIRECTION ( 'NONE',  ( -0.7071067811865451302, 2.468850131082231817E-15, -0.7071067811865499042 ) ) ;
#230 = CARTESIAN_POINT ( 'NONE',  ( 4.890937612370302060E-31, -6.982962677686331052E-17, -0.02000000000000011491 ) ) ;
#231 = DIRECTION ( 'NONE',  ( 1.000000000000000000, -6.982962677686270655E-15, 0.000000000000000000 ) ) ;
#232 = UNCERTAINTY_MEASURE_WITH_UNIT (LENGTH_MEASURE( 1.000000000000000082E-05 ), #140, 'distance_accuracy_value', 'NONE');
#233 = CIRCLE ( 'NONE', #27, 0.4911499999999999755 ) ;
#234 = CARTESIAN_POINT ( 'NONE',  ( 0.4921499999999999209, -1.236822349471794496E-14, -2.558099999999999596 ) ) ;
#235 = COORDINATED_UNIVERSAL_TIME_OFFSET ( 5, 0, .BEHIND. ) ;
#236 = DIRECTION ( 'NONE',  ( 1.000000000000000000, 0.000000000000000000, 0.000000000000000000 ) ) ;
#237 = DIRECTION ( 'NONE',  ( 1.000000000000000000, -6.982962677686265922E-15, 0.000000000000000000 ) ) ;
#238 = ORIENTED_EDGE ( 'NONE', *, *, #65, .F. ) ;
#239 = DIRECTION ( 'NONE',  ( -2.445468806185136877E-29, 3.491481338843145188E-15, 1.000000000000000000 ) ) ;
#240 = ORIENTED_EDGE ( 'NONE', *, *, #152, .T. ) ;
#241 = FACE_OUTER_BOUND ( 'NONE', #357, .T. ) ;
#242 = CIRCLE ( 'NONE', #337, 0.4921499999999999764 ) ;
#243 = ORIENTED_EDGE ( 'NONE', *, *, #110, .F. ) ;
#244 = DIRECTION ( 'NONE',  ( -1.000000000000000000, 6.982962677686265922E-15, 0.000000000000000000 ) ) ;
#245 = ORIENTED_EDGE ( 'NONE', *, *, #4, .T. ) ;
#246 = EDGE_CURVE ( 'NONE', #274, #216, #182, .T. ) ;
#247 = VECTOR ( 'NONE', #179, 39.37007874015748143 ) ;
#248 = CARTESIAN_POINT ( 'NONE',  ( 6.258199221908381703E-29, -8.935049894233492186E-15, -2.559099999999999486 ) ) ;
#249 = AXIS2_PLACEMENT_3D ( 'NONE', #51, #327, #53 ) ;
#250 = EDGE_LOOP ( 'NONE', ( #73, #238, #292, #331 ) ) ;
#251 = ADVANCED_FACE ( 'NONE', ( #217 ), #213, .T. ) ;
#252 = FACE_OUTER_BOUND ( 'NONE', #158, .T. ) ;
#253 = FACE_OUTER_BOUND ( 'NONE', #325, .T. ) ;
#254 = LOCAL_TIME ( 3, 40, 33.00000000000000000, #259 ) ;
#255 = CC_DESIGN_PERSON_AND_ORGANIZATION_ASSIGNMENT ( #262, #44, ( #144 ) ) ;
#256 = LINE ( 'NONE', #284, #62 ) ;
#257 = AXIS2_PLACEMENT_3D ( 'NONE', #70, #91, #290 ) ;
#258 = LINE ( 'NONE', #224, #335 ) ;
#259 = COORDINATED_UNIVERSAL_TIME_OFFSET ( 5, 0, .BEHIND. ) ;
#260 = EDGE_CURVE ( 'NONE', #20, #274, #81, .T. ) ;
#261 = DIRECTION ( 'NONE',  ( 1.000000000000000000, -6.982962677686265922E-15, 0.000000000000000000 ) ) ;
#262 = PERSON_AND_ORGANIZATION ( #221, #208 ) ;
#263 = AXIS2_PLACEMENT_3D ( 'NONE', #199, #312, #69 ) ;
#264 = LOCAL_TIME ( 3, 40, 33.00000000000000000, #39 ) ;
#265 = CARTESIAN_POINT ( 'NONE',  ( 6.258199221908381703E-29, -8.935049894233492186E-15, -2.559099999999999486 ) ) ;
#266 = EDGE_LOOP ( 'NONE', ( #102, #84 ) ) ;
#267 = COORDINATED_UNIVERSAL_TIME_OFFSET ( 5, 0, .BEHIND. ) ;
#268 = ORIENTED_EDGE ( 'NONE', *, *, #87, .T. ) ;
#269 = CARTESIAN_POINT ( 'NONE',  ( -0.4921499999999999764, -8.393478199453939038E-15, -2.559099999999999486 ) ) ;
#270 = ORIENTED_EDGE ( 'NONE', *, *, #260, .F. ) ;
#271 = VECTOR ( 'NONE', #177, 39.37007874015748143 ) ;
#272 = ORIENTED_EDGE ( 'NONE', *, *, #246, .T. ) ;
#273 = DIRECTION ( 'NONE',  ( 1.000000000000000000, -6.982962677686264344E-15, 0.000000000000000000 ) ) ;
#274 = VERTEX_POINT ( 'NONE', #234 ) ;
#275 = DIRECTION ( 'NONE',  ( 1.000000000000000000, -6.982962677686265922E-15, 4.876176775795935793E-29 ) ) ;
#276 = CARTESIAN_POINT ( 'NONE',  ( 1.039813336389919950E-28, -1.484577865276105326E-14, -4.251999999999999780 ) ) ;
#277 = LENGTH_MEASURE_WITH_UNIT ( LENGTH_MEASURE( 0.02539999999999999897 ), #112 );
#278 = EDGE_CURVE ( 'NONE', #188, #34, #42, .T. ) ;
#279 = PRODUCT_RELATED_PRODUCT_CATEGORY ( 'detail', '', ( #26 ) ) ;
#280 = PERSON_AND_ORGANIZATION_ROLE ( 'creator' ) ;
#281 = CIRCLE ( 'NONE', #207, 0.4921499999999999764 ) ;
#282 = EDGE_CURVE ( 'NONE', #34, #216, #32, .T. ) ;
#283 = LINE ( 'NONE', #340, #271 ) ;
#284 = CARTESIAN_POINT ( 'NONE',  ( -0.4921499999999999764, 3.496936074043332897E-15, -2.420853904668951509E-29 ) ) ;
#285 = DATE_AND_TIME ( #206, #254 ) ;
#286 = CLOSED_SHELL ( 'NONE', ( #300, #50, #36, #189, #251, #354, #360, #10 ) ) ;
#287 = DIRECTION ( 'NONE',  ( -1.000000000000000000, 6.982962677686265922E-15, -4.876176775795935793E-29 ) ) ;
#288 = PERSON_AND_ORGANIZATION_ROLE ( 'creator' ) ;
#289 = PERSON_AND_ORGANIZATION ( #221, #208 ) ;
#290 = DIRECTION ( 'NONE',  ( -1.000000000000000000, 6.982962677686265922E-15, -4.876176775795935793E-29 ) ) ;
#291 = DIRECTION ( 'NONE',  ( -2.445468806185136877E-29, 3.491481338843145188E-15, 1.000000000000000000 ) ) ;
#292 = ORIENTED_EDGE ( 'NONE', *, *, #31, .T. ) ;
#293 = APPLICATION_PROTOCOL_DEFINITION ( 'international standard', 'config_control_design', 1994, #59 ) ;
#294 = AXIS2_PLACEMENT_3D ( 'NONE', #11, #181, #236 ) ;
#295 = CARTESIAN_POINT ( 'NONE',  ( 0.4911499999999999755, -1.236473201337910037E-14, -2.559099999999999486 ) ) ;
#296 = EDGE_LOOP ( 'NONE', ( #355, #21, #210, #243 ) ) ;
#297 = CARTESIAN_POINT ( 'NONE',  ( 0.000000000000000000, 0.000000000000000000, 0.000000000000000000 ) ) ;
#298 = ORIENTED_EDGE ( 'NONE', *, *, #196, .T. ) ;
#299 = ORIENTED_EDGE ( 'NONE', *, *, #317, .F. ) ;
#300 = ADVANCED_FACE ( 'NONE', ( #241 ), #139, .T. ) ;
#301 = DIRECTION ( 'NONE',  ( 1.000000000000000000, -6.982962677686265922E-15, 0.000000000000000000 ) ) ;
#302 = AXIS2_PLACEMENT_3D ( 'NONE', #172, #33, #40 ) ;
#303 = LOCAL_TIME ( 3, 40, 33.00000000000000000, #267 ) ;
#304 = ORIENTED_EDGE ( 'NONE', *, *, #332, .F. ) ;
#305 = CYLINDRICAL_SURFACE ( 'NONE', #35, 0.4921499999999999764 ) ;
#306 = PLANE ( 'NONE',  #136 ) ;
#307 = AXIS2_PLACEMENT_3D ( 'NONE', #265, #356, #301 ) ;
#308 = ADVANCED_FACE ( 'NONE', ( #79 ), #48, .T. ) ;
#309 = DIRECTION ( 'NONE',  ( 1.000000000000000000, -6.982962677686270655E-15, 0.000000000000000000 ) ) ;
#310 = CC_DESIGN_PERSON_AND_ORGANIZATION_ASSIGNMENT ( #41, #227, ( #64 ) ) ;
#311 = CARTESIAN_POINT ( 'NONE',  ( 0.4721499999999996255, -3.342703923013973002E-15, 8.537024980224040028E-18 ) ) ;
#312 = DIRECTION ( 'NONE',  ( -2.445468806185136597E-29, 3.491481338843145583E-15, 1.000000000000000000 ) ) ;
#313 = CIRCLE ( 'NONE', #170, 0.4921499999999999209 ) ;
#314 = LOCAL_TIME ( 3, 40, 33.00000000000000000, #235 ) ;
#315 = DIRECTION ( 'NONE',  ( -2.445468806185136597E-29, 3.491481338843145583E-15, 1.000000000000000000 ) ) ;
#316 = FACE_OUTER_BOUND ( 'NONE', #132, .T. ) ;
#317 = EDGE_CURVE ( 'NONE', #20, #160, #233, .T. ) ;
#318 = CARTESIAN_POINT ( 'NONE',  ( 3.436665081823358491E-15, 0.4921499999999910391, -2.559100000000001263 ) ) ;
#319 = AXIS2_PLACEMENT_3D ( 'NONE', #230, #153, #201 ) ;
#320 = APPROVAL_STATUS ( 'not_yet_approved' ) ;
#321 = CARTESIAN_POINT ( 'NONE',  ( 0.4921499999999997543, -3.436665081823294199E-15, 2.399810400207968762E-29 ) ) ;
#322 = ORIENTED_EDGE ( 'NONE', *, *, #130, .T. ) ;
#323 = CALENDAR_DATE ( 2024, 28, 2 ) ;
#324 = DIRECTION ( 'NONE',  ( 1.000000000000000000, -6.982962677686264344E-15, 0.000000000000000000 ) ) ;
#325 = EDGE_LOOP ( 'NONE', ( #165, #52, #92, #105 ) ) ;
#326 = AXIS2_PLACEMENT_3D ( 'NONE', #131, #187, #237 ) ;
#327 = DIRECTION ( 'NONE',  ( -2.445468806185136597E-29, 3.491481338843145583E-15, 1.000000000000000000 ) ) ;
#328 = ORIENTED_EDGE ( 'NONE', *, *, #282, .F. ) ;
#329 = PRODUCT_DEFINITION_SHAPE ( 'NONE', 'NONE',  #338 ) ;
#330 = CARTESIAN_POINT ( 'NONE',  ( -0.4721499999999996255, 3.331920641657998857E-15, 8.537024980177643606E-18 ) ) ;
#331 = ORIENTED_EDGE ( 'NONE', *, *, #282, .T. ) ;
#332 = EDGE_CURVE ( 'NONE', #160, #188, #334, .T. ) ;
#333 = CARTESIAN_POINT ( 'NONE',  ( -0.4921499999999997543, 3.496936074043331319E-15, -2.420853904668950668E-29 ) ) ;
#334 = LINE ( 'NONE', #63, #194 ) ;
#335 = VECTOR ( 'NONE', #229, 39.37007874015748143 ) ;
#336 = DIRECTION ( 'NONE',  ( -2.445468806185136597E-29, 3.491481338843145583E-15, 1.000000000000000000 ) ) ;
#337 = AXIS2_PLACEMENT_3D ( 'NONE', #276, #193, #309 ) ;
#338 = PRODUCT_DEFINITION ( 'UNKNOWN', '', #144, #71 ) ;
#339 = DIRECTION ( 'NONE',  ( -2.445468806185136597E-29, 3.491481338843145583E-15, 1.000000000000000000 ) ) ;
#340 = CARTESIAN_POINT ( 'NONE',  ( 0.4921499999999999764, -3.436665081823295777E-15, 2.399810400207969603E-29 ) ) ;
#341 = AXIS2_PLACEMENT_3D ( 'NONE', #162, #99, #324 ) ;
#342 = DATE_TIME_ROLE ( 'classification_date' ) ;
#343 = CC_DESIGN_PERSON_AND_ORGANIZATION_ASSIGNMENT ( #115, #280, ( #338 ) ) ;
#344 = ADVANCED_FACE ( 'NONE', ( #253 ), #305, .T. ) ;
#345 = DIRECTION ( 'NONE',  ( -2.445468806185136597E-29, 3.491481338843145583E-15, 1.000000000000000000 ) ) ;
#346 = PERSON_AND_ORGANIZATION ( #221, #208 ) ;
#347 = CYLINDRICAL_SURFACE ( 'NONE', #220, 0.4921499999999997543 ) ;
#348 = EDGE_CURVE ( 'NONE', #121, #100, #242, .T. ) ;
#349 = PERSON_AND_ORGANIZATION ( #221, #208 ) ;
#350 = MECHANICAL_CONTEXT ( 'NONE', #184, 'mechanical' ) ;
#351 = CARTESIAN_POINT ( 'NONE',  ( 0.000000000000000000, 0.000000000000000000, 0.000000000000000000 ) ) ;
#352 = CONICAL_SURFACE ( 'NONE', #113, 0.4921499999999996433, 0.7853981633974449483 ) ;
#353 = DIRECTION ( 'NONE',  ( 2.445468806185136597E-29, -3.491481338843145583E-15, -1.000000000000000000 ) ) ;
#354 = ADVANCED_FACE ( 'NONE', ( #252 ), #185, .T. ) ;
#355 = ORIENTED_EDGE ( 'NONE', *, *, #348, .T. ) ;
#356 = DIRECTION ( 'NONE',  ( -2.445468806185136597E-29, 3.491481338843145583E-15, 1.000000000000000000 ) ) ;
#357 = EDGE_LOOP ( 'NONE', ( #82, #180, #80, #270 ) ) ;
#358 = CIRCLE ( 'NONE', #106, 0.4721499999999996255 ) ;
#359 = DIRECTION ( 'NONE',  ( 1.000000000000000000, -6.982962677686265922E-15, 4.876176775795935793E-29 ) ) ;
#360 = ADVANCED_FACE ( 'NONE', ( #166 ), #306, .F. ) ;
#361 = ORIENTED_EDGE ( 'NONE', *, *, #58, .T. ) ;
#362 = ORIENTED_EDGE ( 'NONE', *, *, #152, .F. ) ;
#363 = APPROVAL ( #17, 'UNSPECIFIED' ) ;
#364 = DIMENSIONAL_EXPONENTS ( 1.000000000000000000, 0.000000000000000000, 0.000000000000000000, 0.000000000000000000, 0.000000000000000000, 0.000000000000000000, 0.000000000000000000 ) ;
#365 = DIRECTION ( 'NONE',  ( 1.000000000000000000, -6.982962677686264344E-15, 0.000000000000000000 ) ) ;
#366 = CARTESIAN_POINT ( 'NONE',  ( 3.297005828269567997E-15, 0.4721499999999996255, -1.644234401644689488E-15 ) ) ;
ENDSEC;
END-ISO-10303-21;
