ISO-10303-21;
HEADER;
FILE_DESCRIPTION (( 'STEP AP203' ),
    '1' );
FILE_NAME ('46140.STEP',
    '2024-02-28T10:03:27',
    ( '' ),
    ( '' ),
    'SwSTEP 2.0',
    'SolidWorks 2023',
    '' );
FILE_SCHEMA (( 'CONFIG_CONTROL_DESIGN' ));
ENDSEC;

DATA;
#1 = DIRECTION ( 'NONE',  ( 1.000000000000000000, -6.982962677686267499E-15, 4.877161320636784168E-29 ) ) ;
#2 = AXIS2_PLACEMENT_3D ( 'NONE', #100, #174, #129 ) ;
#3 = PERSON_AND_ORGANIZATION ( #77, #75 ) ;
#4 = VERTEX_POINT ( 'NONE', #137 ) ;
#5 = CARTESIAN_POINT ( 'NONE',  ( 8.246878922348211336E-16, 0.1180999999999895467, -2.992100000000000204 ) ) ;
#6 = CARTESIAN_POINT ( 'NONE',  ( 7.317087214986543751E-29, -1.044686131395257108E-14, -2.992099999999998872 ) ) ;
#7 = ORIENTED_EDGE ( 'NONE', *, *, #98, .T. ) ;
#8 = EDGE_CURVE ( 'NONE', #4, #287, #276, .T. ) ;
#9 = FACE_OUTER_BOUND ( 'NONE', #45, .T. ) ;
#10 = APPROVAL_ROLE ( '' ) ;
#11 = VERTEX_POINT ( 'NONE', #21 ) ;
#12 = CC_DESIGN_PERSON_AND_ORGANIZATION_ASSIGNMENT ( #72, #39, ( #135 ) ) ;
#13 = AXIS2_PLACEMENT_3D ( 'NONE', #308, #144, #257 ) ;
#14 = AXIS2_PLACEMENT_3D ( 'NONE', #183, #132, #358 ) ;
#15 = LINE ( 'NONE', #289, #346 ) ;
#16 = AXIS2_PLACEMENT_3D ( 'NONE', #241, #356, #139 ) ;
#17 = PRODUCT_DEFINITION_SHAPE ( 'NONE', 'NONE',  #234 ) ;
#18 = APPROVAL_STATUS ( 'not_yet_approved' ) ;
#19 = APPROVAL_DATE_TIME ( #337, #22 ) ;
#20 = DIRECTION ( 'NONE',  ( -2.445468806185136597E-29, 3.491481338843145583E-15, 1.000000000000000000 ) ) ;
#21 = CARTESIAN_POINT ( 'NONE',  ( -0.1170999999999999958, -9.609517316029273062E-15, -2.992099999999998872 ) ) ;
#22 = APPROVAL ( #110, 'UNSPECIFIED' ) ;
#23 = AXIS2_PLACEMENT_3D ( 'NONE', #281, #97, #32 ) ;
#24 = AXIS2_PLACEMENT_3D ( 'NONE', #61, #33, #280 ) ;
#25 = SHAPE_DEFINITION_REPRESENTATION ( #17, #341 ) ;
#26 = LINE ( 'NONE', #116, #192 ) ;
#27 = DIRECTION ( 'NONE',  ( 0.7071067811865460184, -7.319954787623251312E-15, -0.7071067811865490160 ) ) ;
#28 = VECTOR ( 'NONE', #52, 39.37007874015748143 ) ;
#29 = LINE ( 'NONE', #84, #312 ) ;
#30 = AXIS2_PLACEMENT_3D ( 'NONE', #147, #121, #194 ) ;
#31 = PLANE ( 'NONE',  #111 ) ;
#32 = DIRECTION ( 'NONE',  ( -1.000000000000000000, 6.982962677686265922E-15, 0.000000000000000000 ) ) ;
#33 = DIRECTION ( 'NONE',  ( -2.445468806185136597E-29, 3.491481338843145583E-15, 1.000000000000000000 ) ) ;
#34 = AXIS2_PLACEMENT_3D ( 'NONE', #306, #328, #332 ) ;
#35 = AXIS2_PLACEMENT_3D ( 'NONE', #92, #313, #36 ) ;
#36 = DIRECTION ( 'NONE',  ( 1.000000000000000000, -6.982962677686266711E-15, 4.876176775795935232E-29 ) ) ;
#37 = ADVANCED_FACE ( 'NONE', ( #131 ), #292, .T. ) ;
#38 = ORIENTED_EDGE ( 'NONE', *, *, #138, .T. ) ;
#39 = PERSON_AND_ORGANIZATION_ROLE ( 'design_owner' ) ;
#40 = ORIENTED_EDGE ( 'NONE', *, *, #219, .T. ) ;
#41 = CYLINDRICAL_SURFACE ( 'NONE', #13, 0.1180999999999999966 ) ;
#42 = ORIENTED_EDGE ( 'NONE', *, *, #209, .T. ) ;
#43 = APPROVAL_PERSON_ORGANIZATION ( #364, #22, #211 ) ;
#44 = APPLICATION_PROTOCOL_DEFINITION ( 'international standard', 'config_control_design', 1994, #152 ) ;
#45 = EDGE_LOOP ( 'NONE', ( #124, #40 ) ) ;
#46 = DIRECTION ( 'NONE',  ( 1.000000000000000000, -6.982962677686265922E-15, 0.000000000000000000 ) ) ;
#47 = APPROVAL ( #260, 'UNSPECIFIED' ) ;
#48 = DIRECTION ( 'NONE',  ( 1.000000000000000000, -6.982962677686273021E-15, 0.000000000000000000 ) ) ;
#49 = CALENDAR_DATE ( 2024, 28, 2 ) ;
#50 = CIRCLE ( 'NONE', #62, 0.09809999999999965969 ) ;
#51 = ADVANCED_FACE ( 'NONE', ( #359 ), #272, .F. ) ;
#52 = DIRECTION ( 'NONE',  ( -2.445468806185136877E-29, 3.491481338843145188E-15, 1.000000000000000000 ) ) ;
#53 = ORIENTED_EDGE ( 'NONE', *, *, #339, .F. ) ;
#54 = CALENDAR_DATE ( 2024, 28, 2 ) ;
#55 = DIRECTION ( 'NONE',  ( 1.000000000000000000, -6.982962677686273021E-15, 0.000000000000000000 ) ) ;
#56 = DIRECTION ( 'NONE',  ( -1.000000000000000000, 6.982962677686265922E-15, -4.876176775795935793E-29 ) ) ;
#57 = ADVANCED_FACE ( 'NONE', ( #246 ), #190, .T. ) ;
#58 = DATE_AND_TIME ( #298, #156 ) ;
#59 = DIRECTION ( 'NONE',  ( -2.445468806185136597E-29, 3.491481338843145583E-15, 1.000000000000000000 ) ) ;
#60 = DIRECTION ( 'NONE',  ( -2.445468806185136597E-29, 3.491481338843145583E-15, 1.000000000000000000 ) ) ;
#61 = CARTESIAN_POINT ( 'NONE',  ( 7.314641746180361511E-29, -1.044336983261373122E-14, -2.991099999999999870 ) ) ;
#62 = AXIS2_PLACEMENT_3D ( 'NONE', #350, #151, #95 ) ;
#63 = PERSON_AND_ORGANIZATION ( #77, #75 ) ;
#64 = ADVANCED_FACE ( 'NONE', ( #107 ), #210, .T. ) ;
#65 = DIRECTION ( 'NONE',  ( -2.445468806185136877E-29, 3.491481338843145188E-15, 1.000000000000000000 ) ) ;
#66 = EDGE_CURVE ( 'NONE', #208, #287, #284, .T. ) ;
#67 = ORIENTED_EDGE ( 'NONE', *, *, #315, .T. ) ;
#68 = AXIS2_PLACEMENT_3D ( 'NONE', #143, #59, #242 ) ;
#69 = CC_DESIGN_APPROVAL ( #47, ( #234 ) ) ;
#70 =( LENGTH_UNIT ( ) NAMED_UNIT ( * ) SI_UNIT ( $, .METRE. ) );
#71 = ORIENTED_EDGE ( 'NONE', *, *, #288, .F. ) ;
#72 = PERSON_AND_ORGANIZATION ( #77, #75 ) ;
#73 = ORIENTED_EDGE ( 'NONE', *, *, #138, .F. ) ;
#74 = CIRCLE ( 'NONE', #231, 0.1180999999999999966 ) ;
#75 = ORGANIZATION ( 'UNSPECIFIED', 'UNSPECIFIED', '' ) ;
#76 = CARTESIAN_POINT ( 'NONE',  ( 7.314641746180361511E-29, -1.044336983261373122E-14, -2.991099999999999870 ) ) ;
#77 = PERSON ( 'UNSPECIFIED', 'UNSPECIFIED', 'UNSPECIFIED', ('UNSPECIFIED'), ('UNSPECIFIED'), ('UNSPECIFIED') ) ;
#78 = DATE_AND_TIME ( #355, #300 ) ;
#79 = EDGE_LOOP ( 'NONE', ( #295, #191, #204, #349 ) ) ;
#80 = CARTESIAN_POINT ( 'NONE',  ( 7.317087214986545993E-29, -1.044686131395257423E-14, -2.992099999999999316 ) ) ;
#81 = ADVANCED_FACE ( 'NONE', ( #304 ), #85, .T. ) ;
#82 = APPROVAL_DATE_TIME ( #330, #47 ) ;
#83 = VERTEX_POINT ( 'NONE', #162 ) ;
#84 = CARTESIAN_POINT ( 'NONE',  ( 0.1180999999999999966, -8.246878922347480654E-16, 5.758764772215000440E-30 ) ) ;
#85 = PLANE ( 'NONE',  #140 ) ;
#86 = APPROVAL_DATE_TIME ( #78, #172 ) ;
#87 = ORIENTED_EDGE ( 'NONE', *, *, #266, .T. ) ;
#88 = ORIENTED_EDGE ( 'NONE', *, *, #255, .F. ) ;
#89 =( NAMED_UNIT ( * ) PLANE_ANGLE_UNIT ( ) SI_UNIT ( $, .RADIAN. ) );
#90 = CARTESIAN_POINT ( 'NONE',  ( 7.317087214986543751E-29, -1.044686131395257108E-14, -2.992099999999998872 ) ) ;
#91 = CARTESIAN_POINT ( 'NONE',  ( 0.1180999999999998162, -8.246878922347467835E-16, 5.758764772214990631E-30 ) ) ;
#92 = CARTESIAN_POINT ( 'NONE',  ( 0.000000000000000000, 0.000000000000000000, 0.000000000000000000 ) ) ;
#93 = ORIENTED_EDGE ( 'NONE', *, *, #170, .T. ) ;
#94 = VECTOR ( 'NONE', #65, 39.37007874015748143 ) ;
#95 = DIRECTION ( 'NONE',  ( 1.000000000000000000, -6.982962677686267499E-15, 4.877161320636784168E-29 ) ) ;
#96 = ORIENTED_EDGE ( 'NONE', *, *, #266, .F. ) ;
#97 = DIRECTION ( 'NONE',  ( 2.445468806185136597E-29, -3.491481338843145583E-15, -1.000000000000000000 ) ) ;
#98 = EDGE_CURVE ( 'NONE', #264, #287, #26, .T. ) ;
#99 = FACE_OUTER_BOUND ( 'NONE', #182, .T. ) ;
#100 = CARTESIAN_POINT ( 'NONE',  ( 0.000000000000000000, 0.000000000000000000, 0.000000000000000000 ) ) ;
#101 = CARTESIAN_POINT ( 'NONE',  ( 8.568678149992099474E-29, -1.223380146317249786E-14, -3.503899999999999793 ) ) ;
#102 = EDGE_CURVE ( 'NONE', #189, #198, #265, .T. ) ;
#103 = APPLICATION_PROTOCOL_DEFINITION ( 'international standard', 'config_control_design', 1994, #115 ) ;
#104 = ORIENTED_EDGE ( 'NONE', *, *, #102, .T. ) ;
#105 = CONICAL_SURFACE ( 'NONE', #307, 0.1170999999999999958, 0.7853981633978239785 ) ;
#106 = CC_DESIGN_DATE_AND_TIME_ASSIGNMENT ( #273, #239, ( #243 ) ) ;
#107 = FACE_OUTER_BOUND ( 'NONE', #79, .T. ) ;
#108 = PERSON_AND_ORGANIZATION ( #77, #75 ) ;
#109 = LINE ( 'NONE', #112, #293 ) ;
#110 = APPROVAL_STATUS ( 'not_yet_approved' ) ;
#111 = AXIS2_PLACEMENT_3D ( 'NONE', #5, #221, #342 ) ;
#112 = CARTESIAN_POINT ( 'NONE',  ( 0.1180999999999996219, -8.800544403136785695E-16, -0.02000000000000007674 ) ) ;
#113 = LOCAL_TIME ( 5, 3, 27.00000000000000000, #230 ) ;
#114 = ADVANCED_FACE ( 'NONE', ( #9 ), #31, .F. ) ;
#115 = APPLICATION_CONTEXT ( 'configuration controlled 3d designs of mechanical parts and assemblies' ) ;
#116 = CARTESIAN_POINT ( 'NONE',  ( -0.1180999999999998162, 8.391509709326770138E-16, -5.809262341591034675E-30 ) ) ;
#117 = FACE_OUTER_BOUND ( 'NONE', #353, .T. ) ;
#118 = CYLINDRICAL_SURFACE ( 'NONE', #35, 0.1180999999999998162 ) ;
#119 = AXIS2_PLACEMENT_3D ( 'NONE', #6, #220, #340 ) ;
#120 = CARTESIAN_POINT ( 'NONE',  ( -0.1180999999999999966, -1.050118041762985627E-14, -3.503899999999999793 ) ) ;
#121 = DIRECTION ( 'NONE',  ( -2.438088387897960049E-29, 3.491481338843145188E-15, 1.000000000000000000 ) ) ;
#122 = ORIENTED_EDGE ( 'NONE', *, *, #305, .T. ) ;
#123 = FACE_OUTER_BOUND ( 'NONE', #171, .T. ) ;
#124 = ORIENTED_EDGE ( 'NONE', *, *, #282, .T. ) ;
#125 = AXIS2_PLACEMENT_3D ( 'NONE', #184, #60, #297 ) ;
#126 = CC_DESIGN_APPROVAL ( #172, ( #243 ) ) ;
#127 = EDGE_LOOP ( 'NONE', ( #310, #104, #351, #216 ) ) ;
#128 = DIRECTION ( 'NONE',  ( 1.000000000000000000, -6.982962677686273021E-15, 0.000000000000000000 ) ) ;
#129 = DIRECTION ( 'NONE',  ( 1.000000000000000000, 0.000000000000000000, 0.000000000000000000 ) ) ;
#130 = COORDINATED_UNIVERSAL_TIME_OFFSET ( 5, 0, .BEHIND. ) ;
#131 = FACE_OUTER_BOUND ( 'NONE', #134, .T. ) ;
#132 = DIRECTION ( 'NONE',  ( -2.445468806185136597E-29, 3.491481338843145583E-15, 1.000000000000000000 ) ) ;
#133 = DATE_TIME_ROLE ( 'creation_date' ) ;
#134 = EDGE_LOOP ( 'NONE', ( #361, #275, #343, #302 ) ) ;
#135 = PRODUCT ( '46140', '46140', '', ( #203 ) ) ;
#136 = PERSON_AND_ORGANIZATION_ROLE ( 'creator' ) ;
#137 = CARTESIAN_POINT ( 'NONE',  ( -0.09809999999999965969, 7.199434520694512445E-16, -3.414809992080820212E-17 ) ) ;
#138 = EDGE_CURVE ( 'NONE', #83, #235, #228, .T. ) ;
#139 = DIRECTION ( 'NONE',  ( -1.000000000000000000, 6.982962677686265922E-15, 0.000000000000000000 ) ) ;
#140 = AXIS2_PLACEMENT_3D ( 'NONE', #254, #185, #366 ) ;
#141 = DIRECTION ( 'NONE',  ( -2.445468806185136877E-29, 3.491481338843145188E-15, 1.000000000000000000 ) ) ;
#142 = CC_DESIGN_PERSON_AND_ORGANIZATION_ASSIGNMENT ( #324, #294, ( #243 ) ) ;
#143 = CARTESIAN_POINT ( 'NONE',  ( 0.000000000000000000, 0.000000000000000000, 0.000000000000000000 ) ) ;
#144 = DIRECTION ( 'NONE',  ( -2.445468806185136597E-29, 3.491481338843145583E-15, 1.000000000000000000 ) ) ;
#145 = LENGTH_MEASURE_WITH_UNIT ( LENGTH_MEASURE( 0.02539999999999999897 ), #70 );
#146 = FACE_OUTER_BOUND ( 'NONE', #212, .T. ) ;
#147 = CARTESIAN_POINT ( 'NONE',  ( 7.317087214986543751E-29, -1.044686131395257108E-14, -2.992099999999998872 ) ) ;
#148 = ORIENTED_EDGE ( 'NONE', *, *, #225, .T. ) ;
#149 = PERSON_AND_ORGANIZATION ( #77, #75 ) ;
#150 = ORIENTED_EDGE ( 'NONE', *, *, #196, .F. ) ;
#151 = DIRECTION ( 'NONE',  ( -2.445468806185136597E-29, 3.491481338843145583E-15, 1.000000000000000000 ) ) ;
#152 = APPLICATION_CONTEXT ( 'configuration controlled 3d designs of mechanical parts and assemblies' ) ;
#153 = CC_DESIGN_PERSON_AND_ORGANIZATION_ASSIGNMENT ( #63, #291, ( #259 ) ) ;
#154 = ORIENTED_EDGE ( 'NONE', *, *, #305, .F. ) ;
#155 = ADVANCED_FACE ( 'NONE', ( #123 ), #41, .T. ) ;
#156 = LOCAL_TIME ( 5, 3, 27.00000000000000000, #247 ) ;
#157 = CARTESIAN_POINT ( 'NONE',  ( 0.1180999999999999966, -1.126805772484847949E-14, -2.991099999999999870 ) ) ;
#158 = CARTESIAN_POINT ( 'NONE',  ( 0.1180999999999999966, -1.127154920618732249E-14, -2.992099999999999316 ) ) ;
#159 = CIRCLE ( 'NONE', #258, 0.1180999999999999966 ) ;
#160 = ORIENTED_EDGE ( 'NONE', *, *, #163, .T. ) ;
#161 = AXIS2_PLACEMENT_3D ( 'NONE', #90, #318, #244 ) ;
#162 = CARTESIAN_POINT ( 'NONE',  ( 0.1170999999999999958, -1.126456624350963332E-14, -2.992099999999998872 ) ) ;
#163 = EDGE_CURVE ( 'NONE', #303, #4, #50, .T. ) ;
#164 = AXIS2_PLACEMENT_3D ( 'NONE', #217, #363, #338 ) ;
#165 = DIRECTION ( 'NONE',  ( 0.7071067811868130271, -2.468850131085038979E-15, 0.7071067811862817853 ) ) ;
#166 = ADVANCED_FACE ( 'NONE', ( #344 ), #311, .T. ) ;
#167 =( CONVERSION_BASED_UNIT ( 'INCH', #145 ) LENGTH_UNIT ( ) NAMED_UNIT ( #256 ) );
#168 = APPROVAL_PERSON_ORGANIZATION ( #108, #172, #271 ) ;
#169 = EDGE_LOOP ( 'NONE', ( #325, #67, #227, #232 ) ) ;
#170 = EDGE_CURVE ( 'NONE', #4, #303, #222, .T. ) ;
#171 = EDGE_LOOP ( 'NONE', ( #224, #148, #290, #71 ) ) ;
#172 = APPROVAL ( #18, 'UNSPECIFIED' ) ;
#173 = DIRECTION ( 'NONE',  ( -2.445468806185136597E-29, 3.491481338843145583E-15, 1.000000000000000000 ) ) ;
#174 = DIRECTION ( 'NONE',  ( 0.000000000000000000, 0.000000000000000000, 1.000000000000000000 ) ) ;
#175 = ORIENTED_EDGE ( 'NONE', *, *, #309, .F. ) ;
#176 = VECTOR ( 'NONE', #165, 39.37007874015748854 ) ;
#177 = DIRECTION ( 'NONE',  ( -2.445468806185136597E-29, 3.491481338843145583E-15, 1.000000000000000000 ) ) ;
#178 =( GEOMETRIC_REPRESENTATION_CONTEXT ( 3 ) GLOBAL_UNCERTAINTY_ASSIGNED_CONTEXT ( ( #301 ) ) GLOBAL_UNIT_ASSIGNED_CONTEXT ( ( #167, #89, #252 ) ) REPRESENTATION_CONTEXT ( 'NONE', 'WORKASPACE' ) );
#179 = DIRECTION ( 'NONE',  ( -2.445468806185136597E-29, 3.491481338843145583E-15, 1.000000000000000000 ) ) ;
#180 = DIRECTION ( 'NONE',  ( -0.7071067811868130271, 7.493145998871311837E-15, 0.7071067811862817853 ) ) ;
#181 = CIRCLE ( 'NONE', #24, 0.1180999999999999966 ) ;
#182 = EDGE_LOOP ( 'NONE', ( #331, #42, #96, #73 ) ) ;
#183 = CARTESIAN_POINT ( 'NONE',  ( 7.317087214986543751E-29, -1.044686131395257108E-14, -2.992099999999998872 ) ) ;
#184 = CARTESIAN_POINT ( 'NONE',  ( 4.890937612370292426E-31, -6.982962677686317493E-17, -0.02000000000000007674 ) ) ;
#185 = DIRECTION ( 'NONE',  ( 2.438088387897960049E-29, -3.491481338843145188E-15, -1.000000000000000000 ) ) ;
#186 = ORIENTED_EDGE ( 'NONE', *, *, #66, .F. ) ;
#187 = PRODUCT_RELATED_PRODUCT_CATEGORY ( 'detail', '', ( #135 ) ) ;
#188 = PERSON_AND_ORGANIZATION_ROLE ( 'creator' ) ;
#189 = VERTEX_POINT ( 'NONE', #120 ) ;
#190 = CYLINDRICAL_SURFACE ( 'NONE', #68, 0.1180999999999999966 ) ;
#191 = ORIENTED_EDGE ( 'NONE', *, *, #339, .T. ) ;
#192 = VECTOR ( 'NONE', #218, 39.37007874015748143 ) ;
#193 = PLANE ( 'NONE',  #30 ) ;
#194 = DIRECTION ( 'NONE',  ( 1.000000000000000000, -6.982962677686265922E-15, 4.876176775795935793E-29 ) ) ;
#195 = MANIFOLD_SOLID_BREP ( 'Body-Move/Copy2[1]', #326 ) ;
#196 = EDGE_CURVE ( 'NONE', #235, #208, #223, .T. ) ;
#197 = ORIENTED_EDGE ( 'NONE', *, *, #209, .F. ) ;
#198 = VERTEX_POINT ( 'NONE', #283 ) ;
#199 = EDGE_LOOP ( 'NONE', ( #87, #7, #186, #150 ) ) ;
#200 = CARTESIAN_POINT ( 'NONE',  ( 7.317087214986545993E-29, -1.044686131395257423E-14, -2.992099999999999316 ) ) ;
#201 = CIRCLE ( 'NONE', #270, 0.1180999999999996219 ) ;
#202 = DIRECTION ( 'NONE',  ( 1.000000000000000000, -6.982962677686264344E-15, 0.000000000000000000 ) ) ;
#203 = MECHANICAL_CONTEXT ( 'NONE', #115, 'mechanical' ) ;
#204 = ORIENTED_EDGE ( 'NONE', *, *, #196, .T. ) ;
#205 = CIRCLE ( 'NONE', #261, 0.1180999999999999966 ) ;
#206 = CC_DESIGN_SECURITY_CLASSIFICATION ( #243, ( #259 ) ) ;
#207 = CC_DESIGN_DATE_AND_TIME_ASSIGNMENT ( #58, #133, ( #234 ) ) ;
#208 = VERTEX_POINT ( 'NONE', #226 ) ;
#209 = EDGE_CURVE ( 'NONE', #11, #264, #15, .T. ) ;
#210 = CYLINDRICAL_SURFACE ( 'NONE', #34, 0.1180999999999998162 ) ;
#211 = APPROVAL_ROLE ( '' ) ;
#212 = EDGE_LOOP ( 'NONE', ( #175, #154 ) ) ;
#213 = AXIS2_PLACEMENT_3D ( 'NONE', #336, #249, #56 ) ;
#214 = LOCAL_TIME ( 5, 3, 27.00000000000000000, #334 ) ;
#215 = CALENDAR_DATE ( 2024, 28, 2 ) ;
#216 = ORIENTED_EDGE ( 'NONE', *, *, #219, .F. ) ;
#217 = CARTESIAN_POINT ( 'NONE',  ( 8.568678149992099474E-29, -1.223380146317249786E-14, -3.503899999999999793 ) ) ;
#218 = DIRECTION ( 'NONE',  ( -2.445468806185136877E-29, 3.491481338843145188E-15, 1.000000000000000000 ) ) ;
#219 = EDGE_CURVE ( 'NONE', #314, #286, #205, .T. ) ;
#220 = DIRECTION ( 'NONE',  ( -2.445468806185136597E-29, 3.491481338843145583E-15, 1.000000000000000000 ) ) ;
#221 = DIRECTION ( 'NONE',  ( 2.438088387897960049E-29, -3.491481338843145188E-15, -1.000000000000000000 ) ) ;
#222 = CIRCLE ( 'NONE', #250, 0.09809999999999965969 ) ;
#223 = LINE ( 'NONE', #91, #94 ) ;
#224 = ORIENTED_EDGE ( 'NONE', *, *, #255, .T. ) ;
#225 = EDGE_CURVE ( 'NONE', #189, #314, #233, .T. ) ;
#226 = CARTESIAN_POINT ( 'NONE',  ( 0.1180999999999996219, -8.800544403136785695E-16, -0.02000000000000007674 ) ) ;
#227 = ORIENTED_EDGE ( 'NONE', *, *, #66, .T. ) ;
#228 = LINE ( 'NONE', #345, #176 ) ;
#229 = CC_DESIGN_PERSON_AND_ORGANIZATION_ASSIGNMENT ( #274, #136, ( #234 ) ) ;
#230 = COORDINATED_UNIVERSAL_TIME_OFFSET ( 5, 0, .BEHIND. ) ;
#231 = AXIS2_PLACEMENT_3D ( 'NONE', #101, #262, #267 ) ;
#232 = ORIENTED_EDGE ( 'NONE', *, *, #8, .F. ) ;
#233 = LINE ( 'NONE', #236, #28 ) ;
#234 = PRODUCT_DEFINITION ( 'UNKNOWN', '', #259, #329 ) ;
#235 = VERTEX_POINT ( 'NONE', #157 ) ;
#236 = CARTESIAN_POINT ( 'NONE',  ( -0.1180999999999999966, 8.391509709326782957E-16, -5.809262341591043784E-30 ) ) ;
#237 = SECURITY_CLASSIFICATION_LEVEL ( 'unclassified' ) ;
#238 = CARTESIAN_POINT ( 'NONE',  ( 7.317087214986543751E-29, -1.044686131395257108E-14, -2.992099999999998872 ) ) ;
#239 = DATE_TIME_ROLE ( 'classification_date' ) ;
#240 = FACE_OUTER_BOUND ( 'NONE', #199, .T. ) ;
#241 = CARTESIAN_POINT ( 'NONE',  ( 4.890937612370292426E-31, -6.982962677686317493E-17, -0.02000000000000007674 ) ) ;
#242 = DIRECTION ( 'NONE',  ( 1.000000000000000000, -6.982962677686266711E-15, 4.876176775795936353E-29 ) ) ;
#243 = SECURITY_CLASSIFICATION ( '', '', #237 ) ;
#244 = DIRECTION ( 'NONE',  ( 1.000000000000000000, -6.982962677686264344E-15, 0.000000000000000000 ) ) ;
#245 = CC_DESIGN_PERSON_AND_ORGANIZATION_ASSIGNMENT ( #3, #188, ( #259 ) ) ;
#246 = FACE_OUTER_BOUND ( 'NONE', #127, .T. ) ;
#247 = COORDINATED_UNIVERSAL_TIME_OFFSET ( 5, 0, .BEHIND. ) ;
#248 = DIRECTION ( 'NONE',  ( -0.7071067811865460184, 2.468850131082241283E-15, -0.7071067811865490160 ) ) ;
#249 = DIRECTION ( 'NONE',  ( 2.438088387897960049E-29, -3.491481338843145188E-15, -1.000000000000000000 ) ) ;
#250 = AXIS2_PLACEMENT_3D ( 'NONE', #317, #173, #1 ) ;
#251 = CIRCLE ( 'NONE', #14, 0.1170999999999999958 ) ;
#252 =( NAMED_UNIT ( * ) SI_UNIT ( $, .STERADIAN. ) SOLID_ANGLE_UNIT ( ) );
#253 = CARTESIAN_POINT ( 'NONE',  ( 0.09809999999999965969, -7.765346469475317862E-16, -3.414809992079818112E-17 ) ) ;
#254 = CARTESIAN_POINT ( 'NONE',  ( 8.246878922348336568E-16, 0.1180999999999877564, -3.503900000000000237 ) ) ;
#255 = EDGE_CURVE ( 'NONE', #198, #189, #74, .T. ) ;
#256 = DIMENSIONAL_EXPONENTS ( 1.000000000000000000, 0.000000000000000000, 0.000000000000000000, 0.000000000000000000, 0.000000000000000000, 0.000000000000000000, 0.000000000000000000 ) ;
#257 = DIRECTION ( 'NONE',  ( 1.000000000000000000, -6.982962677686266711E-15, 4.876176775795936353E-29 ) ) ;
#258 = AXIS2_PLACEMENT_3D ( 'NONE', #80, #296, #55 ) ;
#259 = PRODUCT_DEFINITION_FORMATION_WITH_SPECIFIED_SOURCE ( 'ANY', '', #135, .NOT_KNOWN. ) ;
#260 = APPROVAL_STATUS ( 'not_yet_approved' ) ;
#261 = AXIS2_PLACEMENT_3D ( 'NONE', #200, #322, #128 ) ;
#262 = DIRECTION ( 'NONE',  ( -2.445468806185136597E-29, 3.491481338843145583E-15, 1.000000000000000000 ) ) ;
#263 = ADVANCED_FACE ( 'NONE', ( #99 ), #105, .T. ) ;
#264 = VERTEX_POINT ( 'NONE', #323 ) ;
#265 = CIRCLE ( 'NONE', #164, 0.1180999999999999966 ) ;
#266 = EDGE_CURVE ( 'NONE', #235, #264, #357, .T. ) ;
#267 = DIRECTION ( 'NONE',  ( 1.000000000000000000, -6.982962677686273021E-15, 0.000000000000000000 ) ) ;
#268 = CARTESIAN_POINT ( 'NONE',  ( -0.1180999999999996219, 7.548582654578822034E-16, -0.02000000000000007674 ) ) ;
#269 = CARTESIAN_POINT ( 'NONE',  ( -0.1180999999999996219, 7.548582654578822034E-16, -0.02000000000000007674 ) ) ;
#270 = AXIS2_PLACEMENT_3D ( 'NONE', #320, #177, #46 ) ;
#271 = APPROVAL_ROLE ( '' ) ;
#272 = PLANE ( 'NONE',  #213 ) ;
#273 = DATE_AND_TIME ( #49, #365 ) ;
#274 = PERSON_AND_ORGANIZATION ( #77, #75 ) ;
#275 = ORIENTED_EDGE ( 'NONE', *, *, #170, .F. ) ;
#276 = LINE ( 'NONE', #268, #277 ) ;
#277 = VECTOR ( 'NONE', #248, 39.37007874015748143 ) ;
#278 = CC_DESIGN_APPROVAL ( #22, ( #259 ) ) ;
#279 = EDGE_CURVE ( 'NONE', #287, #208, #201, .T. ) ;
#280 = DIRECTION ( 'NONE',  ( 1.000000000000000000, -6.982962677686273021E-15, 0.000000000000000000 ) ) ;
#281 = CARTESIAN_POINT ( 'NONE',  ( 4.890937612370292426E-31, -6.982962677686317493E-17, -0.02000000000000007674 ) ) ;
#282 = EDGE_CURVE ( 'NONE', #286, #314, #159, .T. ) ;
#283 = CARTESIAN_POINT ( 'NONE',  ( 0.1180999999999999966, -1.305848935540724612E-14, -3.503899999999999793 ) ) ;
#284 = CIRCLE ( 'NONE', #125, 0.1180999999999996219 ) ;
#285 = ORIENTED_EDGE ( 'NONE', *, *, #102, .F. ) ;
#286 = VERTEX_POINT ( 'NONE', #158 ) ;
#287 = VERTEX_POINT ( 'NONE', #269 ) ;
#288 = EDGE_CURVE ( 'NONE', #198, #286, #29, .T. ) ;
#289 = CARTESIAN_POINT ( 'NONE',  ( -0.1170999999999999958, -9.614815770377493886E-15, -2.992099999999998872 ) ) ;
#290 = ORIENTED_EDGE ( 'NONE', *, *, #282, .F. ) ;
#291 = PERSON_AND_ORGANIZATION_ROLE ( 'design_supplier' ) ;
#292 = CONICAL_SURFACE ( 'NONE', #16, 0.1180999999999996219, 0.7853981633974461696 ) ;
#293 = VECTOR ( 'NONE', #27, 39.37007874015748143 ) ;
#294 = PERSON_AND_ORGANIZATION_ROLE ( 'classification_officer' ) ;
#295 = ORIENTED_EDGE ( 'NONE', *, *, #98, .F. ) ;
#296 = DIRECTION ( 'NONE',  ( -2.445468806185136597E-29, 3.491481338843145583E-15, 1.000000000000000000 ) ) ;
#297 = DIRECTION ( 'NONE',  ( 1.000000000000000000, -6.982962677686265922E-15, 0.000000000000000000 ) ) ;
#298 = CALENDAR_DATE ( 2024, 28, 2 ) ;
#299 = APPROVAL_PERSON_ORGANIZATION ( #149, #47, #10 ) ;
#300 = LOCAL_TIME ( 5, 3, 27.00000000000000000, #130 ) ;
#301 = UNCERTAINTY_MEASURE_WITH_UNIT (LENGTH_MEASURE( 1.000000000000000082E-05 ), #167, 'distance_accuracy_value', 'NONE');
#302 = ORIENTED_EDGE ( 'NONE', *, *, #279, .T. ) ;
#303 = VERTEX_POINT ( 'NONE', #253 ) ;
#304 = FACE_OUTER_BOUND ( 'NONE', #319, .T. ) ;
#305 = EDGE_CURVE ( 'NONE', #11, #83, #251, .T. ) ;
#306 = CARTESIAN_POINT ( 'NONE',  ( 0.000000000000000000, 0.000000000000000000, 0.000000000000000000 ) ) ;
#307 = AXIS2_PLACEMENT_3D ( 'NONE', #238, #20, #202 ) ;
#308 = CARTESIAN_POINT ( 'NONE',  ( 0.000000000000000000, 0.000000000000000000, 0.000000000000000000 ) ) ;
#309 = EDGE_CURVE ( 'NONE', #83, #11, #335, .T. ) ;
#310 = ORIENTED_EDGE ( 'NONE', *, *, #225, .F. ) ;
#311 = CONICAL_SURFACE ( 'NONE', #23, 0.1180999999999996219, 0.7853981633974461696 ) ;
#312 = VECTOR ( 'NONE', #141, 39.37007874015748143 ) ;
#313 = DIRECTION ( 'NONE',  ( -2.445468806185136597E-29, 3.491481338843145583E-15, 1.000000000000000000 ) ) ;
#314 = VERTEX_POINT ( 'NONE', #362 ) ;
#315 = EDGE_CURVE ( 'NONE', #303, #208, #109, .T. ) ;
#316 = EDGE_LOOP ( 'NONE', ( #93, #160 ) ) ;
#317 = CARTESIAN_POINT ( 'NONE',  ( 8.350811314681758556E-46, -1.192274536304357760E-31, -3.414809992080329023E-17 ) ) ;
#318 = DIRECTION ( 'NONE',  ( -2.445468806185136597E-29, 3.491481338843145583E-15, 1.000000000000000000 ) ) ;
#319 = EDGE_LOOP ( 'NONE', ( #88, #285 ) ) ;
#320 = CARTESIAN_POINT ( 'NONE',  ( 4.890937612370292426E-31, -6.982962677686317493E-17, -0.02000000000000007674 ) ) ;
#321 = AXIS2_PLACEMENT_3D ( 'NONE', #76, #179, #48 ) ;
#322 = DIRECTION ( 'NONE',  ( -2.445468806185136597E-29, 3.491481338843145583E-15, 1.000000000000000000 ) ) ;
#323 = CARTESIAN_POINT ( 'NONE',  ( -0.1180999999999999966, -4.417448758762610386E-15, -2.991099999999999870 ) ) ;
#324 = PERSON_AND_ORGANIZATION ( #77, #75 ) ;
#325 = ORIENTED_EDGE ( 'NONE', *, *, #163, .F. ) ;
#326 = CLOSED_SHELL ( 'NONE', ( #155, #81, #114, #57 ) ) ;
#327 = ADVANCED_FACE ( 'NONE', ( #240 ), #118, .T. ) ;
#328 = DIRECTION ( 'NONE',  ( -2.445468806185136597E-29, 3.491481338843145583E-15, 1.000000000000000000 ) ) ;
#329 = DESIGN_CONTEXT ( 'detailed design', #152, 'design' ) ;
#330 = DATE_AND_TIME ( #54, #113 ) ;
#331 = ORIENTED_EDGE ( 'NONE', *, *, #309, .T. ) ;
#332 = DIRECTION ( 'NONE',  ( 1.000000000000000000, -6.982962677686266711E-15, 4.876176775795935232E-29 ) ) ;
#333 = MANIFOLD_SOLID_BREP ( 'Body-Move/Copy2[2]', #354 ) ;
#334 = COORDINATED_UNIVERSAL_TIME_OFFSET ( 5, 0, .BEHIND. ) ;
#335 = CIRCLE ( 'NONE', #161, 0.1170999999999999958 ) ;
#336 = CARTESIAN_POINT ( 'NONE',  ( 6.850286386810203843E-16, 0.09809999999999965969, -3.595883693009130329E-16 ) ) ;
#337 = DATE_AND_TIME ( #215, #214 ) ;
#338 = DIRECTION ( 'NONE',  ( 1.000000000000000000, -6.982962677686273021E-15, 0.000000000000000000 ) ) ;
#339 = EDGE_CURVE ( 'NONE', #264, #235, #181, .T. ) ;
#340 = DIRECTION ( 'NONE',  ( 1.000000000000000000, -6.982962677686264344E-15, 0.000000000000000000 ) ) ;
#341 = ADVANCED_BREP_SHAPE_REPRESENTATION ( '46140', ( #195, #333, #2 ), #178 ) ;
#342 = DIRECTION ( 'NONE',  ( -1.000000000000000000, 6.982962677686265922E-15, -4.876176775795935793E-29 ) ) ;
#343 = ORIENTED_EDGE ( 'NONE', *, *, #8, .T. ) ;
#344 = FACE_OUTER_BOUND ( 'NONE', #169, .T. ) ;
#345 = CARTESIAN_POINT ( 'NONE',  ( 0.1170999999999999958, -1.126456624350963332E-14, -2.992099999999998872 ) ) ;
#346 = VECTOR ( 'NONE', #180, 39.37007874015748854 ) ;
#347 = ADVANCED_FACE ( 'NONE', ( #117 ), #348, .T. ) ;
#348 = CONICAL_SURFACE ( 'NONE', #119, 0.1170999999999999958, 0.7853981633978239785 ) ;
#349 = ORIENTED_EDGE ( 'NONE', *, *, #279, .F. ) ;
#350 = CARTESIAN_POINT ( 'NONE',  ( 8.350811314681758556E-46, -1.192274536304357760E-31, -3.414809992080329023E-17 ) ) ;
#351 = ORIENTED_EDGE ( 'NONE', *, *, #288, .T. ) ;
#352 = ADVANCED_FACE ( 'NONE', ( #146 ), #193, .F. ) ;
#353 = EDGE_LOOP ( 'NONE', ( #197, #122, #38, #53 ) ) ;
#354 = CLOSED_SHELL ( 'NONE', ( #263, #327, #166, #37, #64, #347, #352, #51 ) ) ;
#355 = CALENDAR_DATE ( 2024, 28, 2 ) ;
#356 = DIRECTION ( 'NONE',  ( 2.445468806185136597E-29, -3.491481338843145583E-15, -1.000000000000000000 ) ) ;
#357 = CIRCLE ( 'NONE', #321, 0.1180999999999999966 ) ;
#358 = DIRECTION ( 'NONE',  ( 1.000000000000000000, -6.982962677686264344E-15, 0.000000000000000000 ) ) ;
#359 = FACE_OUTER_BOUND ( 'NONE', #316, .T. ) ;
#360 = COORDINATED_UNIVERSAL_TIME_OFFSET ( 5, 0, .BEHIND. ) ;
#361 = ORIENTED_EDGE ( 'NONE', *, *, #315, .F. ) ;
#362 = CARTESIAN_POINT ( 'NONE',  ( -0.1180999999999999966, -1.050118041762985627E-14, -2.992099999999999316 ) ) ;
#363 = DIRECTION ( 'NONE',  ( -2.445468806185136597E-29, 3.491481338843145583E-15, 1.000000000000000000 ) ) ;
#364 = PERSON_AND_ORGANIZATION ( #77, #75 ) ;
#365 = LOCAL_TIME ( 5, 3, 27.00000000000000000, #360 ) ;
#366 = DIRECTION ( 'NONE',  ( -1.000000000000000000, 6.982962677686265922E-15, -4.876176775795935793E-29 ) ) ;
ENDSEC;
END-ISO-10303-21;
