ISO-10303-21;
HEADER;
FILE_DESCRIPTION (( 'STEP AP203' ),
    '1' );
FILE_NAME ('48625.STEP',
    '2024-04-10T11:55:47',
    ( '' ),
    ( '' ),
    'SwSTEP 2.0',
    'SolidWorks 2023',
    '' );
FILE_SCHEMA (( 'CONFIG_CONTROL_DESIGN' ));
ENDSEC;

DATA;
#1 = DIRECTION ( 'NONE',  ( 0.000000000000000000, 0.000000000000000000, 1.000000000000000000 ) ) ;
#2 = VERTEX_POINT ( 'NONE', #92 ) ;
#3 = EDGE_CURVE ( 'NONE', #2, #49, #316, .T. ) ;
#4 = AXIS2_PLACEMENT_3D ( 'NONE', #122, #20, #91 ) ;
#5 = EDGE_CURVE ( 'NONE', #49, #2, #40, .T. ) ;
#6 = CARTESIAN_POINT ( 'NONE',  ( 0.000000000000000000, 0.000000000000000000, 0.000000000000000000 ) ) ;
#7 = ADVANCED_FACE ( 'NONE', ( #185 ), #135, .T. ) ;
#8 = CLOSED_SHELL ( 'NONE', ( #37, #53, #230, #77, #44, #263, #94, #378 ) ) ;
#9 = CARTESIAN_POINT ( 'NONE',  ( 8.430139040565293586E-29, -1.298293798674644404E-14, -3.582650000000000112 ) ) ;
#10 = DIRECTION ( 'NONE',  ( 6.982962677686265922E-15, 1.000000000000000000, -3.490347060884537647E-15 ) ) ;
#11 = CARTESIAN_POINT ( 'NONE',  ( 2.474412824838128694E-15, 0.3543499999999999428, -0.02000000000000131881 ) ) ;
#12 = DIRECTION ( 'NONE',  ( 2.446260868250244519E-29, -3.490347060884537647E-15, -1.000000000000000000 ) ) ;
#13 = DIRECTION ( 'NONE',  ( 1.000000000000000000, -6.982962677686266711E-15, 0.000000000000000000 ) ) ;
#14 = CALENDAR_DATE ( 2024, 10, 4 ) ;
#15 = CIRCLE ( 'NONE', #383, 0.3543499999999999428 ) ;
#16 = DIRECTION ( 'NONE',  ( -6.982962677686265133E-15, -1.000000000000000000, 3.865640291020607122E-15 ) ) ;
#17 = CARTESIAN_POINT ( 'NONE',  ( 5.971078153312023136E-29, -8.519588140913066659E-15, -2.440900000000000070 ) ) ;
#18 = EDGE_LOOP ( 'NONE', ( #64, #251, #363, #368 ) ) ;
#19 = CALENDAR_DATE ( 2024, 10, 4 ) ;
#20 = DIRECTION ( 'NONE',  ( -2.446260868250245080E-29, 3.490347060884537253E-15, 1.000000000000000000 ) ) ;
#21 = CARTESIAN_POINT ( 'NONE',  ( 8.430139040565293586E-29, -1.298293798674644404E-14, -3.582650000000000112 ) ) ;
#22 = ORIENTED_EDGE ( 'NONE', *, *, #365, .T. ) ;
#23 = DATE_AND_TIME ( #308, #386 ) ;
#24 = DIRECTION ( 'NONE',  ( -6.982962677686265922E-15, -1.000000000000000000, 3.493350140056777702E-15 ) ) ;
#25 = EDGE_CURVE ( 'NONE', #189, #49, #351, .T. ) ;
#26 = ORIENTED_EDGE ( 'NONE', *, *, #101, .T. ) ;
#27 = ORIENTED_EDGE ( 'NONE', *, *, #62, .T. ) ;
#28 = ORIENTED_EDGE ( 'NONE', *, *, #237, .F. ) ;
#29 = CALENDAR_DATE ( 2024, 10, 4 ) ;
#30 = VECTOR ( 'NONE', #79, 39.37007874015748143 ) ;
#31 = CARTESIAN_POINT ( 'NONE',  ( 8.761258818479179833E-29, -1.250875561860639532E-14, -3.582650000000000112 ) ) ;
#32 = AXIS2_PLACEMENT_3D ( 'NONE', #265, #399, #81 ) ;
#33 = ADVANCED_FACE ( 'NONE', ( #321 ), #290, .T. ) ;
#34 = VECTOR ( 'NONE', #141, 39.37007874015748854 ) ;
#35 = LOCAL_TIME ( 7, 55, 47.00000000000000000, #396 ) ;
#36 = CIRCLE ( 'NONE', #123, 0.3533499999999999974 ) ;
#37 = ADVANCED_FACE ( 'NONE', ( #103 ), #224, .T. ) ;
#38 = FACE_OUTER_BOUND ( 'NONE', #392, .T. ) ;
#39 = ORIENTED_EDGE ( 'NONE', *, *, #390, .F. ) ;
#40 = CIRCLE ( 'NONE', #102, 0.3543499999999999983 ) ;
#41 = DIRECTION ( 'NONE',  ( -2.446260868250244519E-29, 3.490347060884537647E-15, 1.000000000000000000 ) ) ;
#42 = CALENDAR_DATE ( 2024, 10, 4 ) ;
#43 = FACE_OUTER_BOUND ( 'NONE', #104, .T. ) ;
#44 = ADVANCED_FACE ( 'NONE', ( #38 ), #291, .T. ) ;
#45 = CARTESIAN_POINT ( 'NONE',  ( 2.517808184165915391E-15, 0.3543500000000001648, -1.236804481024436153E-15 ) ) ;
#46 = ORIENTED_EDGE ( 'NONE', *, *, #98, .T. ) ;
#47 = CARTESIAN_POINT ( 'NONE',  ( 5.971078153312023136E-29, -8.519588140913066659E-15, -2.440900000000000070 ) ) ;
#48 = CARTESIAN_POINT ( 'NONE',  ( -2.467429862160382332E-15, -0.3533500000000085461, -2.440899999999998737 ) ) ;
#49 = VERTEX_POINT ( 'NONE', #203 ) ;
#50 = CLOSED_SHELL ( 'NONE', ( #33, #7, #115, #289, #314 ) ) ;
#51 = DIRECTION ( 'NONE',  ( -2.446260868250245080E-29, 3.490347060884537253E-15, 1.000000000000000000 ) ) ;
#52 = CARTESIAN_POINT ( 'NONE',  ( 4.892521736500509743E-31, -6.980694121769102116E-17, -0.02000000000000008021 ) ) ;
#53 = ADVANCED_FACE ( 'NONE', ( #201 ), #335, .T. ) ;
#54 = VERTEX_POINT ( 'NONE', #11 ) ;
#55 = DIRECTION ( 'NONE',  ( 1.000000000000000000, -6.982962677686265922E-15, 0.000000000000000000 ) ) ;
#56 = DIRECTION ( 'NONE',  ( -2.445468806185136597E-29, 3.491481338843145583E-15, 1.000000000000000000 ) ) ;
#57 = VERTEX_POINT ( 'NONE', #111 ) ;
#58 = FACE_OUTER_BOUND ( 'NONE', #404, .T. ) ;
#59 = EDGE_LOOP ( 'NONE', ( #204, #46, #80, #330 ) ) ;
#60 = AXIS2_PLACEMENT_3D ( 'NONE', #52, #178, #170 ) ;
#61 = ORIENTED_EDGE ( 'NONE', *, *, #324, .F. ) ;
#62 = EDGE_CURVE ( 'NONE', #128, #2, #76, .T. ) ;
#63 = ORIENTED_EDGE ( 'NONE', *, *, #107, .F. ) ;
#64 = ORIENTED_EDGE ( 'NONE', *, *, #101, .F. ) ;
#65 = COORDINATED_UNIVERSAL_TIME_OFFSET ( 5, 0, .BEHIND. ) ;
#66 = PRODUCT_DEFINITION_SHAPE ( 'NONE', 'NONE',  #320 ) ;
#67 = AXIS2_PLACEMENT_3D ( 'NONE', #113, #233, #78 ) ;
#68 = CC_DESIGN_APPROVAL ( #250, ( #320 ) ) ;
#69 = PRODUCT_DEFINITION_FORMATION_WITH_SPECIFIED_SOURCE ( 'ANY', '', #131, .NOT_KNOWN. ) ;
#70 = CC_DESIGN_APPROVAL ( #85, ( #69 ) ) ;
#71 = CC_DESIGN_PERSON_AND_ORGANIZATION_ASSIGNMENT ( #83, #337, ( #69 ) ) ;
#72 = ORIENTED_EDGE ( 'NONE', *, *, #219, .T. ) ;
#73 = FACE_OUTER_BOUND ( 'NONE', #18, .T. ) ;
#74 = APPROVAL_DATE_TIME ( #23, #195 ) ;
#75 = AXIS2_PLACEMENT_3D ( 'NONE', #388, #223, #207 ) ;
#76 = LINE ( 'NONE', #239, #360 ) ;
#77 = ADVANCED_FACE ( 'NONE', ( #266 ), #234, .T. ) ;
#78 = DIRECTION ( 'NONE',  ( -6.982962677686265922E-15, -1.000000000000000000, 3.493350140056777702E-15 ) ) ;
#79 = DIRECTION ( 'NONE',  ( -2.446260868250245360E-29, 3.490347060884537647E-15, 1.000000000000000000 ) ) ;
#80 = ORIENTED_EDGE ( 'NONE', *, *, #167, .T. ) ;
#81 = DIRECTION ( 'NONE',  ( -6.982962677686265922E-15, -1.000000000000000000, 3.854731189028165969E-15 ) ) ;
#82 = ORIENTED_EDGE ( 'NONE', *, *, #365, .F. ) ;
#83 = PERSON_AND_ORGANIZATION ( #407, #322 ) ;
#84 = DIRECTION ( 'NONE',  ( -1.000000000000000000, 6.982962677686265922E-15, -4.876176775795935793E-29 ) ) ;
#85 = APPROVAL ( #179, 'UNSPECIFIED' ) ;
#86 = VERTEX_POINT ( 'NONE', #400 ) ;
#87 = DATE_AND_TIME ( #14, #366 ) ;
#88 = CIRCLE ( 'NONE', #229, 0.3543499999999999983 ) ;
#89 = DIRECTION ( 'NONE',  ( -2.445468806185136597E-29, 3.491481338843145583E-15, 1.000000000000000000 ) ) ;
#90 = CARTESIAN_POINT ( 'NONE',  ( 2.474412824838214680E-15, 0.3543499999999872863, -3.582650000000001000 ) ) ;
#91 = DIRECTION ( 'NONE',  ( -6.982962677686265922E-15, -1.000000000000000000, 3.490347060884537253E-15 ) ) ;
#92 = CARTESIAN_POINT ( 'NONE',  ( -0.3543499999999999983, -7.997748025128399541E-15, -2.440900000000000070 ) ) ;
#93 = EDGE_LOOP ( 'NONE', ( #302, #26, #355, #105 ) ) ;
#94 = ADVANCED_FACE ( 'NONE', ( #301 ), #182, .F. ) ;
#95 = ORIENTED_EDGE ( 'NONE', *, *, #237, .T. ) ;
#96 = SECURITY_CLASSIFICATION ( '', '', #198 ) ;
#97 = APPROVAL_ROLE ( '' ) ;
#98 = EDGE_CURVE ( 'NONE', #216, #86, #395, .T. ) ;
#99 = MANIFOLD_SOLID_BREP ( 'Body-Move/Copy2[1]', #50 ) ;
#100 = VECTOR ( 'NONE', #261, 39.37007874015748143 ) ;
#101 = EDGE_CURVE ( 'NONE', #57, #310, #334, .T. ) ;
#102 = AXIS2_PLACEMENT_3D ( 'NONE', #343, #89, #55 ) ;
#103 = FACE_OUTER_BOUND ( 'NONE', #382, .T. ) ;
#104 = EDGE_LOOP ( 'NONE', ( #270, #342, #72, #245, #247 ) ) ;
#105 = ORIENTED_EDGE ( 'NONE', *, *, #410, .F. ) ;
#106 = DIRECTION ( 'NONE',  ( -6.982962677686265133E-15, -1.000000000000000000, 3.490347060884536858E-15 ) ) ;
#107 = EDGE_CURVE ( 'NONE', #138, #54, #362, .T. ) ;
#108 = APPROVAL_STATUS ( 'not_yet_approved' ) ;
#109 = DIRECTION ( 'NONE',  ( -6.982962677686265133E-15, -1.000000000000000000, 3.865640291020607122E-15 ) ) ;
#110 = AXIS2_PLACEMENT_3D ( 'NONE', #9, #175, #298 ) ;
#111 = CARTESIAN_POINT ( 'NONE',  ( 9.311842320765534580E-29, -1.419844671950162056E-14, -3.937000000000000277 ) ) ;
#112 = DATE_TIME_ROLE ( 'classification_date' ) ;
#113 = CARTESIAN_POINT ( 'NONE',  ( 4.892521736500509743E-31, -6.980694121769102116E-17, -0.02000000000000008021 ) ) ;
#114 = CARTESIAN_POINT ( 'NONE',  ( 2.404583198061265001E-15, 0.3343499999999996475, -8.856549612955775221E-16 ) ) ;
#115 = ADVANCED_FACE ( 'NONE', ( #73 ), #293, .T. ) ;
#116 = CARTESIAN_POINT ( 'NONE',  ( -2.431017465510341208E-15, -0.3543500000000000538, -0.01999999999999884162 ) ) ;
#117 = EDGE_LOOP ( 'NONE', ( #22, #173 ) ) ;
#118 = PERSON_AND_ORGANIZATION_ROLE ( 'design_supplier' ) ;
#119 = DIRECTION ( 'NONE',  ( -2.446260868250245080E-29, 3.490347060884537253E-15, 1.000000000000000000 ) ) ;
#120 = DIRECTION ( 'NONE',  ( -4.937700262165728178E-15, -0.7071067811867141062, 0.7071067811863809283 ) ) ;
#121 = PERSON_AND_ORGANIZATION ( #407, #322 ) ;
#122 = CARTESIAN_POINT ( 'NONE',  ( -6.882373403844886639E-45, 9.819832420081268397E-31, 2.813425785111663768E-16 ) ) ;
#123 = AXIS2_PLACEMENT_3D ( 'NONE', #47, #51, #181 ) ;
#124 = ORIENTED_EDGE ( 'NONE', *, *, #410, .T. ) ;
#125 = PERSON_AND_ORGANIZATION_ROLE ( 'design_owner' ) ;
#126 = EDGE_CURVE ( 'NONE', #278, #54, #196, .T. ) ;
#127 = DIRECTION ( 'NONE',  ( -2.445468806185136597E-29, 3.491481338843145583E-15, 1.000000000000000000 ) ) ;
#128 = VERTEX_POINT ( 'NONE', #171 ) ;
#129 = VECTOR ( 'NONE', #120, 39.37007874015748143 ) ;
#130 = LENGTH_MEASURE_WITH_UNIT ( LENGTH_MEASURE( 0.02539999999999999897 ), #315 );
#131 = PRODUCT ( '48625', '48625', '', ( #344 ) ) ;
#132 = CIRCLE ( 'NONE', #32, 0.3543500000000002759 ) ;
#133 = DIRECTION ( 'NONE',  ( -2.446260868250245080E-29, 3.490347060884537253E-15, 1.000000000000000000 ) ) ;
#134 = AXIS2_PLACEMENT_3D ( 'NONE', #259, #325, #106 ) ;
#135 = SPHERICAL_SURFACE ( 'NONE', #374, 0.3543500000000002204 ) ;
#136 = EDGE_CURVE ( 'NONE', #189, #375, #15, .T. ) ;
#137 = APPLICATION_CONTEXT ( 'configuration controlled 3d designs of mechanical parts and assemblies' ) ;
#138 = VERTEX_POINT ( 'NONE', #262 ) ;
#139 = CARTESIAN_POINT ( 'NONE',  ( 8.430139040565293586E-29, -1.298293798674644404E-14, -3.582650000000000112 ) ) ;
#140 = AXIS2_PLACEMENT_3D ( 'NONE', #186, #119, #376 ) ;
#141 = DIRECTION ( 'NONE',  ( 4.937700262164543309E-15, 0.7071067811865444641, -0.7071067811865503483 ) ) ;
#142 = APPROVAL_ROLE ( '' ) ;
#143 = CARTESIAN_POINT ( 'NONE',  ( -2.474412824838129089E-15, -0.3543500000000001648, 1.236804481024436153E-15 ) ) ;
#144 = DIRECTION ( 'NONE',  ( -2.445468806185136597E-29, 3.491481338843145583E-15, 1.000000000000000000 ) ) ;
#145 = CARTESIAN_POINT ( 'NONE',  ( 5.971078153312023136E-29, -8.519588140913066659E-15, -2.440900000000000070 ) ) ;
#146 = AXIS2_PLACEMENT_3D ( 'NONE', #139, #357, #327 ) ;
#147 = CC_DESIGN_PERSON_AND_ORGANIZATION_ASSIGNMENT ( #381, #255, ( #320 ) ) ;
#148 = DATE_TIME_ROLE ( 'creation_date' ) ;
#149 = CARTESIAN_POINT ( 'NONE',  ( 8.761258818479179833E-29, -1.250875561860639532E-14, -3.582650000000000112 ) ) ;
#150 = APPROVAL_PERSON_ORGANIZATION ( #347, #250, #97 ) ;
#151 = EDGE_LOOP ( 'NONE', ( #180, #249, #332, #275 ) ) ;
#152 = CARTESIAN_POINT ( 'NONE',  ( 8.761258818479179833E-29, -1.250875561860639532E-14, -3.582650000000000112 ) ) ;
#153 = CARTESIAN_POINT ( 'NONE',  ( 4.892521736500509743E-31, -6.980694121769102116E-17, -0.02000000000000008021 ) ) ;
#154 = VERTEX_POINT ( 'NONE', #367 ) ;
#155 = DIRECTION ( 'NONE',  ( 1.000000000000000000, -6.982962677686266711E-15, 4.876176775795935793E-29 ) ) ;
#156 = ORIENTED_EDGE ( 'NONE', *, *, #393, .F. ) ;
#157 = ORIENTED_EDGE ( 'NONE', *, *, #390, .T. ) ;
#158 = AXIS2_PLACEMENT_3D ( 'NONE', #149, #405, #338 ) ;
#159 = EDGE_CURVE ( 'NONE', #154, #217, #235, .T. ) ;
#160 = ORIENTED_EDGE ( 'NONE', *, *, #3, .T. ) ;
#161 = APPROVAL_PERSON_ORGANIZATION ( #369, #85, #142 ) ;
#162 = DESIGN_CONTEXT ( 'detailed design', #282, 'design' ) ;
#163 = CC_DESIGN_DATE_AND_TIME_ASSIGNMENT ( #209, #148, ( #320 ) ) ;
#164 = CIRCLE ( 'NONE', #257, 0.3543500000000002204 ) ;
#165 = CARTESIAN_POINT ( 'NONE',  ( 0.3543499999999999983, -2.474412824838128694E-15, 1.727873240503289749E-29 ) ) ;
#166 = EDGE_CURVE ( 'NONE', #57, #375, #164, .T. ) ;
#167 = EDGE_CURVE ( 'NONE', #86, #54, #88, .T. ) ;
#168 = DIMENSIONAL_EXPONENTS ( 1.000000000000000000, 0.000000000000000000, 0.000000000000000000, 0.000000000000000000, 0.000000000000000000, 0.000000000000000000, 0.000000000000000000 ) ;
#169 = AXIS2_PLACEMENT_3D ( 'NONE', #312, #127, #372 ) ;
#170 = DIRECTION ( 'NONE',  ( 6.982962677686265922E-15, 1.000000000000000000, -3.493350140056777702E-15 ) ) ;
#171 = CARTESIAN_POINT ( 'NONE',  ( -0.3543499999999999428, -7.997748025128402696E-15, -3.582650000000000112 ) ) ;
#172 = APPROVAL_DATE_TIME ( #87, #85 ) ;
#173 = ORIENTED_EDGE ( 'NONE', *, *, #341, .T. ) ;
#174 = DIRECTION ( 'NONE',  ( -6.982962677686265922E-15, -1.000000000000000000, 3.490347060884537253E-15 ) ) ;
#175 = DIRECTION ( 'NONE',  ( -1.000000000000000000, 6.982962677686265922E-15, -4.883557194083112340E-29 ) ) ;
#176 = EDGE_LOOP ( 'NONE', ( #28, #258, #371, #156 ) ) ;
#177 = LINE ( 'NONE', #272, #305 ) ;
#178 = DIRECTION ( 'NONE',  ( 2.446260868250245080E-29, -3.490347060884537253E-15, -1.000000000000000000 ) ) ;
#179 = APPROVAL_STATUS ( 'not_yet_approved' ) ;
#180 = ORIENTED_EDGE ( 'NONE', *, *, #295, .T. ) ;
#181 = DIRECTION ( 'NONE',  ( -6.982962677686265133E-15, -1.000000000000000000, 3.865640291020607122E-15 ) ) ;
#182 = PLANE ( 'NONE',  #300 ) ;
#183 = CIRCLE ( 'NONE', #200, 0.3343499999999996475 ) ;
#184 = EDGE_LOOP ( 'NONE', ( #39, #61 ) ) ;
#185 = FACE_OUTER_BOUND ( 'NONE', #93, .T. ) ;
#186 = CARTESIAN_POINT ( 'NONE',  ( 5.968631892443773340E-29, -8.516097793852181427E-15, -2.439900000000000180 ) ) ;
#187 = ORIENTED_EDGE ( 'NONE', *, *, #136, .T. ) ;
#188 = PERSON_AND_ORGANIZATION ( #407, #322 ) ;
#189 = VERTEX_POINT ( 'NONE', #340 ) ;
#190 = CC_DESIGN_SECURITY_CLASSIFICATION ( #96, ( #69 ) ) ;
#191 =( CONVERSION_BASED_UNIT ( 'INCH', #130 ) LENGTH_UNIT ( ) NAMED_UNIT ( #168 ) );
#192 = EDGE_CURVE ( 'NONE', #54, #86, #284, .T. ) ;
#193 = EDGE_CURVE ( 'NONE', #128, #310, #409, .T. ) ;
#194 = DIRECTION ( 'NONE',  ( -6.982962677686265133E-15, -1.000000000000000000, 3.865640291020607122E-15 ) ) ;
#195 = APPROVAL ( #108, 'UNSPECIFIED' ) ;
#196 = LINE ( 'NONE', #197, #34 ) ;
#197 = CARTESIAN_POINT ( 'NONE',  ( 2.474412824838128694E-15, 0.3543499999999999428, -0.02000000000000131881 ) ) ;
#198 = SECURITY_CLASSIFICATION_LEVEL ( 'unclassified' ) ;
#199 = CARTESIAN_POINT ( 'NONE',  ( 5.971078153312023136E-29, -8.519588140913066659E-15, -2.440900000000000070 ) ) ;
#200 = AXIS2_PLACEMENT_3D ( 'NONE', #373, #309, #174 ) ;
#201 = FACE_OUTER_BOUND ( 'NONE', #151, .T. ) ;
#202 = PLANE ( 'NONE',  #211 ) ;
#203 = CARTESIAN_POINT ( 'NONE',  ( 0.3543499999999999983, -1.099676962482036284E-14, -2.440900000000000070 ) ) ;
#204 = ORIENTED_EDGE ( 'NONE', *, *, #341, .F. ) ;
#205 = COORDINATED_UNIVERSAL_TIME_OFFSET ( 5, 0, .BEHIND. ) ;
#206 = CARTESIAN_POINT ( 'NONE',  ( -2.517808184165828616E-15, -0.3543500000000128214, -3.582649999999999224 ) ) ;
#207 = DIRECTION ( 'NONE',  ( -6.982962677686265133E-15, -1.000000000000000000, 3.490347060884536858E-15 ) ) ;
#208 = ORIENTED_EDGE ( 'NONE', *, *, #98, .F. ) ;
#209 = DATE_AND_TIME ( #19, #253 ) ;
#210 = FACE_OUTER_BOUND ( 'NONE', #117, .T. ) ;
#211 = AXIS2_PLACEMENT_3D ( 'NONE', #240, #328, #84 ) ;
#212 = EDGE_LOOP ( 'NONE', ( #124, #27, #346, #336, #187 ) ) ;
#213 = PLANE ( 'NONE',  #307 ) ;
#214 = ADVANCED_BREP_SHAPE_REPRESENTATION ( '48625', ( #99, #227, #402 ), #350 ) ;
#215 = ORIENTED_EDGE ( 'NONE', *, *, #393, .T. ) ;
#216 = VERTEX_POINT ( 'NONE', #370 ) ;
#217 = VERTEX_POINT ( 'NONE', #243 ) ;
#218 = APPLICATION_PROTOCOL_DEFINITION ( 'international standard', 'config_control_design', 1994, #137 ) ;
#219 = EDGE_CURVE ( 'NONE', #310, #189, #236, .T. ) ;
#220 = VERTEX_POINT ( 'NONE', #403 ) ;
#221 = APPLICATION_PROTOCOL_DEFINITION ( 'international standard', 'config_control_design', 1994, #282 ) ;
#222 = APPROVAL_DATE_TIME ( #285, #250 ) ;
#223 = DIRECTION ( 'NONE',  ( -2.446260868250245080E-29, 3.490347060884537253E-15, 1.000000000000000000 ) ) ;
#224 = CONICAL_SURFACE ( 'NONE', #389, 0.3533499999999999974, 0.7853981633976873100 ) ;
#225 = APPROVAL_PERSON_ORGANIZATION ( #358, #195, #264 ) ;
#226 = DIRECTION ( 'NONE',  ( -1.000000000000000000, 6.982962677686265922E-15, -4.883557194083112340E-29 ) ) ;
#227 = MANIFOLD_SOLID_BREP ( 'Body-Move/Copy2[2]', #8 ) ;
#228 = CARTESIAN_POINT ( 'NONE',  ( 8.430139040565293586E-29, -1.298293798674644404E-14, -3.582650000000000112 ) ) ;
#229 = AXIS2_PLACEMENT_3D ( 'NONE', #153, #274, #24 ) ;
#230 = ADVANCED_FACE ( 'NONE', ( #238 ), #319, .T. ) ;
#231 = CONICAL_SURFACE ( 'NONE', #318, 0.3533499999999999974, 0.7853981633976873100 ) ;
#232 = DIRECTION ( 'NONE',  ( -6.982962677686265922E-15, -1.000000000000000000, 3.490347060884537647E-15 ) ) ;
#233 = DIRECTION ( 'NONE',  ( -2.446260868250245080E-29, 3.490347060884537253E-15, 1.000000000000000000 ) ) ;
#234 = CONICAL_SURFACE ( 'NONE', #60, 0.3543499999999999983, 0.7853981633974476129 ) ;
#235 = LINE ( 'NONE', #48, #129 ) ;
#236 = CIRCLE ( 'NONE', #345, 0.3543499999999999428 ) ;
#237 = EDGE_CURVE ( 'NONE', #220, #138, #177, .T. ) ;
#238 = FACE_OUTER_BOUND ( 'NONE', #59, .T. ) ;
#239 = CARTESIAN_POINT ( 'NONE',  ( -0.3543499999999999983, 2.517808184165914997E-15, -1.743024649231826066E-29 ) ) ;
#240 = CARTESIAN_POINT ( 'NONE',  ( 2.474412824838187859E-15, 0.3543499999999914496, -2.440900000000001402 ) ) ;
#241 = DIRECTION ( 'NONE',  ( -2.445468806185136877E-29, 3.491481338843145188E-15, 1.000000000000000000 ) ) ;
#242 = ORIENTED_EDGE ( 'NONE', *, *, #295, .F. ) ;
#243 = CARTESIAN_POINT ( 'NONE',  ( -2.474412824838070318E-15, -0.3543500000000088246, -2.439899999999998847 ) ) ;
#244 = VECTOR ( 'NONE', #287, 39.37007874015748143 ) ;
#245 = ORIENTED_EDGE ( 'NONE', *, *, #25, .T. ) ;
#246 = DIRECTION ( 'NONE',  ( -2.446260868250245080E-29, 3.490347060884537253E-15, 1.000000000000000000 ) ) ;
#247 = ORIENTED_EDGE ( 'NONE', *, *, #3, .F. ) ;
#248 = APPROVAL_STATUS ( 'not_yet_approved' ) ;
#249 = ORIENTED_EDGE ( 'NONE', *, *, #107, .T. ) ;
#250 = APPROVAL ( #248, 'UNSPECIFIED' ) ;
#251 = ORIENTED_EDGE ( 'NONE', *, *, #166, .T. ) ;
#252 = CIRCLE ( 'NONE', #4, 0.3343499999999996475 ) ;
#253 = LOCAL_TIME ( 7, 55, 47.00000000000000000, #352 ) ;
#254 = CC_DESIGN_APPROVAL ( #195, ( #96 ) ) ;
#255 = PERSON_AND_ORGANIZATION_ROLE ( 'creator' ) ;
#256 = DIRECTION ( 'NONE',  ( -2.445468806185136597E-29, 3.491481338843145583E-15, 1.000000000000000000 ) ) ;
#257 = AXIS2_PLACEMENT_3D ( 'NONE', #21, #406, #306 ) ;
#258 = ORIENTED_EDGE ( 'NONE', *, *, #324, .T. ) ;
#259 = CARTESIAN_POINT ( 'NONE',  ( 0.000000000000000000, 0.000000000000000000, 0.000000000000000000 ) ) ;
#260 = COORDINATED_UNIVERSAL_TIME_OFFSET ( 5, 0, .BEHIND. ) ;
#261 = DIRECTION ( 'NONE',  ( -2.446260868250245360E-29, 3.490347060884537647E-15, 1.000000000000000000 ) ) ;
#262 = CARTESIAN_POINT ( 'NONE',  ( 2.517808184165946157E-15, 0.3543499999999917272, -2.439900000000001512 ) ) ;
#263 = ADVANCED_FACE ( 'NONE', ( #276 ), #231, .T. ) ;
#264 = APPROVAL_ROLE ( '' ) ;
#265 = CARTESIAN_POINT ( 'NONE',  ( 5.968631892443773340E-29, -8.516097793852181427E-15, -2.439900000000000180 ) ) ;
#266 = FACE_OUTER_BOUND ( 'NONE', #394, .T. ) ;
#267 = DATE_AND_TIME ( #42, #35 ) ;
#268 = DIRECTION ( 'NONE',  ( 5.024295867789263036E-15, 0.7071067811867189912, 0.7071067811863760433 ) ) ;
#269 = AXIS2_PLACEMENT_3D ( 'NONE', #31, #313, #349 ) ;
#270 = ORIENTED_EDGE ( 'NONE', *, *, #62, .F. ) ;
#271 = ORIENTED_EDGE ( 'NONE', *, *, #385, .T. ) ;
#272 = CARTESIAN_POINT ( 'NONE',  ( 2.510702756808373153E-15, 0.3533499999999914487, -2.440900000000001402 ) ) ;
#273 = CC_DESIGN_DATE_AND_TIME_ASSIGNMENT ( #267, #112, ( #96 ) ) ;
#274 = DIRECTION ( 'NONE',  ( -2.446260868250245080E-29, 3.490347060884537253E-15, 1.000000000000000000 ) ) ;
#275 = ORIENTED_EDGE ( 'NONE', *, *, #385, .F. ) ;
#276 = FACE_OUTER_BOUND ( 'NONE', #176, .T. ) ;
#277 = AXIS2_PLACEMENT_3D ( 'NONE', #6, #256, #391 ) ;
#278 = VERTEX_POINT ( 'NONE', #114 ) ;
#279 = CARTESIAN_POINT ( 'NONE',  ( 0.000000000000000000, 0.000000000000000000, 0.000000000000000000 ) ) ;
#280 = ORIENTED_EDGE ( 'NONE', *, *, #5, .T. ) ;
#281 =( NAMED_UNIT ( * ) SI_UNIT ( $, .STERADIAN. ) SOLID_ANGLE_UNIT ( ) );
#282 = APPLICATION_CONTEXT ( 'configuration controlled 3d designs of mechanical parts and assemblies' ) ;
#283 =( NAMED_UNIT ( * ) PLANE_ANGLE_UNIT ( ) SI_UNIT ( $, .RADIAN. ) );
#284 = CIRCLE ( 'NONE', #67, 0.3543499999999999983 ) ;
#285 = DATE_AND_TIME ( #29, #387 ) ;
#286 = AXIS2_PLACEMENT_3D ( 'NONE', #333, #303, #155 ) ;
#287 = DIRECTION ( 'NONE',  ( -2.445468806185136877E-29, 3.491481338843145188E-15, 1.000000000000000000 ) ) ;
#288 = VECTOR ( 'NONE', #359, 39.37007874015748854 ) ;
#289 = ADVANCED_FACE ( 'NONE', ( #58 ), #202, .F. ) ;
#290 = CYLINDRICAL_SURFACE ( 'NONE', #277, 0.3543499999999999983 ) ;
#291 = CYLINDRICAL_SURFACE ( 'NONE', #75, 0.3543500000000001648 ) ;
#292 = UNCERTAINTY_MEASURE_WITH_UNIT (LENGTH_MEASURE( 1.000000000000000082E-05 ), #191, 'distance_accuracy_value', 'NONE');
#293 = SPHERICAL_SURFACE ( 'NONE', #110, 0.3543500000000002204 ) ;
#294 = CARTESIAN_POINT ( 'NONE',  ( 2.334753571284400520E-15, 0.3343499999999996475, -1.026326250551160686E-15 ) ) ;
#295 = EDGE_CURVE ( 'NONE', #217, #138, #304, .T. ) ;
#296 = CARTESIAN_POINT ( 'NONE',  ( 8.761258818479179833E-29, -1.250875561860639532E-14, -3.582650000000000112 ) ) ;
#297 = CYLINDRICAL_SURFACE ( 'NONE', #286, 0.3543499999999999983 ) ;
#298 = DIRECTION ( 'NONE',  ( 6.982962677686265922E-15, 1.000000000000000000, -3.083784951222533328E-15 ) ) ;
#299 = CARTESIAN_POINT ( 'NONE',  ( 4.892521736500509743E-31, -6.980694121769102116E-17, -0.02000000000000008021 ) ) ;
#300 = AXIS2_PLACEMENT_3D ( 'NONE', #17, #41, #232 ) ;
#301 = FACE_OUTER_BOUND ( 'NONE', #184, .T. ) ;
#302 = ORIENTED_EDGE ( 'NONE', *, *, #166, .F. ) ;
#303 = DIRECTION ( 'NONE',  ( -2.445468806185136597E-29, 3.491481338843145583E-15, 1.000000000000000000 ) ) ;
#304 = CIRCLE ( 'NONE', #140, 0.3543500000000002759 ) ;
#305 = VECTOR ( 'NONE', #268, 39.37007874015748143 ) ;
#306 = DIRECTION ( 'NONE',  ( 6.982962677686265133E-15, 1.000000000000000000, 0.000000000000000000 ) ) ;
#307 = AXIS2_PLACEMENT_3D ( 'NONE', #294, #12, #10 ) ;
#308 = CALENDAR_DATE ( 2024, 10, 4 ) ;
#309 = DIRECTION ( 'NONE',  ( -2.446260868250245080E-29, 3.490347060884537253E-15, 1.000000000000000000 ) ) ;
#310 = VERTEX_POINT ( 'NONE', #206 ) ;
#311 = ORIENTED_EDGE ( 'NONE', *, *, #192, .F. ) ;
#312 = CARTESIAN_POINT ( 'NONE',  ( 5.969144809017300159E-29, -8.522356799982234543E-15, -2.440900000000000070 ) ) ;
#313 = DIRECTION ( 'NONE',  ( -2.445468806185136597E-29, 3.491481338843145583E-15, 1.000000000000000000 ) ) ;
#314 = ADVANCED_FACE ( 'NONE', ( #43 ), #297, .T. ) ;
#315 =( LENGTH_UNIT ( ) NAMED_UNIT ( * ) SI_UNIT ( $, .METRE. ) );
#316 = CIRCLE ( 'NONE', #169, 0.3543499999999999983 ) ;
#317 = CC_DESIGN_PERSON_AND_ORGANIZATION_ASSIGNMENT ( #121, #118, ( #69 ) ) ;
#318 = AXIS2_PLACEMENT_3D ( 'NONE', #199, #246, #16 ) ;
#319 = CONICAL_SURFACE ( 'NONE', #377, 0.3543499999999999983, 0.7853981633974476129 ) ;
#320 = PRODUCT_DEFINITION ( 'UNKNOWN', '', #69, #162 ) ;
#321 = FACE_OUTER_BOUND ( 'NONE', #212, .T. ) ;
#322 = ORGANIZATION ( 'UNSPECIFIED', 'UNSPECIFIED', '' ) ;
#323 = PERSON_AND_ORGANIZATION ( #407, #322 ) ;
#324 = EDGE_CURVE ( 'NONE', #220, #154, #36, .T. ) ;
#325 = DIRECTION ( 'NONE',  ( -2.446260868250245080E-29, 3.490347060884537253E-15, 1.000000000000000000 ) ) ;
#326 = DIRECTION ( 'NONE',  ( 1.000000000000000000, -6.982962677686266711E-15, 0.000000000000000000 ) ) ;
#327 = DIRECTION ( 'NONE',  ( -7.105427357601001070E-15, -1.000000000000000000, 0.000000000000000000 ) ) ;
#328 = DIRECTION ( 'NONE',  ( 2.438088387897960049E-29, -3.491481338843145188E-15, -1.000000000000000000 ) ) ;
#329 = PRODUCT_RELATED_PRODUCT_CATEGORY ( 'detail', '', ( #131 ) ) ;
#330 = ORIENTED_EDGE ( 'NONE', *, *, #126, .F. ) ;
#331 = PERSON_AND_ORGANIZATION_ROLE ( 'classification_officer' ) ;
#332 = ORIENTED_EDGE ( 'NONE', *, *, #167, .F. ) ;
#333 = CARTESIAN_POINT ( 'NONE',  ( 0.000000000000000000, 0.000000000000000000, 0.000000000000000000 ) ) ;
#334 = CIRCLE ( 'NONE', #146, 0.3543500000000002204 ) ;
#335 = CYLINDRICAL_SURFACE ( 'NONE', #134, 0.3543500000000001648 ) ;
#336 = ORIENTED_EDGE ( 'NONE', *, *, #25, .F. ) ;
#337 = PERSON_AND_ORGANIZATION_ROLE ( 'creator' ) ;
#338 = DIRECTION ( 'NONE',  ( 1.000000000000000000, -6.982962677686266711E-15, 0.000000000000000000 ) ) ;
#339 = AXIS2_PLACEMENT_3D ( 'NONE', #145, #397, #109 ) ;
#340 = CARTESIAN_POINT ( 'NONE',  ( 0.3543499999999999428, -1.298996903413244560E-14, -3.582650000000000112 ) ) ;
#341 = EDGE_CURVE ( 'NONE', #216, #278, #183, .T. ) ;
#342 = ORIENTED_EDGE ( 'NONE', *, *, #193, .T. ) ;
#343 = CARTESIAN_POINT ( 'NONE',  ( 5.969144809017300159E-29, -8.522356799982234543E-15, -2.440900000000000070 ) ) ;
#344 = MECHANICAL_CONTEXT ( 'NONE', #137, 'mechanical' ) ;
#345 = AXIS2_PLACEMENT_3D ( 'NONE', #152, #56, #326 ) ;
#346 = ORIENTED_EDGE ( 'NONE', *, *, #5, .F. ) ;
#347 = PERSON_AND_ORGANIZATION ( #407, #322 ) ;
#348 = CC_DESIGN_PERSON_AND_ORGANIZATION_ASSIGNMENT ( #323, #331, ( #96 ) ) ;
#349 = DIRECTION ( 'NONE',  ( 1.000000000000000000, -6.982962677686266711E-15, 0.000000000000000000 ) ) ;
#350 =( GEOMETRIC_REPRESENTATION_CONTEXT ( 3 ) GLOBAL_UNCERTAINTY_ASSIGNED_CONTEXT ( ( #292 ) ) GLOBAL_UNIT_ASSIGNED_CONTEXT ( ( #191, #283, #281 ) ) REPRESENTATION_CONTEXT ( 'NONE', 'WORKASPACE' ) );
#351 = LINE ( 'NONE', #165, #244 ) ;
#352 = COORDINATED_UNIVERSAL_TIME_OFFSET ( 5, 0, .BEHIND. ) ;
#353 = DIRECTION ( 'NONE',  ( 6.982962677686265922E-15, 1.000000000000000000, -3.083784951222533328E-15 ) ) ;
#354 = CARTESIAN_POINT ( 'NONE',  ( 5.971078153312023136E-29, -8.519588140913066659E-15, -2.440900000000000070 ) ) ;
#355 = ORIENTED_EDGE ( 'NONE', *, *, #193, .F. ) ;
#356 = CIRCLE ( 'NONE', #269, 0.3543499999999999428 ) ;
#357 = DIRECTION ( 'NONE',  ( -1.000000000000000000, 7.105427357601001070E-15, -4.926315508542082329E-29 ) ) ;
#358 = PERSON_AND_ORGANIZATION ( #407, #322 ) ;
#359 = DIRECTION ( 'NONE',  ( -4.851104656540959542E-15, -0.7071067811865493491, -0.7071067811865454633 ) ) ;
#360 = VECTOR ( 'NONE', #241, 39.37007874015748143 ) ;
#361 = DIRECTION ( 'NONE',  ( 6.982962677686265922E-15, 1.000000000000000000, -3.493350140056777702E-15 ) ) ;
#362 = LINE ( 'NONE', #45, #30 ) ;
#363 = ORIENTED_EDGE ( 'NONE', *, *, #136, .F. ) ;
#364 = LINE ( 'NONE', #143, #100 ) ;
#365 = EDGE_CURVE ( 'NONE', #278, #216, #252, .T. ) ;
#366 = LOCAL_TIME ( 7, 55, 47.00000000000000000, #260 ) ;
#367 = CARTESIAN_POINT ( 'NONE',  ( -2.467429862160382332E-15, -0.3533500000000085461, -2.440899999999998737 ) ) ;
#368 = ORIENTED_EDGE ( 'NONE', *, *, #219, .F. ) ;
#369 = PERSON_AND_ORGANIZATION ( #407, #322 ) ;
#370 = CARTESIAN_POINT ( 'NONE',  ( -2.362412485532625088E-15, -0.3343499999999996475, 1.448340118317910276E-15 ) ) ;
#371 = ORIENTED_EDGE ( 'NONE', *, *, #159, .T. ) ;
#372 = DIRECTION ( 'NONE',  ( 1.000000000000000000, -6.982962677686265922E-15, 0.000000000000000000 ) ) ;
#373 = CARTESIAN_POINT ( 'NONE',  ( -6.882373403844886639E-45, 9.819832420081268397E-31, 2.813425785111663768E-16 ) ) ;
#374 = AXIS2_PLACEMENT_3D ( 'NONE', #228, #226, #353 ) ;
#375 = VERTEX_POINT ( 'NONE', #90 ) ;
#376 = DIRECTION ( 'NONE',  ( -6.982962677686265922E-15, -1.000000000000000000, 3.854731189028165969E-15 ) ) ;
#377 = AXIS2_PLACEMENT_3D ( 'NONE', #299, #408, #361 ) ;
#378 = ADVANCED_FACE ( 'NONE', ( #210 ), #213, .F. ) ;
#379 = ORIENTED_EDGE ( 'NONE', *, *, #159, .F. ) ;
#380 = ORIENTED_EDGE ( 'NONE', *, *, #126, .T. ) ;
#381 = PERSON_AND_ORGANIZATION ( #407, #322 ) ;
#382 = EDGE_LOOP ( 'NONE', ( #157, #95, #242, #379 ) ) ;
#383 = AXIS2_PLACEMENT_3D ( 'NONE', #296, #144, #13 ) ;
#384 = ORIENTED_EDGE ( 'NONE', *, *, #192, .T. ) ;
#385 = EDGE_CURVE ( 'NONE', #217, #86, #364, .T. ) ;
#386 = LOCAL_TIME ( 7, 55, 47.00000000000000000, #205 ) ;
#387 = LOCAL_TIME ( 7, 55, 47.00000000000000000, #65 ) ;
#388 = CARTESIAN_POINT ( 'NONE',  ( 0.000000000000000000, 0.000000000000000000, 0.000000000000000000 ) ) ;
#389 = AXIS2_PLACEMENT_3D ( 'NONE', #354, #133, #194 ) ;
#390 = EDGE_CURVE ( 'NONE', #154, #220, #412, .T. ) ;
#391 = DIRECTION ( 'NONE',  ( 1.000000000000000000, -6.982962677686266711E-15, 4.876176775795935793E-29 ) ) ;
#392 = EDGE_LOOP ( 'NONE', ( #63, #215, #271, #311 ) ) ;
#393 = EDGE_CURVE ( 'NONE', #138, #217, #132, .T. ) ;
#394 = EDGE_LOOP ( 'NONE', ( #208, #82, #380, #384 ) ) ;
#395 = LINE ( 'NONE', #116, #288 ) ;
#396 = COORDINATED_UNIVERSAL_TIME_OFFSET ( 5, 0, .BEHIND. ) ;
#397 = DIRECTION ( 'NONE',  ( -2.446260868250245080E-29, 3.490347060884537253E-15, 1.000000000000000000 ) ) ;
#398 = CC_DESIGN_PERSON_AND_ORGANIZATION_ASSIGNMENT ( #188, #125, ( #131 ) ) ;
#399 = DIRECTION ( 'NONE',  ( -2.446260868250245080E-29, 3.490347060884537253E-15, 1.000000000000000000 ) ) ;
#400 = CARTESIAN_POINT ( 'NONE',  ( -2.431017465510341208E-15, -0.3543500000000000538, -0.01999999999999884162 ) ) ;
#401 = SHAPE_DEFINITION_REPRESENTATION ( #66, #214 ) ;
#402 = AXIS2_PLACEMENT_3D ( 'NONE', #279, #1, #411 ) ;
#403 = CARTESIAN_POINT ( 'NONE',  ( 2.514255470487174446E-15, 0.3533499999999914487, -2.440900000000001402 ) ) ;
#404 = EDGE_LOOP ( 'NONE', ( #280, #160 ) ) ;
#405 = DIRECTION ( 'NONE',  ( -2.445468806185136597E-29, 3.491481338843145583E-15, 1.000000000000000000 ) ) ;
#406 = DIRECTION ( 'NONE',  ( 1.000000000000000000, -6.982962677686265922E-15, 4.883557194083112340E-29 ) ) ;
#407 = PERSON ( 'UNSPECIFIED', 'UNSPECIFIED', 'UNSPECIFIED', ('UNSPECIFIED'), ('UNSPECIFIED'), ('UNSPECIFIED') ) ;
#408 = DIRECTION ( 'NONE',  ( 2.446260868250245080E-29, -3.490347060884537253E-15, -1.000000000000000000 ) ) ;
#409 = CIRCLE ( 'NONE', #158, 0.3543499999999999428 ) ;
#410 = EDGE_CURVE ( 'NONE', #375, #128, #356, .T. ) ;
#411 = DIRECTION ( 'NONE',  ( 1.000000000000000000, 0.000000000000000000, 0.000000000000000000 ) ) ;
#412 = CIRCLE ( 'NONE', #339, 0.3533499999999999974 ) ;
ENDSEC;
END-ISO-10303-21;
