ISO-10303-21;
HEADER;
FILE_DESCRIPTION (( 'STEP AP203' ),
    '1' );
FILE_NAME ('48829.STEP',
    '2024-04-10T12:02:54',
    ( '' ),
    ( '' ),
    'SwSTEP 2.0',
    'SolidWorks 2023',
    '' );
FILE_SCHEMA (( 'CONFIG_CONTROL_DESIGN' ));
ENDSEC;

DATA;
#1 = CARTESIAN_POINT ( 'NONE',  ( 1.469713281730620382E-45, -2.094820434074137438E-31, -6.004882211767819206E-17 ) ) ;
#2 = DIRECTION ( 'NONE',  ( -2.447530575787832352E-29, 3.488528767423447098E-15, 1.000000000000000000 ) ) ;
#3 = AXIS2_PLACEMENT_3D ( 'NONE', #115, #243, #374 ) ;
#4 = CIRCLE ( 'NONE', #278, 0.09810000000000007603 ) ;
#5 = DIRECTION ( 'NONE',  ( -1.000000000000000000, 7.105427357601001070E-15, -4.926315508542082329E-29 ) ) ;
#6 = ADVANCED_FACE ( 'NONE', ( #218 ), #396, .T. ) ;
#7 = PERSON_AND_ORGANIZATION ( #12, #345 ) ;
#8 = CC_DESIGN_PERSON_AND_ORGANIZATION_ASSIGNMENT ( #249, #59, ( #149 ) ) ;
#9 = ORIENTED_EDGE ( 'NONE', *, *, #31, .F. ) ;
#10 = CIRCLE ( 'NONE', #71, 0.1180999999999999966 ) ;
#11 = ORIENTED_EDGE ( 'NONE', *, *, #352, .T. ) ;
#12 = PERSON ( 'UNSPECIFIED', 'UNSPECIFIED', 'UNSPECIFIED', ('UNSPECIFIED'), ('UNSPECIFIED'), ('UNSPECIFIED') ) ;
#13 = DIRECTION ( 'NONE',  ( 6.982962677686265133E-15, 1.000000000000000000, 0.000000000000000000 ) ) ;
#14 = EDGE_LOOP ( 'NONE', ( #30, #110, #381, #180 ) ) ;
#15 = CARTESIAN_POINT ( 'NONE',  ( 4.487835323999160412E-29, -7.339931844303818219E-15, -1.968500000000000361 ) ) ;
#16 = VERTEX_POINT ( 'NONE', #190 ) ;
#17 = DIRECTION ( 'NONE',  ( -2.445468806185136597E-29, 3.491481338843145583E-15, 1.000000000000000000 ) ) ;
#18 = EDGE_LOOP ( 'NONE', ( #246, #20, #120, #9 ) ) ;
#19 = CARTESIAN_POINT ( 'NONE',  ( 4.525095478964976833E-29, -6.460637069395356787E-15, -1.850400000000000045 ) ) ;
#20 = ORIENTED_EDGE ( 'NONE', *, *, #379, .T. ) ;
#21 = CARTESIAN_POINT ( 'NONE',  ( -0.1180999999999999966, 8.391509709326782957E-16, -5.809262341591043784E-30 ) ) ;
#22 = ORIENTED_EDGE ( 'NONE', *, *, #347, .T. ) ;
#23 = DIRECTION ( 'NONE',  ( -2.447530575787832352E-29, 3.488528767423447098E-15, 1.000000000000000000 ) ) ;
#24 = CIRCLE ( 'NONE', #353, 0.1180999999999999966 ) ;
#25 = EDGE_CURVE ( 'NONE', #250, #275, #311, .T. ) ;
#26 = EDGE_LOOP ( 'NONE', ( #173, #248, #28, #145, #302 ) ) ;
#27 = CARTESIAN_POINT ( 'NONE',  ( 0.000000000000000000, 0.000000000000000000, 0.000000000000000000 ) ) ;
#28 = ORIENTED_EDGE ( 'NONE', *, *, #166, .F. ) ;
#29 = CALENDAR_DATE ( 2024, 10, 4 ) ;
#30 = ORIENTED_EDGE ( 'NONE', *, *, #216, .F. ) ;
#31 = EDGE_CURVE ( 'NONE', #275, #405, #398, .T. ) ;
#32 = CIRCLE ( 'NONE', #324, 0.1180999999999999966 ) ;
#33 = DIRECTION ( 'NONE',  ( 1.000000000000000000, -6.982962677686265133E-15, 0.000000000000000000 ) ) ;
#34 = PERSON_AND_ORGANIZATION_ROLE ( 'design_owner' ) ;
#35 = DIRECTION ( 'NONE',  ( -2.445468806185136597E-29, 3.491481338843145583E-15, 1.000000000000000000 ) ) ;
#36 = DIRECTION ( 'NONE',  ( -6.982962677686265922E-15, -1.000000000000000000, 3.488528767423447492E-15 ) ) ;
#37 = CARTESIAN_POINT ( 'NONE',  ( -8.246878922347193706E-16, -0.1181000000000044237, -1.219499999999999584 ) ) ;
#38 = EDGE_CURVE ( 'NONE', #371, #83, #277, .T. ) ;
#39 = AXIS2_PLACEMENT_3D ( 'NONE', #303, #326, #288 ) ;
#40 = APPROVAL_PERSON_ORGANIZATION ( #409, #232, #220 ) ;
#41 = DATE_TIME_ROLE ( 'classification_date' ) ;
#42 = EDGE_CURVE ( 'NONE', #223, #16, #358, .T. ) ;
#43 = AXIS2_PLACEMENT_3D ( 'NONE', #349, #261, #362 ) ;
#44 = AXIS2_PLACEMENT_3D ( 'NONE', #53, #146, #322 ) ;
#45 = CARTESIAN_POINT ( 'NONE',  ( -8.177049295570318772E-16, -0.1171000000000042424, -1.220499999999999474 ) ) ;
#46 = VERTEX_POINT ( 'NONE', #45 ) ;
#47 = LINE ( 'NONE', #21, #330 ) ;
#48 = EDGE_LOOP ( 'NONE', ( #184, #342 ) ) ;
#49 = DIRECTION ( 'NONE',  ( -6.982962677686265922E-15, -1.000000000000000000, 3.499378301021686484E-15 ) ) ;
#50 = CC_DESIGN_DATE_AND_TIME_ASSIGNMENT ( #382, #151, ( #79 ) ) ;
#51 = DIRECTION ( 'NONE',  ( -2.447530575787832352E-29, 3.488528767423447098E-15, 1.000000000000000000 ) ) ;
#52 = ORIENTED_EDGE ( 'NONE', *, *, #159, .F. ) ;
#53 = CARTESIAN_POINT ( 'NONE',  ( 2.987211067749049427E-29, -4.257749360640316355E-15, -1.220499999999999918 ) ) ;
#54 = DIRECTION ( 'NONE',  ( -2.445468806185136877E-29, 3.491481338843145188E-15, 1.000000000000000000 ) ) ;
#55 = DIRECTION ( 'NONE',  ( -4.851104656540958753E-15, -0.7071067811865492381, -0.7071067811865457964 ) ) ;
#56 = ORIENTED_EDGE ( 'NONE', *, *, #370, .T. ) ;
#57 = APPROVAL_ROLE ( '' ) ;
#58 = EDGE_LOOP ( 'NONE', ( #407, #22, #60, #402 ) ) ;
#59 = PERSON_AND_ORGANIZATION_ROLE ( 'classification_officer' ) ;
#60 = ORIENTED_EDGE ( 'NONE', *, *, #108, .T. ) ;
#61 = COORDINATED_UNIVERSAL_TIME_OFFSET ( 5, 0, .BEHIND. ) ;
#62 = CARTESIAN_POINT ( 'NONE',  ( -8.177049295570318772E-16, -0.1171000000000042424, -1.220499999999999474 ) ) ;
#63 = ADVANCED_FACE ( 'NONE', ( #162 ), #106, .T. ) ;
#64 = DIRECTION ( 'NONE',  ( 4.937700262164542520E-15, 0.7071067811865443531, -0.7071067811865506814 ) ) ;
#65 = CONICAL_SURFACE ( 'NONE', #296, 0.1170999999999999958, 0.7853981633976361287 ) ;
#66 = PERSON_AND_ORGANIZATION_ROLE ( 'creator' ) ;
#67 = CARTESIAN_POINT ( 'NONE',  ( 0.000000000000000000, 0.000000000000000000, 0.000000000000000000 ) ) ;
#68 = ADVANCED_FACE ( 'NONE', ( #389 ), #128, .T. ) ;
#69 = FACE_OUTER_BOUND ( 'NONE', #14, .T. ) ;
#70 = DESIGN_CONTEXT ( 'detailed design', #363, 'design' ) ;
#71 = AXIS2_PLACEMENT_3D ( 'NONE', #198, #35, #160 ) ;
#72 = ORIENTED_EDGE ( 'NONE', *, *, #299, .F. ) ;
#73 = PRODUCT_RELATED_PRODUCT_CATEGORY ( 'detail', '', ( #227 ) ) ;
#74 = CARTESIAN_POINT ( 'NONE',  ( 0.000000000000000000, 0.000000000000000000, 0.000000000000000000 ) ) ;
#75 = PRODUCT_DEFINITION_FORMATION_WITH_SPECIFIED_SOURCE ( 'ANY', '', #227, .NOT_KNOWN. ) ;
#76 = DIMENSIONAL_EXPONENTS ( 1.000000000000000000, 0.000000000000000000, 0.000000000000000000, 0.000000000000000000, 0.000000000000000000, 0.000000000000000000, 0.000000000000000000 ) ;
#77 = DIRECTION ( 'NONE',  ( -6.982962677686265922E-15, -1.000000000000000000, 3.469747663417772269E-15 ) ) ;
#78 = CYLINDRICAL_SURFACE ( 'NONE', #285, 0.1180999999999999966 ) ;
#79 = PRODUCT_DEFINITION ( 'UNKNOWN', '', #75, #70 ) ;
#80 = PLANE ( 'NONE',  #259 ) ;
#81 = DIRECTION ( 'NONE',  ( -2.445468806185136597E-29, 3.491481338843145583E-15, 1.000000000000000000 ) ) ;
#82 = AXIS2_PLACEMENT_3D ( 'NONE', #1, #385, #257 ) ;
#83 = VERTEX_POINT ( 'NONE', #332 ) ;
#84 = ADVANCED_FACE ( 'NONE', ( #69 ), #169, .T. ) ;
#85 = CARTESIAN_POINT ( 'NONE',  ( 6.850286386810232439E-16, 0.09810000000000007603, -3.722490831430795103E-16 ) ) ;
#86 = ORIENTED_EDGE ( 'NONE', *, *, #170, .F. ) ;
#87 = VERTEX_POINT ( 'NONE', #291 ) ;
#88 = CARTESIAN_POINT ( 'NONE',  ( 1.469713281730620382E-45, -2.094820434074137438E-31, -6.004882211767819206E-17 ) ) ;
#89 = AXIS2_PLACEMENT_3D ( 'NONE', #67, #328, #36 ) ;
#90 = EDGE_LOOP ( 'NONE', ( #321, #56 ) ) ;
#91 = PERSON_AND_ORGANIZATION ( #12, #345 ) ;
#92 = ORIENTED_EDGE ( 'NONE', *, *, #224, .T. ) ;
#93 = CALENDAR_DATE ( 2024, 10, 4 ) ;
#94 = DIRECTION ( 'NONE',  ( -6.982962677686265922E-15, -1.000000000000000000, 3.488528767423447098E-15 ) ) ;
#95 = COORDINATED_UNIVERSAL_TIME_OFFSET ( 5, 0, .BEHIND. ) ;
#96 = PRODUCT_DEFINITION_SHAPE ( 'NONE', 'NONE',  #79 ) ;
#97 = CIRCLE ( 'NONE', #325, 0.1181000000000002603 ) ;
#98 = FACE_OUTER_BOUND ( 'NONE', #267, .T. ) ;
#99 = CIRCLE ( 'NONE', #235, 0.1180999999999999966 ) ;
#100 = ADVANCED_FACE ( 'NONE', ( #129 ), #105, .T. ) ;
#101 = DIRECTION ( 'NONE',  ( 1.000000000000000000, -6.982962677686266711E-15, 4.876176775795936353E-29 ) ) ;
#102 = CARTESIAN_POINT ( 'NONE',  ( 8.355982572539081628E-16, 0.1170999999999957492, -1.220500000000000362 ) ) ;
#103 = VECTOR ( 'NONE', #195, 39.37007874015748143 ) ;
#104 = ORIENTED_EDGE ( 'NONE', *, *, #286, .F. ) ;
#105 = CYLINDRICAL_SURFACE ( 'NONE', #210, 0.1180999999999999966 ) ;
#106 = CONICAL_SURFACE ( 'NONE', #43, 0.1180999999999999966, 0.7853981633974472798 ) ;
#107 = AXIS2_PLACEMENT_3D ( 'NONE', #19, #81, #212 ) ;
#108 = EDGE_CURVE ( 'NONE', #46, #215, #268, .T. ) ;
#109 = DIRECTION ( 'NONE',  ( -2.447530575787832352E-29, 3.488528767423447098E-15, 1.000000000000000000 ) ) ;
#110 = ORIENTED_EDGE ( 'NONE', *, *, #42, .T. ) ;
#111 = DIRECTION ( 'NONE',  ( -2.445468806185136597E-29, 3.491481338843145583E-15, 1.000000000000000000 ) ) ;
#112 = VERTEX_POINT ( 'NONE', #102 ) ;
#113 = DIRECTION ( 'NONE',  ( 6.982962677686265922E-15, 1.000000000000000000, -3.488528767423447098E-15 ) ) ;
#114 = EDGE_CURVE ( 'NONE', #371, #16, #32, .T. ) ;
#115 = CARTESIAN_POINT ( 'NONE',  ( 4.193975701051090586E-29, -6.934819437535407083E-15, -1.850400000000000045 ) ) ;
#116 = CARTESIAN_POINT ( 'NONE',  ( 8.391509709326943687E-16, 0.1180999999999959166, -1.219500000000000473 ) ) ;
#117 = LOCAL_TIME ( 8, 2, 54.00000000000000000, #320 ) ;
#118 = CARTESIAN_POINT ( 'NONE',  ( 4.193975701051090586E-29, -6.934819437535407083E-15, -1.850400000000000045 ) ) ;
#119 = PERSON_AND_ORGANIZATION_ROLE ( 'creator' ) ;
#120 = ORIENTED_EDGE ( 'NONE', *, *, #286, .T. ) ;
#121 = SECURITY_CLASSIFICATION_LEVEL ( 'unclassified' ) ;
#122 = DIRECTION ( 'NONE',  ( 1.000000000000000000, -6.982962677686265922E-15, 4.883557194083112340E-29 ) ) ;
#123 = VECTOR ( 'NONE', #147, 39.37007874015748143 ) ;
#124 = AXIS2_PLACEMENT_3D ( 'NONE', #307, #313, #141 ) ;
#125 = CC_DESIGN_APPROVAL ( #272, ( #75 ) ) ;
#126 = ORIENTED_EDGE ( 'NONE', *, *, #159, .T. ) ;
#127 = DIRECTION ( 'NONE',  ( 0.000000000000000000, 0.000000000000000000, 1.000000000000000000 ) ) ;
#128 = CYLINDRICAL_SURFACE ( 'NONE', #234, 0.1181000000000000799 ) ;
#129 = FACE_OUTER_BOUND ( 'NONE', #26, .T. ) ;
#130 = CONICAL_SURFACE ( 'NONE', #44, 0.1170999999999999958, 0.7853981633976361287 ) ;
#131 = DIRECTION ( 'NONE',  ( -2.445468806185136597E-29, 3.491481338843145583E-15, 1.000000000000000000 ) ) ;
#132 = DIRECTION ( 'NONE',  ( -6.982962677686265922E-15, -1.000000000000000000, 3.488528767423447492E-15 ) ) ;
#133 = AXIS2_PLACEMENT_3D ( 'NONE', #256, #383, #94 ) ;
#134 = ORIENTED_EDGE ( 'NONE', *, *, #108, .F. ) ;
#135 = VECTOR ( 'NONE', #109, 39.37007874015748143 ) ;
#136 = ORIENTED_EDGE ( 'NONE', *, *, #236, .F. ) ;
#137 = CARTESIAN_POINT ( 'NONE',  ( 0.000000000000000000, 0.000000000000000000, 0.000000000000000000 ) ) ;
#138 = ADVANCED_FACE ( 'NONE', ( #98 ), #157, .F. ) ;
#139 = ORIENTED_EDGE ( 'NONE', *, *, #384, .T. ) ;
#140 = ADVANCED_BREP_SHAPE_REPRESENTATION ( '48829', ( #185, #193, #211 ), #337 ) ;
#141 = DIRECTION ( 'NONE',  ( 1.000000000000000000, -6.982962677686265133E-15, 0.000000000000000000 ) ) ;
#142 = CIRCLE ( 'NONE', #187, 0.1170999999999999958 ) ;
#143 = CARTESIAN_POINT ( 'NONE',  ( -8.246878922347485584E-16, -0.1181000000000000799, 4.119952474327094321E-16 ) ) ;
#144 = CARTESIAN_POINT ( 'NONE',  ( 0.000000000000000000, 0.000000000000000000, 0.000000000000000000 ) ) ;
#145 = ORIENTED_EDGE ( 'NONE', *, *, #38, .F. ) ;
#146 = DIRECTION ( 'NONE',  ( -2.447530575787832352E-29, 3.488528767423447098E-15, 1.000000000000000000 ) ) ;
#147 = DIRECTION ( 'NONE',  ( -2.447530575787832352E-29, 3.488528767423447098E-15, 1.000000000000000000 ) ) ;
#148 = CARTESIAN_POINT ( 'NONE',  ( 8.320455435751069684E-16, 0.1170999999999957492, -1.220500000000000362 ) ) ;
#149 = SECURITY_CLASSIFICATION ( '', '', #121 ) ;
#150 = ORIENTED_EDGE ( 'NONE', *, *, #312, .F. ) ;
#151 = DATE_TIME_ROLE ( 'creation_date' ) ;
#152 = DIRECTION ( 'NONE',  ( -6.982962677686265922E-15, -1.000000000000000000, 3.505890868245046092E-15 ) ) ;
#153 = CC_DESIGN_PERSON_AND_ORGANIZATION_ASSIGNMENT ( #225, #119, ( #79 ) ) ;
#154 = DIRECTION ( 'NONE',  ( -2.447530575787832352E-29, 3.488528767423447098E-15, 1.000000000000000000 ) ) ;
#155 = EDGE_LOOP ( 'NONE', ( #314, #284, #72, #361 ) ) ;
#156 = CIRCLE ( 'NONE', #107, 0.1180999999999999966 ) ;
#157 = PLANE ( 'NONE',  #133 ) ;
#158 = PERSON_AND_ORGANIZATION ( #12, #345 ) ;
#159 = EDGE_CURVE ( 'NONE', #269, #275, #226, .T. ) ;
#160 = DIRECTION ( 'NONE',  ( 1.000000000000000000, -6.982962677686265133E-15, 0.000000000000000000 ) ) ;
#161 = DIRECTION ( 'NONE',  ( 1.000000000000000000, 0.000000000000000000, 0.000000000000000000 ) ) ;
#162 = FACE_OUTER_BOUND ( 'NONE', #253, .T. ) ;
#163 = LOCAL_TIME ( 8, 2, 54.00000000000000000, #95 ) ;
#164 = CARTESIAN_POINT ( 'NONE',  ( 4.193975701051090586E-29, -6.934819437535407083E-15, -1.850400000000000045 ) ) ;
#165 = COORDINATED_UNIVERSAL_TIME_OFFSET ( 5, 0, .BEHIND. ) ;
#166 = EDGE_CURVE ( 'NONE', #83, #205, #10, .T. ) ;
#167 = VECTOR ( 'NONE', #54, 39.37007874015748143 ) ;
#168 = ORIENTED_EDGE ( 'NONE', *, *, #38, .T. ) ;
#169 = SPHERICAL_SURFACE ( 'NONE', #39, 0.1181000000000002603 ) ;
#170 = EDGE_CURVE ( 'NONE', #87, #269, #204, .T. ) ;
#171 = ORIENTED_EDGE ( 'NONE', *, *, #347, .F. ) ;
#172 = CARTESIAN_POINT ( 'NONE',  ( 2.987211067749049427E-29, -4.257749360640316355E-15, -1.220499999999999918 ) ) ;
#173 = ORIENTED_EDGE ( 'NONE', *, *, #360, .T. ) ;
#174 = CARTESIAN_POINT ( 'NONE',  ( 4.525095478964976833E-29, -6.460637069395356787E-15, -1.850400000000000045 ) ) ;
#175 = AXIS2_PLACEMENT_3D ( 'NONE', #118, #122, #13 ) ;
#176 = ADVANCED_FACE ( 'NONE', ( #355 ), #230, .T. ) ;
#177 = VECTOR ( 'NONE', #207, 39.37007874015748143 ) ;
#178 = LOCAL_TIME ( 8, 2, 54.00000000000000000, #165 ) ;
#179 = CARTESIAN_POINT ( 'NONE',  ( 2.984763537173261926E-29, -4.254260831872893522E-15, -1.219500000000000028 ) ) ;
#180 = ORIENTED_EDGE ( 'NONE', *, *, #384, .F. ) ;
#181 = DIRECTION ( 'NONE',  ( -2.447530575787832352E-29, 3.488528767423447098E-15, 1.000000000000000000 ) ) ;
#182 = ORIENTED_EDGE ( 'NONE', *, *, #247, .F. ) ;
#183 = FACE_OUTER_BOUND ( 'NONE', #317, .T. ) ;
#184 = ORIENTED_EDGE ( 'NONE', *, *, #410, .T. ) ;
#185 = MANIFOLD_SOLID_BREP ( 'Body-Move/Copy2[1]', #316 ) ;
#186 = CLOSED_SHELL ( 'NONE', ( #403, #68, #63, #209, #176, #189, #138, #334 ) ) ;
#187 = AXIS2_PLACEMENT_3D ( 'NONE', #214, #394, #49 ) ;
#188 =( NAMED_UNIT ( * ) PLANE_ANGLE_UNIT ( ) SI_UNIT ( $, .RADIAN. ) );
#189 = ADVANCED_FACE ( 'NONE', ( #329 ), #65, .T. ) ;
#190 = CARTESIAN_POINT ( 'NONE',  ( 8.246878922347925374E-16, 0.1180999999999934463, -1.850400000000000489 ) ) ;
#191 = PERSON_AND_ORGANIZATION_ROLE ( 'design_supplier' ) ;
#192 = ORIENTED_EDGE ( 'NONE', *, *, #224, .F. ) ;
#193 = MANIFOLD_SOLID_BREP ( 'Body-Move/Copy2[2]', #186 ) ;
#194 = COORDINATED_UNIVERSAL_TIME_OFFSET ( 5, 0, .BEHIND. ) ;
#195 = DIRECTION ( 'NONE',  ( -4.937700262165474954E-15, -0.7071067811866779129, 0.7071067811864171215 ) ) ;
#196 = CIRCLE ( 'NONE', #244, 0.1170999999999999958 ) ;
#197 = DIRECTION ( 'NONE',  ( -6.982962677686265922E-15, -1.000000000000000000, 3.488528767423446703E-15 ) ) ;
#198 = CARTESIAN_POINT ( 'NONE',  ( 2.984694677948959472E-29, -4.261352974058059028E-15, -1.220499999999999918 ) ) ;
#199 = SHAPE_DEFINITION_REPRESENTATION ( #96, #140 ) ;
#200 = DIRECTION ( 'NONE',  ( 6.982962677686265922E-15, 1.000000000000000000, -3.505890868245046092E-15 ) ) ;
#201 = APPROVAL_DATE_TIME ( #357, #290 ) ;
#202 = CC_DESIGN_PERSON_AND_ORGANIZATION_ASSIGNMENT ( #350, #66, ( #75 ) ) ;
#203 = DIRECTION ( 'NONE',  ( -2.447530575787832352E-29, 3.488528767423447098E-15, 1.000000000000000000 ) ) ;
#204 = CIRCLE ( 'NONE', #82, 0.09810000000000007603 ) ;
#205 = VERTEX_POINT ( 'NONE', #387 ) ;
#206 = CARTESIAN_POINT ( 'NONE',  ( -8.102248135368172434E-16, -0.1181000000000000660, -0.01999999999999961184 ) ) ;
#207 = DIRECTION ( 'NONE',  ( 5.024295867789005867E-15, 0.7071067811866827979, 0.7071067811864122366 ) ) ;
#208 = CARTESIAN_POINT ( 'NONE',  ( 2.984694677948959472E-29, -4.261352974058059028E-15, -1.220499999999999918 ) ) ;
#209 = ADVANCED_FACE ( 'NONE', ( #297 ), #392, .T. ) ;
#210 = AXIS2_PLACEMENT_3D ( 'NONE', #137, #131, #101 ) ;
#211 = AXIS2_PLACEMENT_3D ( 'NONE', #27, #127, #161 ) ;
#212 = DIRECTION ( 'NONE',  ( 1.000000000000000000, -6.982962677686265133E-15, 0.000000000000000000 ) ) ;
#213 = CARTESIAN_POINT ( 'NONE',  ( 8.391509709326787887E-16, 0.1181000000000000799, -4.119952474327094321E-16 ) ) ;
#214 = CARTESIAN_POINT ( 'NONE',  ( 2.987211067749049427E-29, -4.257749360640316355E-15, -1.220499999999999918 ) ) ;
#215 = VERTEX_POINT ( 'NONE', #37 ) ;
#216 = EDGE_CURVE ( 'NONE', #223, #364, #97, .T. ) ;
#217 = APPROVAL_DATE_TIME ( #228, #232 ) ;
#218 = FACE_OUTER_BOUND ( 'NONE', #155, .T. ) ;
#219 = CC_DESIGN_APPROVAL ( #232, ( #79 ) ) ;
#220 = APPROVAL_ROLE ( '' ) ;
#221 = ORIENTED_EDGE ( 'NONE', *, *, #410, .F. ) ;
#222 =( LENGTH_UNIT ( ) NAMED_UNIT ( * ) SI_UNIT ( $, .METRE. ) );
#223 = VERTEX_POINT ( 'NONE', #15 ) ;
#224 = EDGE_CURVE ( 'NONE', #87, #405, #391, .T. ) ;
#225 = PERSON_AND_ORGANIZATION ( #12, #345 ) ;
#226 = LINE ( 'NONE', #351, #308 ) ;
#227 = PRODUCT ( '48829', '48829', '', ( #343 ) ) ;
#228 = DATE_AND_TIME ( #346, #163 ) ;
#229 = AXIS2_PLACEMENT_3D ( 'NONE', #208, #17, #333 ) ;
#230 = CYLINDRICAL_SURFACE ( 'NONE', #89, 0.1181000000000000799 ) ;
#231 = CARTESIAN_POINT ( 'NONE',  ( 4.895061151575671605E-31, -6.977057534846901788E-17, -0.02000000000000002470 ) ) ;
#232 = APPROVAL ( #292, 'UNSPECIFIED' ) ;
#233 = UNCERTAINTY_MEASURE_WITH_UNIT (LENGTH_MEASURE( 1.000000000000000082E-05 ), #287, 'distance_accuracy_value', 'NONE');
#234 = AXIS2_PLACEMENT_3D ( 'NONE', #74, #203, #132 ) ;
#235 = AXIS2_PLACEMENT_3D ( 'NONE', #242, #181, #397 ) ;
#236 = EDGE_CURVE ( 'NONE', #405, #275, #99, .T. ) ;
#237 = EDGE_LOOP ( 'NONE', ( #348, #339, #136, #104 ) ) ;
#238 = CARTESIAN_POINT ( 'NONE',  ( -8.391509709326354014E-16, -0.1181000000000068245, -1.850399999999999379 ) ) ;
#239 = AXIS2_PLACEMENT_3D ( 'NONE', #395, #51, #77 ) ;
#240 = CARTESIAN_POINT ( 'NONE',  ( -0.1180999999999999966, -4.521844050794030499E-15, -1.850400000000000045 ) ) ;
#241 = LINE ( 'NONE', #143, #135 ) ;
#242 = CARTESIAN_POINT ( 'NONE',  ( 4.895061151575671605E-31, -6.977057534846901788E-17, -0.02000000000000002470 ) ) ;
#243 = DIRECTION ( 'NONE',  ( -1.000000000000000000, 6.982962677686265922E-15, -4.883557194083112901E-29 ) ) ;
#244 = AXIS2_PLACEMENT_3D ( 'NONE', #172, #23, #369 ) ;
#245 = CARTESIAN_POINT ( 'NONE',  ( 7.548582654578858519E-16, 0.09810000000000007603, -4.022734942019186803E-16 ) ) ;
#246 = ORIENTED_EDGE ( 'NONE', *, *, #25, .F. ) ;
#247 = EDGE_CURVE ( 'NONE', #215, #250, #359, .T. ) ;
#248 = ORIENTED_EDGE ( 'NONE', *, *, #294, .T. ) ;
#249 = PERSON_AND_ORGANIZATION ( #12, #345 ) ;
#250 = VERTEX_POINT ( 'NONE', #116 ) ;
#251 = CIRCLE ( 'NONE', #229, 0.1180999999999999966 ) ;
#252 =( NAMED_UNIT ( * ) SI_UNIT ( $, .STERADIAN. ) SOLID_ANGLE_UNIT ( ) );
#253 = EDGE_LOOP ( 'NONE', ( #86, #92, #393, #52 ) ) ;
#254 = APPLICATION_PROTOCOL_DEFINITION ( 'international standard', 'config_control_design', 1994, #363 ) ;
#255 = CC_DESIGN_PERSON_AND_ORGANIZATION_ASSIGNMENT ( #158, #191, ( #75 ) ) ;
#256 = CARTESIAN_POINT ( 'NONE',  ( 2.987211067749049988E-29, -4.257749360640317144E-15, -1.220499999999999918 ) ) ;
#257 = DIRECTION ( 'NONE',  ( -6.982962677686265922E-15, -1.000000000000000000, 3.488528767423446703E-15 ) ) ;
#258 = CALENDAR_DATE ( 2024, 10, 4 ) ;
#259 = AXIS2_PLACEMENT_3D ( 'NONE', #335, #270, #365 ) ;
#260 = CC_DESIGN_APPROVAL ( #290, ( #149 ) ) ;
#261 = DIRECTION ( 'NONE',  ( 2.447530575787832352E-29, -3.488528767423447098E-15, -1.000000000000000000 ) ) ;
#262 = ADVANCED_FACE ( 'NONE', ( #183 ), #78, .T. ) ;
#263 = APPROVAL_ROLE ( '' ) ;
#264 = DIRECTION ( 'NONE',  ( -6.982962677686265922E-15, -1.000000000000000000, 3.499378301021686484E-15 ) ) ;
#265 = ADVANCED_FACE ( 'NONE', ( #305 ), #80, .F. ) ;
#266 = LOCAL_TIME ( 8, 2, 54.00000000000000000, #61 ) ;
#267 = EDGE_LOOP ( 'NONE', ( #150, #171 ) ) ;
#268 = LINE ( 'NONE', #62, #103 ) ;
#269 = VERTEX_POINT ( 'NONE', #245 ) ;
#270 = DIRECTION ( 'NONE',  ( 2.438088387897960049E-29, -3.491481338843145188E-15, -1.000000000000000000 ) ) ;
#271 = VECTOR ( 'NONE', #55, 39.37007874015748143 ) ;
#272 = APPROVAL ( #283, 'UNSPECIFIED' ) ;
#273 = DIRECTION ( 'NONE',  ( -2.445468806185136877E-29, 3.491481338843145188E-15, 1.000000000000000000 ) ) ;
#274 = DIRECTION ( 'NONE',  ( -6.982962677686265922E-15, -1.000000000000000000, 3.469747663417772269E-15 ) ) ;
#275 = VERTEX_POINT ( 'NONE', #376 ) ;
#276 = DIRECTION ( 'NONE',  ( 1.000000000000000000, -6.982962677686266711E-15, 4.876176775795936353E-29 ) ) ;
#277 = LINE ( 'NONE', #282, #167 ) ;
#278 = AXIS2_PLACEMENT_3D ( 'NONE', #88, #154, #197 ) ;
#279 = LOCAL_TIME ( 8, 2, 54.00000000000000000, #194 ) ;
#280 = DIRECTION ( 'NONE',  ( 1.000000000000000000, -6.982962677686265133E-15, 0.000000000000000000 ) ) ;
#281 = ORIENTED_EDGE ( 'NONE', *, *, #31, .T. ) ;
#282 = CARTESIAN_POINT ( 'NONE',  ( 0.1180999999999999966, -8.246878922347480654E-16, 5.758764772215000440E-30 ) ) ;
#283 = APPROVAL_STATUS ( 'not_yet_approved' ) ;
#284 = ORIENTED_EDGE ( 'NONE', *, *, #216, .T. ) ;
#285 = AXIS2_PLACEMENT_3D ( 'NONE', #144, #315, #276 ) ;
#286 = EDGE_CURVE ( 'NONE', #215, #405, #241, .T. ) ;
#287 =( CONVERSION_BASED_UNIT ( 'INCH', #412 ) LENGTH_UNIT ( ) NAMED_UNIT ( #76 ) );
#288 = DIRECTION ( 'NONE',  ( 6.982962677686265922E-15, 1.000000000000000000, -4.626330217890359870E-15 ) ) ;
#289 = CARTESIAN_POINT ( 'NONE',  ( -8.102248135368172434E-16, -0.1181000000000000660, -0.01999999999999961184 ) ) ;
#290 = APPROVAL ( #298, 'UNSPECIFIED' ) ;
#291 = CARTESIAN_POINT ( 'NONE',  ( -7.416198335591024051E-16, -0.09810000000000007603, 2.821758499665623454E-16 ) ) ;
#292 = APPROVAL_STATUS ( 'not_yet_approved' ) ;
#293 = CARTESIAN_POINT ( 'NONE',  ( 2.987211067749049427E-29, -4.257749360640316355E-15, -1.220499999999999918 ) ) ;
#294 = EDGE_CURVE ( 'NONE', #309, #205, #47, .T. ) ;
#295 = DATE_AND_TIME ( #29, #117 ) ;
#296 = AXIS2_PLACEMENT_3D ( 'NONE', #293, #2, #264 ) ;
#297 = FACE_OUTER_BOUND ( 'NONE', #400, .T. ) ;
#298 = APPROVAL_STATUS ( 'not_yet_approved' ) ;
#299 = EDGE_CURVE ( 'NONE', #309, #364, #399, .T. ) ;
#300 = ORIENTED_EDGE ( 'NONE', *, *, #299, .T. ) ;
#301 = AXIS2_PLACEMENT_3D ( 'NONE', #85, #372, #113 ) ;
#302 = ORIENTED_EDGE ( 'NONE', *, *, #114, .T. ) ;
#303 = CARTESIAN_POINT ( 'NONE',  ( 4.193975701051090586E-29, -6.934819437535407083E-15, -1.850400000000000045 ) ) ;
#304 = EDGE_LOOP ( 'NONE', ( #377, #11, #182, #134 ) ) ;
#305 = FACE_OUTER_BOUND ( 'NONE', #90, .T. ) ;
#306 = CC_DESIGN_PERSON_AND_ORGANIZATION_ASSIGNMENT ( #91, #34, ( #227 ) ) ;
#307 = CARTESIAN_POINT ( 'NONE',  ( 4.525095478964976833E-29, -6.460637069395356787E-15, -1.850400000000000045 ) ) ;
#308 = VECTOR ( 'NONE', #64, 39.37007874015748143 ) ;
#309 = VERTEX_POINT ( 'NONE', #240 ) ;
#310 = DIRECTION ( 'NONE',  ( -2.447530575787832352E-29, 3.488528767423447098E-15, 1.000000000000000000 ) ) ;
#311 = LINE ( 'NONE', #213, #123 ) ;
#312 = EDGE_CURVE ( 'NONE', #46, #112, #196, .T. ) ;
#313 = DIRECTION ( 'NONE',  ( -2.445468806185136597E-29, 3.491481338843145583E-15, 1.000000000000000000 ) ) ;
#314 = ORIENTED_EDGE ( 'NONE', *, *, #42, .F. ) ;
#315 = DIRECTION ( 'NONE',  ( -2.445468806185136597E-29, 3.491481338843145583E-15, 1.000000000000000000 ) ) ;
#316 = CLOSED_SHELL ( 'NONE', ( #100, #6, #84, #265, #262 ) ) ;
#317 = EDGE_LOOP ( 'NONE', ( #331, #300, #139, #168, #380 ) ) ;
#318 = CIRCLE ( 'NONE', #408, 0.1181000000000001632 ) ;
#319 = DIRECTION ( 'NONE',  ( -2.447530575787832352E-29, 3.488528767423447098E-15, 1.000000000000000000 ) ) ;
#320 = COORDINATED_UNIVERSAL_TIME_OFFSET ( 5, 0, .BEHIND. ) ;
#321 = ORIENTED_EDGE ( 'NONE', *, *, #166, .T. ) ;
#322 = DIRECTION ( 'NONE',  ( -6.982962677686265922E-15, -1.000000000000000000, 3.499378301021686484E-15 ) ) ;
#323 = CARTESIAN_POINT ( 'NONE',  ( 4.525095478964976833E-29, -6.460637069395356787E-15, -1.850400000000000045 ) ) ;
#324 = AXIS2_PLACEMENT_3D ( 'NONE', #323, #411, #33 ) ;
#325 = AXIS2_PLACEMENT_3D ( 'NONE', #164, #5, #388 ) ;
#326 = DIRECTION ( 'NONE',  ( -1.000000000000000000, 6.982962677686265922E-15, -4.883557194083112901E-29 ) ) ;
#327 = DATE_AND_TIME ( #93, #279 ) ;
#328 = DIRECTION ( 'NONE',  ( -2.447530575787832352E-29, 3.488528767423447098E-15, 1.000000000000000000 ) ) ;
#329 = FACE_OUTER_BOUND ( 'NONE', #58, .T. ) ;
#330 = VECTOR ( 'NONE', #273, 39.37007874015748143 ) ;
#331 = ORIENTED_EDGE ( 'NONE', *, *, #294, .F. ) ;
#332 = CARTESIAN_POINT ( 'NONE',  ( 0.1180999999999999966, -5.086040866292807290E-15, -1.220499999999999918 ) ) ;
#333 = DIRECTION ( 'NONE',  ( 1.000000000000000000, -6.982962677686265133E-15, 0.000000000000000000 ) ) ;
#334 = ADVANCED_FACE ( 'NONE', ( #401 ), #368, .F. ) ;
#335 = CARTESIAN_POINT ( 'NONE',  ( 8.246878922347778449E-16, 0.1180999999999957362, -1.220500000000000362 ) ) ;
#336 = CARTESIAN_POINT ( 'NONE',  ( 0.1180999999999999966, -6.185682913961456170E-15, -1.850400000000000045 ) ) ;
#337 =( GEOMETRIC_REPRESENTATION_CONTEXT ( 3 ) GLOBAL_UNCERTAINTY_ASSIGNED_CONTEXT ( ( #233 ) ) GLOBAL_UNIT_ASSIGNED_CONTEXT ( ( #287, #188, #252 ) ) REPRESENTATION_CONTEXT ( 'NONE', 'WORKASPACE' ) );
#338 = FACE_OUTER_BOUND ( 'NONE', #304, .T. ) ;
#339 = ORIENTED_EDGE ( 'NONE', *, *, #25, .T. ) ;
#340 = LINE ( 'NONE', #148, #177 ) ;
#341 = APPLICATION_CONTEXT ( 'configuration controlled 3d designs of mechanical parts and assemblies' ) ;
#342 = ORIENTED_EDGE ( 'NONE', *, *, #170, .T. ) ;
#343 = MECHANICAL_CONTEXT ( 'NONE', #341, 'mechanical' ) ;
#344 = CARTESIAN_POINT ( 'NONE',  ( 4.895061151575671605E-31, -6.977057534846901788E-17, -0.02000000000000002470 ) ) ;
#345 = ORGANIZATION ( 'UNSPECIFIED', 'UNSPECIFIED', '' ) ;
#346 = CALENDAR_DATE ( 2024, 10, 4 ) ;
#347 = EDGE_CURVE ( 'NONE', #112, #46, #142, .T. ) ;
#348 = ORIENTED_EDGE ( 'NONE', *, *, #247, .T. ) ;
#349 = CARTESIAN_POINT ( 'NONE',  ( 4.895061151575671605E-31, -6.977057534846901788E-17, -0.02000000000000002470 ) ) ;
#350 = PERSON_AND_ORGANIZATION ( #12, #345 ) ;
#351 = CARTESIAN_POINT ( 'NONE',  ( 8.246878922347484598E-16, 0.1180999999999999273, -0.02000000000000044104 ) ) ;
#352 = EDGE_CURVE ( 'NONE', #112, #250, #340, .T. ) ;
#353 = AXIS2_PLACEMENT_3D ( 'NONE', #174, #111, #280 ) ;
#354 = APPROVAL_DATE_TIME ( #327, #272 ) ;
#355 = FACE_OUTER_BOUND ( 'NONE', #18, .T. ) ;
#356 = DIRECTION ( 'NONE',  ( 2.447530575787832352E-29, -3.488528767423447098E-15, -1.000000000000000000 ) ) ;
#357 = DATE_AND_TIME ( #258, #178 ) ;
#358 = CIRCLE ( 'NONE', #175, 0.1181000000000002603 ) ;
#359 = CIRCLE ( 'NONE', #239, 0.1181000000000001632 ) ;
#360 = EDGE_CURVE ( 'NONE', #16, #309, #24, .T. ) ;
#361 = ORIENTED_EDGE ( 'NONE', *, *, #360, .F. ) ;
#362 = DIRECTION ( 'NONE',  ( 6.982962677686265922E-15, 1.000000000000000000, -3.505890868245046092E-15 ) ) ;
#363 = APPLICATION_CONTEXT ( 'configuration controlled 3d designs of mechanical parts and assemblies' ) ;
#364 = VERTEX_POINT ( 'NONE', #238 ) ;
#365 = DIRECTION ( 'NONE',  ( -1.000000000000000000, 6.982962677686265922E-15, -4.876176775795935793E-29 ) ) ;
#366 = AXIS2_PLACEMENT_3D ( 'NONE', #231, #356, #200 ) ;
#367 = CC_DESIGN_SECURITY_CLASSIFICATION ( #149, ( #75 ) ) ;
#368 = PLANE ( 'NONE',  #301 ) ;
#369 = DIRECTION ( 'NONE',  ( -6.982962677686265922E-15, -1.000000000000000000, 3.499378301021686484E-15 ) ) ;
#370 = EDGE_CURVE ( 'NONE', #205, #83, #251, .T. ) ;
#371 = VERTEX_POINT ( 'NONE', #336 ) ;
#372 = DIRECTION ( 'NONE',  ( 2.447530575787832072E-29, -3.488528767423447098E-15, -1.000000000000000000 ) ) ;
#373 = AXIS2_PLACEMENT_3D ( 'NONE', #344, #319, #152 ) ;
#374 = DIRECTION ( 'NONE',  ( 6.982962677686265922E-15, 1.000000000000000000, -4.626330217890359870E-15 ) ) ;
#375 = APPROVAL_PERSON_ORGANIZATION ( #406, #272, #57 ) ;
#376 = CARTESIAN_POINT ( 'NONE',  ( 8.246878922347484598E-16, 0.1180999999999999273, -0.02000000000000044104 ) ) ;
#377 = ORIENTED_EDGE ( 'NONE', *, *, #312, .T. ) ;
#378 = APPLICATION_PROTOCOL_DEFINITION ( 'international standard', 'config_control_design', 1994, #341 ) ;
#379 = EDGE_CURVE ( 'NONE', #250, #215, #318, .T. ) ;
#380 = ORIENTED_EDGE ( 'NONE', *, *, #370, .F. ) ;
#381 = ORIENTED_EDGE ( 'NONE', *, *, #114, .F. ) ;
#382 = DATE_AND_TIME ( #404, #266 ) ;
#383 = DIRECTION ( 'NONE',  ( -2.447530575787832072E-29, 3.488528767423447098E-15, 1.000000000000000000 ) ) ;
#384 = EDGE_CURVE ( 'NONE', #364, #371, #156, .T. ) ;
#385 = DIRECTION ( 'NONE',  ( -2.447530575787832352E-29, 3.488528767423447098E-15, 1.000000000000000000 ) ) ;
#386 = APPROVAL_PERSON_ORGANIZATION ( #7, #290, #263 ) ;
#387 = CARTESIAN_POINT ( 'NONE',  ( -0.1180999999999999966, -4.521844050794029710E-15, -1.220499999999999918 ) ) ;
#388 = DIRECTION ( 'NONE',  ( -7.105427357601000281E-15, -1.000000000000000000, 0.000000000000000000 ) ) ;
#389 = FACE_OUTER_BOUND ( 'NONE', #237, .T. ) ;
#390 = CC_DESIGN_DATE_AND_TIME_ASSIGNMENT ( #295, #41, ( #149 ) ) ;
#391 = LINE ( 'NONE', #206, #271 ) ;
#392 = CONICAL_SURFACE ( 'NONE', #366, 0.1180999999999999966, 0.7853981633974472798 ) ;
#393 = ORIENTED_EDGE ( 'NONE', *, *, #236, .T. ) ;
#394 = DIRECTION ( 'NONE',  ( -2.447530575787832352E-29, 3.488528767423447098E-15, 1.000000000000000000 ) ) ;
#395 = CARTESIAN_POINT ( 'NONE',  ( 2.984763537173261926E-29, -4.254260831872893522E-15, -1.219500000000000028 ) ) ;
#396 = SPHERICAL_SURFACE ( 'NONE', #3, 0.1181000000000002603 ) ;
#397 = DIRECTION ( 'NONE',  ( -6.982962677686265922E-15, -1.000000000000000000, 3.505890868245046092E-15 ) ) ;
#398 = CIRCLE ( 'NONE', #373, 0.1180999999999999966 ) ;
#399 = CIRCLE ( 'NONE', #124, 0.1180999999999999966 ) ;
#400 = EDGE_LOOP ( 'NONE', ( #192, #221, #126, #281 ) ) ;
#401 = FACE_OUTER_BOUND ( 'NONE', #48, .T. ) ;
#402 = ORIENTED_EDGE ( 'NONE', *, *, #379, .F. ) ;
#403 = ADVANCED_FACE ( 'NONE', ( #338 ), #130, .T. ) ;
#404 = CALENDAR_DATE ( 2024, 10, 4 ) ;
#405 = VERTEX_POINT ( 'NONE', #289 ) ;
#406 = PERSON_AND_ORGANIZATION ( #12, #345 ) ;
#407 = ORIENTED_EDGE ( 'NONE', *, *, #352, .F. ) ;
#408 = AXIS2_PLACEMENT_3D ( 'NONE', #179, #310, #274 ) ;
#409 = PERSON_AND_ORGANIZATION ( #12, #345 ) ;
#410 = EDGE_CURVE ( 'NONE', #269, #87, #4, .T. ) ;
#411 = DIRECTION ( 'NONE',  ( -2.445468806185136597E-29, 3.491481338843145583E-15, 1.000000000000000000 ) ) ;
#412 = LENGTH_MEASURE_WITH_UNIT ( LENGTH_MEASURE( 0.02539999999999999897 ), #222 );
ENDSEC;
END-ISO-10303-21;
