ISO-10303-21;
HEADER;
FILE_DESCRIPTION (( 'STEP AP203' ),
    '1' );
FILE_NAME ('48835.STEP',
    '2024-04-10T12:03:31',
    ( '' ),
    ( '' ),
    'SwSTEP 2.0',
    'SolidWorks 2023',
    '' );
FILE_SCHEMA (( 'CONFIG_CONTROL_DESIGN' ));
ENDSEC;

DATA;
#1 = CARTESIAN_POINT ( 'NONE',  ( 1.579546157692633621E-15, 0.2162000000000000033, -7.505897529677877918E-16 ) ) ;
#2 = EDGE_LOOP ( 'NONE', ( #110, #11, #339, #160 ) ) ;
#3 = DIRECTION ( 'NONE',  ( -2.445468806185136597E-29, 3.491481338843145583E-15, 1.000000000000000000 ) ) ;
#4 = CC_DESIGN_DATE_AND_TIME_ASSIGNMENT ( #394, #241, ( #89 ) ) ;
#5 = EDGE_CURVE ( 'NONE', #208, #250, #243, .T. ) ;
#6 = DIRECTION ( 'NONE',  ( 6.982962677686265922E-15, 1.000000000000000000, -3.487819265831411744E-15 ) ) ;
#7 = CIRCLE ( 'NONE', #305, 0.2362000000000002709 ) ;
#8 = CIRCLE ( 'NONE', #16, 0.2362000000000002709 ) ;
#9 = APPROVAL_ROLE ( '' ) ;
#10 = CARTESIAN_POINT ( 'NONE',  ( 4.814794597958552648E-29, -6.871707554627780950E-15, -1.968500000000000139 ) ) ;
#11 = ORIENTED_EDGE ( 'NONE', *, *, #407, .T. ) ;
#12 = CC_DESIGN_DATE_AND_TIME_ASSIGNMENT ( #350, #68, ( #150 ) ) ;
#13 = DATE_AND_TIME ( #267, #194 ) ;
#14 = DIRECTION ( 'NONE',  ( 2.445920547604039721E-29, -3.490834419419751744E-15, -1.000000000000000000 ) ) ;
#15 = VERTEX_POINT ( 'NONE', #146 ) ;
#16 = AXIS2_PLACEMENT_3D ( 'NONE', #353, #97, #225 ) ;
#17 = LOCAL_TIME ( 8, 3, 31.00000000000000000, #223 ) ;
#18 = DIRECTION ( 'NONE',  ( 1.000000000000000000, -6.982962677686265133E-15, 0.000000000000000000 ) ) ;
#19 = DIRECTION ( 'NONE',  ( -2.445920547604039721E-29, 3.490834419419751744E-15, 1.000000000000000000 ) ) ;
#20 = DIRECTION ( 'NONE',  ( 1.000000000000000000, -6.982962677686265133E-15, 0.000000000000000000 ) ) ;
#21 = ORIENTED_EDGE ( 'NONE', *, *, #54, .T. ) ;
#22 = DIRECTION ( 'NONE',  ( -6.982962677686265922E-15, -1.000000000000000000, 3.490834419419751744E-15 ) ) ;
#23 = EDGE_CURVE ( 'NONE', #127, #376, #188, .T. ) ;
#24 = ORIENTED_EDGE ( 'NONE', *, *, #404, .F. ) ;
#25 = ORIENTED_EDGE ( 'NONE', *, *, #407, .F. ) ;
#26 = APPROVAL_PERSON_ORGANIZATION ( #39, #325, #9 ) ;
#27 = FACE_OUTER_BOUND ( 'NONE', #57, .T. ) ;
#28 = APPROVAL_DATE_TIME ( #321, #325 ) ;
#29 = ORIENTED_EDGE ( 'NONE', *, *, #220, .T. ) ;
#30 = VECTOR ( 'NONE', #301, 39.37007874015748854 ) ;
#31 = CC_DESIGN_PERSON_AND_ORGANIZATION_ASSIGNMENT ( #264, #104, ( #112 ) ) ;
#32 = CARTESIAN_POINT ( 'NONE',  ( 4.812348677410946621E-29, -6.868216720208360260E-15, -1.967499999999999805 ) ) ;
#33 = ADVANCED_FACE ( 'NONE', ( #149 ), #279, .F. ) ;
#34 = DIRECTION ( 'NONE',  ( 1.000000000000000000, -6.982962677686265133E-15, 0.000000000000000000 ) ) ;
#35 = CARTESIAN_POINT ( 'NONE',  ( 1.649375784469496525E-15, 0.2361999999999999378, -0.02000000000000087472 ) ) ;
#36 = APPROVAL_DATE_TIME ( #356, #107 ) ;
#37 = CIRCLE ( 'NONE', #403, 0.2361999999999999933 ) ;
#38 = ADVANCED_FACE ( 'NONE', ( #56 ), #341, .T. ) ;
#39 = PERSON_AND_ORGANIZATION ( #357, #383 ) ;
#40 = ORIENTED_EDGE ( 'NONE', *, *, #131, .T. ) ;
#41 = VECTOR ( 'NONE', #182, 39.37007874015748143 ) ;
#42 = AXIS2_PLACEMENT_3D ( 'NONE', #324, #135, #260 ) ;
#43 = LOCAL_TIME ( 8, 3, 31.00000000000000000, #411 ) ;
#44 = CARTESIAN_POINT ( 'NONE',  ( 4.891841095208091913E-31, -6.981668838839520645E-17, -0.02000000000000005246 ) ) ;
#45 = ORIENTED_EDGE ( 'NONE', *, *, #181, .T. ) ;
#46 = CARTESIAN_POINT ( 'NONE',  ( -0.2361999999999999933, -6.500667668441653014E-15, -2.716599999999999238 ) ) ;
#47 = VERTEX_POINT ( 'NONE', #85 ) ;
#48 = PERSON_AND_ORGANIZATION ( #357, #383 ) ;
#49 = CARTESIAN_POINT ( 'NONE',  ( -1.642392821791761602E-15, -0.2352000000000068480, -1.968499999999999250 ) ) ;
#50 = FACE_OUTER_BOUND ( 'NONE', #276, .T. ) ;
#51 = PERSON_AND_ORGANIZATION_ROLE ( 'design_owner' ) ;
#52 = ORIENTED_EDGE ( 'NONE', *, *, #282, .T. ) ;
#53 = APPLICATION_CONTEXT ( 'configuration controlled 3d designs of mechanical parts and assemblies' ) ;
#54 = EDGE_CURVE ( 'NONE', #376, #208, #359, .T. ) ;
#55 = DIRECTION ( 'NONE',  ( -2.445468806185136597E-29, 3.491481338843145583E-15, 1.000000000000000000 ) ) ;
#56 = FACE_OUTER_BOUND ( 'NONE', #96, .T. ) ;
#57 = EDGE_LOOP ( 'NONE', ( #83, #187, #217, #381 ) ) ;
#58 = DIRECTION ( 'NONE',  ( -1.000000000000000000, 6.982962677686265922E-15, -4.883557194083112901E-29 ) ) ;
#59 = ORIENTED_EDGE ( 'NONE', *, *, #382, .F. ) ;
#60 = VECTOR ( 'NONE', #159, 39.37007874015748143 ) ;
#61 = EDGE_LOOP ( 'NONE', ( #40, #169, #302, #24 ) ) ;
#62 = DIRECTION ( 'NONE',  ( 1.000000000000000000, -6.982962677686266711E-15, 4.876176775795936353E-29 ) ) ;
#63 = CARTESIAN_POINT ( 'NONE',  ( -1.649375784469449785E-15, -0.2362000000000071265, -1.967499999999998916 ) ) ;
#64 = AXIS2_PLACEMENT_3D ( 'NONE', #384, #192, #322 ) ;
#65 = CARTESIAN_POINT ( 'NONE',  ( -1.649375784469496920E-15, -0.2362000000000001321, 8.245350898669458681E-16 ) ) ;
#66 = ADVANCED_FACE ( 'NONE', ( #375 ), #212, .T. ) ;
#67 = DIRECTION ( 'NONE',  ( -2.445920547604039440E-29, 3.490834419419752138E-15, 1.000000000000000000 ) ) ;
#68 = DATE_TIME_ROLE ( 'creation_date' ) ;
#69 = CYLINDRICAL_SURFACE ( 'NONE', #64, 0.2361999999999999933 ) ;
#70 = PERSON_AND_ORGANIZATION ( #357, #383 ) ;
#71 = CARTESIAN_POINT ( 'NONE',  ( -1.551844647095920142E-15, -0.2162000000000000033, 7.588470499893129400E-16 ) ) ;
#72 = EDGE_CURVE ( 'NONE', #208, #15, #374, .T. ) ;
#73 = CIRCLE ( 'NONE', #251, 0.2361999999999999933 ) ;
#74 = CARTESIAN_POINT ( 'NONE',  ( 4.814794597958552648E-29, -6.871707554627780950E-15, -1.968500000000000139 ) ) ;
#75 = SECURITY_CLASSIFICATION_LEVEL ( 'unclassified' ) ;
#76 =( NAMED_UNIT ( * ) SI_UNIT ( $, .STERADIAN. ) SOLID_ANGLE_UNIT ( ) );
#77 = CONICAL_SURFACE ( 'NONE', #189, 0.2351999999999999924, 0.7853981633974141952 ) ;
#78 = LOCAL_TIME ( 8, 3, 31.00000000000000000, #164 ) ;
#79 = SHAPE_DEFINITION_REPRESENTATION ( #292, #98 ) ;
#80 = EDGE_CURVE ( 'NONE', #130, #376, #226, .T. ) ;
#81 = CARTESIAN_POINT ( 'NONE',  ( 6.643360558882540179E-29, -9.484958205101285532E-15, -2.716599999999999238 ) ) ;
#82 =( CONVERSION_BASED_UNIT ( 'INCH', #369 ) LENGTH_UNIT ( ) NAMED_UNIT ( #211 ) );
#83 = ORIENTED_EDGE ( 'NONE', *, *, #307, .F. ) ;
#84 = FACE_OUTER_BOUND ( 'NONE', #2, .T. ) ;
#85 = CARTESIAN_POINT ( 'NONE',  ( -1.620449627073635079E-15, -0.2362000000000000766, -0.01999999999999922673 ) ) ;
#86 = EDGE_CURVE ( 'NONE', #127, #147, #402, .T. ) ;
#87 = FACE_OUTER_BOUND ( 'NONE', #173, .T. ) ;
#88 = CIRCLE ( 'NONE', #319, 0.2361999999999999933 ) ;
#89 = SECURITY_CLASSIFICATION ( '', '', #75 ) ;
#90 = DIRECTION ( 'NONE',  ( -2.445920547604039721E-29, 3.490834419419751744E-15, 1.000000000000000000 ) ) ;
#91 = ORIENTED_EDGE ( 'NONE', *, *, #54, .F. ) ;
#92 = ORIENTED_EDGE ( 'NONE', *, *, #86, .T. ) ;
#93 = DIRECTION ( 'NONE',  ( -2.445920547604039721E-29, 3.490834419419751744E-15, 1.000000000000000000 ) ) ;
#94 = CC_DESIGN_PERSON_AND_ORGANIZATION_ASSIGNMENT ( #195, #155, ( #89 ) ) ;
#95 = VECTOR ( 'NONE', #191, 39.37007874015748143 ) ;
#96 = EDGE_LOOP ( 'NONE', ( #306, #52, #123, #91 ) ) ;
#97 = DIRECTION ( 'NONE',  ( 1.000000000000000000, -6.982962677686265922E-15, 4.883557194083112340E-29 ) ) ;
#98 = ADVANCED_BREP_SHAPE_REPRESENTATION ( '48835', ( #252, #270, #239 ), #151 ) ;
#99 = VECTOR ( 'NONE', #113, 39.37007874015748854 ) ;
#100 = CONICAL_SURFACE ( 'NONE', #360, 0.2361999999999999933, 0.7853981633974467247 ) ;
#101 = ORIENTED_EDGE ( 'NONE', *, *, #23, .T. ) ;
#102 = APPROVAL_STATUS ( 'not_yet_approved' ) ;
#103 = CARTESIAN_POINT ( 'NONE',  ( 1.649375784469496525E-15, 0.2361999999999999378, -0.02000000000000087472 ) ) ;
#104 = PERSON_AND_ORGANIZATION_ROLE ( 'design_supplier' ) ;
#105 = DIRECTION ( 'NONE',  ( -2.445468806185136597E-29, 3.491481338843145583E-15, 1.000000000000000000 ) ) ;
#106 = DIRECTION ( 'NONE',  ( 0.000000000000000000, 0.000000000000000000, 1.000000000000000000 ) ) ;
#107 = APPROVAL ( #102, 'UNSPECIFIED' ) ;
#108 = DIRECTION ( 'NONE',  ( -2.445920547604039721E-29, 3.490834419419751744E-15, 1.000000000000000000 ) ) ;
#109 = CARTESIAN_POINT ( 'NONE',  ( 6.312240780968655053E-29, -9.959140573241337406E-15, -2.716599999999999682 ) ) ;
#110 = ORIENTED_EDGE ( 'NONE', *, *, #118, .F. ) ;
#111 = AXIS2_PLACEMENT_3D ( 'NONE', #296, #362, #400 ) ;
#112 = PRODUCT_DEFINITION_FORMATION_WITH_SPECIFIED_SOURCE ( 'ANY', '', #410, .NOT_KNOWN. ) ;
#113 = DIRECTION ( 'NONE',  ( 5.024295867787889629E-15, 0.7071067811865257013, 0.7071067811865691111 ) ) ;
#114 =( LENGTH_UNIT ( ) NAMED_UNIT ( * ) SI_UNIT ( $, .METRE. ) );
#115 = EDGE_LOOP ( 'NONE', ( #366, #101, #21, #280, #406 ) ) ;
#116 = DIRECTION ( 'NONE',  ( 1.000000000000000000, -6.982962677686265133E-15, 0.000000000000000000 ) ) ;
#117 = DIRECTION ( 'NONE',  ( 1.000000000000000000, 0.000000000000000000, 0.000000000000000000 ) ) ;
#118 = EDGE_CURVE ( 'NONE', #405, #259, #397, .T. ) ;
#119 = CARTESIAN_POINT ( 'NONE',  ( 6.312240780968655053E-29, -9.959140573241337406E-15, -2.716599999999999682 ) ) ;
#120 = ADVANCED_FACE ( 'NONE', ( #342 ), #281, .T. ) ;
#121 = CARTESIAN_POINT ( 'NONE',  ( 4.814794597958552648E-29, -6.871707554627780950E-15, -1.968500000000000139 ) ) ;
#122 = ORIENTED_EDGE ( 'NONE', *, *, #388, .F. ) ;
#123 = ORIENTED_EDGE ( 'NONE', *, *, #72, .F. ) ;
#124 = CLOSED_SHELL ( 'NONE', ( #249, #120, #38, #222, #66 ) ) ;
#125 = DIRECTION ( 'NONE',  ( 6.982962677686265922E-15, 1.000000000000000000, -4.626330217890364603E-15 ) ) ;
#126 = CC_DESIGN_PERSON_AND_ORGANIZATION_ASSIGNMENT ( #304, #51, ( #410 ) ) ;
#127 = VERTEX_POINT ( 'NONE', #46 ) ;
#128 = VECTOR ( 'NONE', #334, 39.37007874015748143 ) ;
#129 = AXIS2_PLACEMENT_3D ( 'NONE', #170, #273, #271 ) ;
#130 = VERTEX_POINT ( 'NONE', #336 ) ;
#131 = EDGE_CURVE ( 'NONE', #154, #405, #329, .T. ) ;
#132 = CALENDAR_DATE ( 2024, 10, 4 ) ;
#133 = ADVANCED_FACE ( 'NONE', ( #84 ), #77, .T. ) ;
#134 = DIRECTION ( 'NONE',  ( -6.982962677686265133E-15, -1.000000000000000000, 3.484499991918703113E-15 ) ) ;
#135 = DIRECTION ( 'NONE',  ( 2.438088387897960049E-29, -3.491481338843145188E-15, -1.000000000000000000 ) ) ;
#136 = CALENDAR_DATE ( 2024, 10, 4 ) ;
#137 = PERSON_AND_ORGANIZATION ( #357, #383 ) ;
#138 = AXIS2_PLACEMENT_3D ( 'NONE', #10, #108, #361 ) ;
#139 = CC_DESIGN_APPROVAL ( #107, ( #112 ) ) ;
#140 = UNCERTAINTY_MEASURE_WITH_UNIT (LENGTH_MEASURE( 1.000000000000000082E-05 ), #82, 'distance_accuracy_value', 'NONE');
#141 = EDGE_LOOP ( 'NONE', ( #45, #286 ) ) ;
#142 = CARTESIAN_POINT ( 'NONE',  ( -0.2361999999999999933, -6.500667668441651437E-15, -1.968499999999999694 ) ) ;
#143 = CARTESIAN_POINT ( 'NONE',  ( 4.812348677410946621E-29, -6.868216720208360260E-15, -1.967499999999999805 ) ) ;
#144 = CARTESIAN_POINT ( 'NONE',  ( 0.2361999999999999933, -1.649375784469496131E-15, 1.151752954443000088E-29 ) ) ;
#145 = VECTOR ( 'NONE', #206, 39.37007874015748854 ) ;
#146 = CARTESIAN_POINT ( 'NONE',  ( 1.649375784469561606E-15, 0.2361999999999903899, -2.716600000000000126 ) ) ;
#147 = VERTEX_POINT ( 'NONE', #142 ) ;
#148 = CARTESIAN_POINT ( 'NONE',  ( 0.2361999999999999933, -9.828345394776505934E-15, -2.716599999999999238 ) ) ;
#149 = FACE_OUTER_BOUND ( 'NONE', #244, .T. ) ;
#150 = PRODUCT_DEFINITION ( 'UNKNOWN', '', #112, #395 ) ;
#151 =( GEOMETRIC_REPRESENTATION_CONTEXT ( 3 ) GLOBAL_UNCERTAINTY_ASSIGNED_CONTEXT ( ( #140 ) ) GLOBAL_UNIT_ASSIGNED_CONTEXT ( ( #82, #278, #76 ) ) REPRESENTATION_CONTEXT ( 'NONE', 'WORKASPACE' ) );
#152 = CC_DESIGN_SECURITY_CLASSIFICATION ( #89, ( #112 ) ) ;
#153 = CARTESIAN_POINT ( 'NONE',  ( 6.643360558882540179E-29, -9.484958205101285532E-15, -2.716599999999999238 ) ) ;
#154 = VERTEX_POINT ( 'NONE', #171 ) ;
#155 = PERSON_AND_ORGANIZATION_ROLE ( 'classification_officer' ) ;
#156 = CIRCLE ( 'NONE', #409, 0.2162000000000000033 ) ;
#157 = DIRECTION ( 'NONE',  ( -2.445920547604039721E-29, 3.490834419419751744E-15, 1.000000000000000000 ) ) ;
#158 = ORIENTED_EDGE ( 'NONE', *, *, #165, .F. ) ;
#159 = DIRECTION ( 'NONE',  ( -2.445920547604039440E-29, 3.490834419419752138E-15, 1.000000000000000000 ) ) ;
#160 = ORIENTED_EDGE ( 'NONE', *, *, #380, .F. ) ;
#161 = DIRECTION ( 'NONE',  ( -2.445920547604039721E-29, 3.490834419419751744E-15, 1.000000000000000000 ) ) ;
#162 = CIRCLE ( 'NONE', #193, 0.2361999999999999933 ) ;
#163 = ADVANCED_FACE ( 'NONE', ( #87 ), #242, .F. ) ;
#164 = COORDINATED_UNIVERSAL_TIME_OFFSET ( 5, 0, .BEHIND. ) ;
#165 = EDGE_CURVE ( 'NONE', #15, #127, #162, .T. ) ;
#166 = DIRECTION ( 'NONE',  ( 6.982962677686265922E-15, 1.000000000000000000, -3.487819265831411744E-15 ) ) ;
#167 = AXIS2_PLACEMENT_3D ( 'NONE', #378, #180, #62 ) ;
#168 = AXIS2_PLACEMENT_3D ( 'NONE', #372, #90, #22 ) ;
#169 = ORIENTED_EDGE ( 'NONE', *, *, #118, .T. ) ;
#170 = CARTESIAN_POINT ( 'NONE',  ( -1.009834622630915253E-46, 1.441242832705631339E-32, 4.128648510762637275E-18 ) ) ;
#171 = CARTESIAN_POINT ( 'NONE',  ( -1.642392821791761602E-15, -0.2352000000000068480, -1.968499999999999250 ) ) ;
#172 = EDGE_LOOP ( 'NONE', ( #316, #92, #386, #364, #253 ) ) ;
#173 = EDGE_LOOP ( 'NONE', ( #205, #25 ) ) ;
#174 = DIRECTION ( 'NONE',  ( -6.982962677686265133E-15, -1.000000000000000000, 3.484499991918703113E-15 ) ) ;
#175 = CARTESIAN_POINT ( 'NONE',  ( 1.509716530915770718E-15, 0.2162000000000000033, -7.526540772231689556E-16 ) ) ;
#176 = ORIENTED_EDGE ( 'NONE', *, *, #220, .F. ) ;
#177 = CARTESIAN_POINT ( 'NONE',  ( 4.814794597958552648E-29, -6.871707554627780950E-15, -1.968500000000000139 ) ) ;
#178 = ORIENTED_EDGE ( 'NONE', *, *, #294, .F. ) ;
#179 = LINE ( 'NONE', #370, #145 ) ;
#180 = DIRECTION ( 'NONE',  ( -2.445468806185136597E-29, 3.491481338843145583E-15, 1.000000000000000000 ) ) ;
#181 = EDGE_CURVE ( 'NONE', #250, #147, #37, .T. ) ;
#182 = DIRECTION ( 'NONE',  ( -2.445468806185136877E-29, 3.491481338843145188E-15, 1.000000000000000000 ) ) ;
#183 = EDGE_CURVE ( 'NONE', #333, #47, #179, .T. ) ;
#184 = AXIS2_PLACEMENT_3D ( 'NONE', #348, #190, #6 ) ;
#185 = APPROVAL_PERSON_ORGANIZATION ( #48, #247, #367 ) ;
#186 = CARTESIAN_POINT ( 'NONE',  ( 0.000000000000000000, 0.000000000000000000, 0.000000000000000000 ) ) ;
#187 = ORIENTED_EDGE ( 'NONE', *, *, #183, .T. ) ;
#188 = CIRCLE ( 'NONE', #318, 0.2361999999999999933 ) ;
#189 = AXIS2_PLACEMENT_3D ( 'NONE', #308, #202, #174 ) ;
#190 = DIRECTION ( 'NONE',  ( 2.445920547604039721E-29, -3.490834419419751744E-15, -1.000000000000000000 ) ) ;
#191 = DIRECTION ( 'NONE',  ( 4.937700262164540154E-15, 0.7071067811865440200, -0.7071067811865511255 ) ) ;
#192 = DIRECTION ( 'NONE',  ( -2.445468806185136597E-29, 3.491481338843145583E-15, 1.000000000000000000 ) ) ;
#193 = AXIS2_PLACEMENT_3D ( 'NONE', #81, #303, #18 ) ;
#194 = LOCAL_TIME ( 8, 3, 31.00000000000000000, #237 ) ;
#195 = PERSON_AND_ORGANIZATION ( #357, #383 ) ;
#196 = ADVANCED_FACE ( 'NONE', ( #50 ), #248, .T. ) ;
#197 = CARTESIAN_POINT ( 'NONE',  ( 0.000000000000000000, 0.000000000000000000, 0.000000000000000000 ) ) ;
#198 = DIRECTION ( 'NONE',  ( -6.982962677686265922E-15, -1.000000000000000000, 3.469747663417773058E-15 ) ) ;
#199 = AXIS2_PLACEMENT_3D ( 'NONE', #121, #238, #312 ) ;
#200 = VECTOR ( 'NONE', #67, 39.37007874015748143 ) ;
#201 = APPROVAL_STATUS ( 'not_yet_approved' ) ;
#202 = DIRECTION ( 'NONE',  ( -2.445920547604039721E-29, 3.490834419419751744E-15, 1.000000000000000000 ) ) ;
#203 = MECHANICAL_CONTEXT ( 'NONE', #354, 'mechanical' ) ;
#204 = ORIENTED_EDGE ( 'NONE', *, *, #330, .F. ) ;
#205 = ORIENTED_EDGE ( 'NONE', *, *, #131, .F. ) ;
#206 = DIRECTION ( 'NONE',  ( -4.851104656540955597E-15, -0.7071067811865487940, -0.7071067811865461294 ) ) ;
#207 = DIRECTION ( 'NONE',  ( -2.445468806185136597E-29, 3.491481338843145583E-15, 1.000000000000000000 ) ) ;
#208 = VERTEX_POINT ( 'NONE', #148 ) ;
#209 = CIRCLE ( 'NONE', #129, 0.2162000000000000033 ) ;
#210 = DIRECTION ( 'NONE',  ( -6.982962677686265922E-15, -1.000000000000000000, 3.490834419419752138E-15 ) ) ;
#211 = DIMENSIONAL_EXPONENTS ( 1.000000000000000000, 0.000000000000000000, 0.000000000000000000, 0.000000000000000000, 0.000000000000000000, 0.000000000000000000, 0.000000000000000000 ) ;
#212 = CYLINDRICAL_SURFACE ( 'NONE', #167, 0.2361999999999999933 ) ;
#213 = DIRECTION ( 'NONE',  ( -6.982962677686265922E-15, -1.000000000000000000, 3.490834419419751744E-15 ) ) ;
#214 = CARTESIAN_POINT ( 'NONE',  ( 1.671196514507803309E-15, 0.2351999999999931368, -1.968500000000000805 ) ) ;
#215 = EDGE_LOOP ( 'NONE', ( #246, #230, #310, #158 ) ) ;
#216 = FACE_OUTER_BOUND ( 'NONE', #172, .T. ) ;
#217 = ORIENTED_EDGE ( 'NONE', *, *, #382, .T. ) ;
#218 = CONICAL_SURFACE ( 'NONE', #275, 0.2351999999999999924, 0.7853981633974141952 ) ;
#219 = FACE_OUTER_BOUND ( 'NONE', #236, .T. ) ;
#220 = EDGE_CURVE ( 'NONE', #259, #240, #284, .T. ) ;
#221 = DIRECTION ( 'NONE',  ( -6.982962677686265922E-15, -1.000000000000000000, 3.490834419419751744E-15 ) ) ;
#222 = ADVANCED_FACE ( 'NONE', ( #262 ), #412, .F. ) ;
#223 = COORDINATED_UNIVERSAL_TIME_OFFSET ( 5, 0, .BEHIND. ) ;
#224 = CARTESIAN_POINT ( 'NONE',  ( 4.813905344975440714E-29, -6.872981015512730918E-15, -1.968499999999999694 ) ) ;
#225 = DIRECTION ( 'NONE',  ( 6.982962677686265922E-15, 1.000000000000000000, 0.000000000000000000 ) ) ;
#226 = CIRCLE ( 'NONE', #111, 0.2362000000000002709 ) ;
#227 = PERSON_AND_ORGANIZATION ( #357, #383 ) ;
#228 = COORDINATED_UNIVERSAL_TIME_OFFSET ( 5, 0, .BEHIND. ) ;
#229 = CARTESIAN_POINT ( 'NONE',  ( 4.891841095208091913E-31, -6.981668838839520645E-17, -0.02000000000000005246 ) ) ;
#230 = ORIENTED_EDGE ( 'NONE', *, *, #80, .T. ) ;
#231 = LINE ( 'NONE', #65, #60 ) ;
#232 = CALENDAR_DATE ( 2024, 10, 4 ) ;
#233 = CC_DESIGN_APPROVAL ( #325, ( #150 ) ) ;
#234 = ADVANCED_FACE ( 'NONE', ( #355 ), #218, .T. ) ;
#235 = DIRECTION ( 'NONE',  ( -6.982962677686265922E-15, -1.000000000000000000, 3.487819265831411744E-15 ) ) ;
#236 = EDGE_LOOP ( 'NONE', ( #408, #29, #59, #178 ) ) ;
#237 = COORDINATED_UNIVERSAL_TIME_OFFSET ( 5, 0, .BEHIND. ) ;
#238 = DIRECTION ( 'NONE',  ( -2.445920547604039721E-29, 3.490834419419751744E-15, 1.000000000000000000 ) ) ;
#239 = AXIS2_PLACEMENT_3D ( 'NONE', #197, #106, #117 ) ;
#240 = VERTEX_POINT ( 'NONE', #35 ) ;
#241 = DATE_TIME_ROLE ( 'classification_date' ) ;
#242 = PLANE ( 'NONE',  #261 ) ;
#243 = LINE ( 'NONE', #144, #128 ) ;
#244 = EDGE_LOOP ( 'NONE', ( #283, #311 ) ) ;
#245 = DIRECTION ( 'NONE',  ( -1.000000000000000000, 6.982962677686265922E-15, -4.883557194083112901E-29 ) ) ;
#246 = ORIENTED_EDGE ( 'NONE', *, *, #282, .F. ) ;
#247 = APPROVAL ( #201, 'UNSPECIFIED' ) ;
#248 = CYLINDRICAL_SURFACE ( 'NONE', #168, 0.2362000000000001321 ) ;
#249 = ADVANCED_FACE ( 'NONE', ( #216 ), #69, .T. ) ;
#250 = VERTEX_POINT ( 'NONE', #293 ) ;
#251 = AXIS2_PLACEMENT_3D ( 'NONE', #229, #387, #358 ) ;
#252 = MANIFOLD_SOLID_BREP ( 'Body-Move/Copy2[1]', #124 ) ;
#253 = ORIENTED_EDGE ( 'NONE', *, *, #72, .T. ) ;
#254 = EDGE_LOOP ( 'NONE', ( #345, #122, #399, #392 ) ) ;
#255 = CLOSED_SHELL ( 'NONE', ( #234, #315, #320, #390, #196, #133, #163, #33 ) ) ;
#256 = CARTESIAN_POINT ( 'NONE',  ( 1.678301941865382032E-15, 0.2361999999999934152, -1.967500000000000471 ) ) ;
#257 = PERSON_AND_ORGANIZATION_ROLE ( 'creator' ) ;
#258 = EDGE_CURVE ( 'NONE', #272, #240, #343, .T. ) ;
#259 = VERTEX_POINT ( 'NONE', #256 ) ;
#260 = DIRECTION ( 'NONE',  ( -1.000000000000000000, 6.982962677686265922E-15, -4.876176775795935793E-29 ) ) ;
#261 = AXIS2_PLACEMENT_3D ( 'NONE', #177, #368, #210 ) ;
#262 = FACE_OUTER_BOUND ( 'NONE', #141, .T. ) ;
#263 = APPROVAL_ROLE ( '' ) ;
#264 = PERSON_AND_ORGANIZATION ( #357, #383 ) ;
#265 = EDGE_CURVE ( 'NONE', #379, #259, #338, .T. ) ;
#266 = DIRECTION ( 'NONE',  ( 1.000000000000000000, -6.982962677686265133E-15, 0.000000000000000000 ) ) ;
#267 = CALENDAR_DATE ( 2024, 10, 4 ) ;
#268 = AXIS2_PLACEMENT_3D ( 'NONE', #175, #274, #309 ) ;
#269 = AXIS2_PLACEMENT_3D ( 'NONE', #44, #19, #235 ) ;
#270 = MANIFOLD_SOLID_BREP ( 'Body-Move/Copy2[2]', #255 ) ;
#271 = DIRECTION ( 'NONE',  ( -6.982962677686265922E-15, -1.000000000000000000, 3.490834419419751744E-15 ) ) ;
#272 = VERTEX_POINT ( 'NONE', #1 ) ;
#273 = DIRECTION ( 'NONE',  ( -2.445920547604039721E-29, 3.490834419419751744E-15, 1.000000000000000000 ) ) ;
#274 = DIRECTION ( 'NONE',  ( 2.445920547604038880E-29, -3.490834419419752138E-15, -1.000000000000000000 ) ) ;
#275 = AXIS2_PLACEMENT_3D ( 'NONE', #74, #93, #134 ) ;
#276 = EDGE_LOOP ( 'NONE', ( #176, #300, #335, #204 ) ) ;
#277 = CARTESIAN_POINT ( 'NONE',  ( 4.813905344975440714E-29, -6.872981015512730918E-15, -1.968499999999999694 ) ) ;
#278 =( NAMED_UNIT ( * ) PLANE_ANGLE_UNIT ( ) SI_UNIT ( $, .RADIAN. ) );
#279 = PLANE ( 'NONE',  #268 ) ;
#280 = ORIENTED_EDGE ( 'NONE', *, *, #5, .T. ) ;
#281 = SPHERICAL_SURFACE ( 'NONE', #344, 0.2362000000000002709 ) ;
#282 = EDGE_CURVE ( 'NONE', #130, #15, #8, .T. ) ;
#283 = ORIENTED_EDGE ( 'NONE', *, *, #388, .T. ) ;
#284 = LINE ( 'NONE', #377, #200 ) ;
#285 = DIRECTION ( 'NONE',  ( 1.000000000000000000, -6.982962677686265133E-15, 0.000000000000000000 ) ) ;
#286 = ORIENTED_EDGE ( 'NONE', *, *, #349, .T. ) ;
#287 = DIRECTION ( 'NONE',  ( -2.445468806185136597E-29, 3.491481338843145583E-15, 1.000000000000000000 ) ) ;
#288 = CC_DESIGN_PERSON_AND_ORGANIZATION_ASSIGNMENT ( #227, #257, ( #150 ) ) ;
#289 = AXIS2_PLACEMENT_3D ( 'NONE', #401, #207, #20 ) ;
#290 = DIRECTION ( 'NONE',  ( -6.982962677686265922E-15, -1.000000000000000000, 3.469747663417773058E-15 ) ) ;
#291 = CONICAL_SURFACE ( 'NONE', #184, 0.2361999999999999933, 0.7853981633974467247 ) ;
#292 = PRODUCT_DEFINITION_SHAPE ( 'NONE', 'NONE',  #150 ) ;
#293 = CARTESIAN_POINT ( 'NONE',  ( 0.2361999999999999933, -8.522356799982226655E-15, -1.968499999999999694 ) ) ;
#294 = EDGE_CURVE ( 'NONE', #379, #47, #231, .T. ) ;
#295 = PERSON_AND_ORGANIZATION_ROLE ( 'creator' ) ;
#296 = CARTESIAN_POINT ( 'NONE',  ( 6.312240780968655053E-29, -9.959140573241337406E-15, -2.716599999999999682 ) ) ;
#297 = AXIS2_PLACEMENT_3D ( 'NONE', #186, #157, #221 ) ;
#298 = APPROVAL_STATUS ( 'not_yet_approved' ) ;
#299 = CARTESIAN_POINT ( 'NONE',  ( 4.891841095208091913E-31, -6.981668838839520645E-17, -0.02000000000000005246 ) ) ;
#300 = ORIENTED_EDGE ( 'NONE', *, *, #380, .T. ) ;
#301 = DIRECTION ( 'NONE',  ( -4.937700262164378437E-15, -0.7071067811865208164, 0.7071067811865739960 ) ) ;
#302 = ORIENTED_EDGE ( 'NONE', *, *, #265, .F. ) ;
#303 = DIRECTION ( 'NONE',  ( -2.445468806185136597E-29, 3.491481338843145583E-15, 1.000000000000000000 ) ) ;
#304 = PERSON_AND_ORGANIZATION ( #357, #383 ) ;
#305 = AXIS2_PLACEMENT_3D ( 'NONE', #143, #389, #198 ) ;
#306 = ORIENTED_EDGE ( 'NONE', *, *, #80, .F. ) ;
#307 = EDGE_CURVE ( 'NONE', #333, #272, #156, .T. ) ;
#308 = CARTESIAN_POINT ( 'NONE',  ( 4.814794597958552648E-29, -6.871707554627780950E-15, -1.968500000000000139 ) ) ;
#309 = DIRECTION ( 'NONE',  ( 6.982962677686265922E-15, 1.000000000000000000, -3.490834419419752138E-15 ) ) ;
#310 = ORIENTED_EDGE ( 'NONE', *, *, #23, .F. ) ;
#311 = ORIENTED_EDGE ( 'NONE', *, *, #307, .T. ) ;
#312 = DIRECTION ( 'NONE',  ( -6.982962677686265133E-15, -1.000000000000000000, 3.484499991918703113E-15 ) ) ;
#313 = LOCAL_TIME ( 8, 3, 31.00000000000000000, #228 ) ;
#314 = CC_DESIGN_PERSON_AND_ORGANIZATION_ASSIGNMENT ( #137, #295, ( #112 ) ) ;
#315 = ADVANCED_FACE ( 'NONE', ( #219 ), #347, .T. ) ;
#316 = ORIENTED_EDGE ( 'NONE', *, *, #165, .T. ) ;
#317 = PRODUCT_RELATED_PRODUCT_CATEGORY ( 'detail', '', ( #410 ) ) ;
#318 = AXIS2_PLACEMENT_3D ( 'NONE', #153, #287, #285 ) ;
#319 = AXIS2_PLACEMENT_3D ( 'NONE', #224, #105, #34 ) ;
#320 = ADVANCED_FACE ( 'NONE', ( #27 ), #291, .T. ) ;
#321 = DATE_AND_TIME ( #323, #78 ) ;
#322 = DIRECTION ( 'NONE',  ( 1.000000000000000000, -6.982962677686266711E-15, 4.876176775795936353E-29 ) ) ;
#323 = CALENDAR_DATE ( 2024, 10, 4 ) ;
#324 = CARTESIAN_POINT ( 'NONE',  ( 1.649375784469544054E-15, 0.2361999999999931377, -1.968500000000000583 ) ) ;
#325 = APPROVAL ( #298, 'UNSPECIFIED' ) ;
#326 = CARTESIAN_POINT ( 'NONE',  ( -1.009834622630915253E-46, 1.441242832705631339E-32, 4.128648510762637275E-18 ) ) ;
#327 = CARTESIAN_POINT ( 'NONE',  ( 6.643360558882540179E-29, -9.484958205101285532E-15, -2.716599999999999238 ) ) ;
#328 = APPLICATION_PROTOCOL_DEFINITION ( 'international standard', 'config_control_design', 1994, #53 ) ;
#329 = CIRCLE ( 'NONE', #199, 0.2351999999999999924 ) ;
#330 = EDGE_CURVE ( 'NONE', #240, #47, #73, .T. ) ;
#331 = CIRCLE ( 'NONE', #138, 0.2351999999999999924 ) ;
#332 = CC_DESIGN_APPROVAL ( #247, ( #89 ) ) ;
#333 = VERTEX_POINT ( 'NONE', #71 ) ;
#334 = DIRECTION ( 'NONE',  ( -2.445468806185136877E-29, 3.491481338843145188E-15, 1.000000000000000000 ) ) ;
#335 = ORIENTED_EDGE ( 'NONE', *, *, #294, .T. ) ;
#336 = CARTESIAN_POINT ( 'NONE',  ( 6.899960026864792464E-29, -1.076936538677815810E-14, -2.952799999999999869 ) ) ;
#337 = FACE_OUTER_BOUND ( 'NONE', #254, .T. ) ;
#338 = CIRCLE ( 'NONE', #398, 0.2362000000000002709 ) ;
#339 = ORIENTED_EDGE ( 'NONE', *, *, #404, .T. ) ;
#340 = CARTESIAN_POINT ( 'NONE',  ( -0.2361999999999999933, 1.678301941865356591E-15, -1.161852468318208757E-29 ) ) ;
#341 = SPHERICAL_SURFACE ( 'NONE', #351, 0.2362000000000002709 ) ;
#342 = FACE_OUTER_BOUND ( 'NONE', #215, .T. ) ;
#343 = LINE ( 'NONE', #103, #95 ) ;
#344 = AXIS2_PLACEMENT_3D ( 'NONE', #109, #58, #125 ) ;
#345 = ORIENTED_EDGE ( 'NONE', *, *, #183, .F. ) ;
#346 = APPROVAL_PERSON_ORGANIZATION ( #70, #107, #263 ) ;
#347 = CYLINDRICAL_SURFACE ( 'NONE', #297, 0.2362000000000001321 ) ;
#348 = CARTESIAN_POINT ( 'NONE',  ( 4.891841095208091913E-31, -6.981668838839520645E-17, -0.02000000000000005246 ) ) ;
#349 = EDGE_CURVE ( 'NONE', #147, #250, #88, .T. ) ;
#350 = DATE_AND_TIME ( #136, #313 ) ;
#351 = AXIS2_PLACEMENT_3D ( 'NONE', #119, #245, #371 ) ;
#352 = CIRCLE ( 'NONE', #269, 0.2361999999999999933 ) ;
#353 = CARTESIAN_POINT ( 'NONE',  ( 6.312240780968655053E-29, -9.959140573241337406E-15, -2.716599999999999682 ) ) ;
#354 = APPLICATION_CONTEXT ( 'configuration controlled 3d designs of mechanical parts and assemblies' ) ;
#355 = FACE_OUTER_BOUND ( 'NONE', #61, .T. ) ;
#356 = DATE_AND_TIME ( #232, #17 ) ;
#357 = PERSON ( 'UNSPECIFIED', 'UNSPECIFIED', 'UNSPECIFIED', ('UNSPECIFIED'), ('UNSPECIFIED'), ('UNSPECIFIED') ) ;
#358 = DIRECTION ( 'NONE',  ( -6.982962677686265922E-15, -1.000000000000000000, 3.487819265831411744E-15 ) ) ;
#359 = CIRCLE ( 'NONE', #289, 0.2361999999999999933 ) ;
#360 = AXIS2_PLACEMENT_3D ( 'NONE', #299, #14, #166 ) ;
#361 = DIRECTION ( 'NONE',  ( -6.982962677686265133E-15, -1.000000000000000000, 3.484499991918703113E-15 ) ) ;
#362 = DIRECTION ( 'NONE',  ( -1.000000000000000000, 7.105427357601001070E-15, -4.926315508542082329E-29 ) ) ;
#363 = APPLICATION_PROTOCOL_DEFINITION ( 'international standard', 'config_control_design', 1994, #354 ) ;
#364 = ORIENTED_EDGE ( 'NONE', *, *, #5, .F. ) ;
#365 = APPROVAL_DATE_TIME ( #13, #247 ) ;
#366 = ORIENTED_EDGE ( 'NONE', *, *, #86, .F. ) ;
#367 = APPROVAL_ROLE ( '' ) ;
#368 = DIRECTION ( 'NONE',  ( -2.445920547604038880E-29, 3.490834419419752138E-15, 1.000000000000000000 ) ) ;
#369 = LENGTH_MEASURE_WITH_UNIT ( LENGTH_MEASURE( 0.02539999999999999897 ), #114 );
#370 = CARTESIAN_POINT ( 'NONE',  ( -1.620449627073635079E-15, -0.2362000000000000766, -0.01999999999999922673 ) ) ;
#371 = DIRECTION ( 'NONE',  ( 6.982962677686265922E-15, 1.000000000000000000, -4.626330217890364603E-15 ) ) ;
#372 = CARTESIAN_POINT ( 'NONE',  ( 0.000000000000000000, 0.000000000000000000, 0.000000000000000000 ) ) ;
#373 = AXIS2_PLACEMENT_3D ( 'NONE', #327, #3, #266 ) ;
#374 = CIRCLE ( 'NONE', #373, 0.2361999999999999933 ) ;
#375 = FACE_OUTER_BOUND ( 'NONE', #115, .T. ) ;
#376 = VERTEX_POINT ( 'NONE', #385 ) ;
#377 = CARTESIAN_POINT ( 'NONE',  ( 1.678301941865357380E-15, 0.2362000000000001321, -8.245350898669458681E-16 ) ) ;
#378 = CARTESIAN_POINT ( 'NONE',  ( 0.000000000000000000, 0.000000000000000000, 0.000000000000000000 ) ) ;
#379 = VERTEX_POINT ( 'NONE', #63 ) ;
#380 = EDGE_CURVE ( 'NONE', #259, #379, #7, .T. ) ;
#381 = ORIENTED_EDGE ( 'NONE', *, *, #258, .F. ) ;
#382 = EDGE_CURVE ( 'NONE', #47, #240, #352, .T. ) ;
#383 = ORGANIZATION ( 'UNSPECIFIED', 'UNSPECIFIED', '' ) ;
#384 = CARTESIAN_POINT ( 'NONE',  ( 0.000000000000000000, 0.000000000000000000, 0.000000000000000000 ) ) ;
#385 = CARTESIAN_POINT ( 'NONE',  ( -1.678301941865292496E-15, -0.2362000000000098743, -2.716599999999997905 ) ) ;
#386 = ORIENTED_EDGE ( 'NONE', *, *, #181, .F. ) ;
#387 = DIRECTION ( 'NONE',  ( -2.445920547604039721E-29, 3.490834419419751744E-15, 1.000000000000000000 ) ) ;
#388 = EDGE_CURVE ( 'NONE', #272, #333, #209, .T. ) ;
#389 = DIRECTION ( 'NONE',  ( -2.445920547604039721E-29, 3.490834419419751744E-15, 1.000000000000000000 ) ) ;
#390 = ADVANCED_FACE ( 'NONE', ( #337 ), #100, .T. ) ;
#391 = CARTESIAN_POINT ( 'NONE',  ( 1.674749228186604799E-15, 0.2351999999999931368, -1.968500000000000805 ) ) ;
#392 = ORIENTED_EDGE ( 'NONE', *, *, #330, .T. ) ;
#393 = DIRECTION ( 'NONE',  ( -2.445920547604039721E-29, 3.490834419419751744E-15, 1.000000000000000000 ) ) ;
#394 = DATE_AND_TIME ( #132, #43 ) ;
#395 = DESIGN_CONTEXT ( 'detailed design', #53, 'design' ) ;
#396 = LINE ( 'NONE', #49, #30 ) ;
#397 = LINE ( 'NONE', #214, #99 ) ;
#398 = AXIS2_PLACEMENT_3D ( 'NONE', #32, #161, #290 ) ;
#399 = ORIENTED_EDGE ( 'NONE', *, *, #258, .T. ) ;
#400 = DIRECTION ( 'NONE',  ( -7.105427357601001070E-15, -1.000000000000000000, 0.000000000000000000 ) ) ;
#401 = CARTESIAN_POINT ( 'NONE',  ( 6.643360558882540179E-29, -9.484958205101285532E-15, -2.716599999999999238 ) ) ;
#402 = LINE ( 'NONE', #340, #41 ) ;
#403 = AXIS2_PLACEMENT_3D ( 'NONE', #277, #55, #116 ) ;
#404 = EDGE_CURVE ( 'NONE', #154, #379, #396, .T. ) ;
#405 = VERTEX_POINT ( 'NONE', #391 ) ;
#406 = ORIENTED_EDGE ( 'NONE', *, *, #349, .F. ) ;
#407 = EDGE_CURVE ( 'NONE', #405, #154, #331, .T. ) ;
#408 = ORIENTED_EDGE ( 'NONE', *, *, #265, .T. ) ;
#409 = AXIS2_PLACEMENT_3D ( 'NONE', #326, #393, #213 ) ;
#410 = PRODUCT ( '48835', '48835', '', ( #203 ) ) ;
#411 = COORDINATED_UNIVERSAL_TIME_OFFSET ( 5, 0, .BEHIND. ) ;
#412 = PLANE ( 'NONE',  #42 ) ;
ENDSEC;
END-ISO-10303-21;
