ISO-10303-21;
HEADER;
FILE_DESCRIPTION (( 'STEP AP203' ),
    '1' );
FILE_NAME ('48846.STEP',
    '2024-04-10T12:04:48',
    ( '' ),
    ( '' ),
    'SwSTEP 2.0',
    'SolidWorks 2023',
    '' );
FILE_SCHEMA (( 'CONFIG_CONTROL_DESIGN' ));
ENDSEC;

DATA;
#1 = AXIS2_PLACEMENT_3D ( 'NONE', #151, #398, #400 ) ;
#2 = PLANE ( 'NONE',  #104 ) ;
#3 = ORIENTED_EDGE ( 'NONE', *, *, #219, .F. ) ;
#4 = FACE_OUTER_BOUND ( 'NONE', #92, .T. ) ;
#5 = EDGE_LOOP ( 'NONE', ( #326, #61, #190, #324 ) ) ;
#6 = DIRECTION ( 'NONE',  ( -6.982962677686265922E-15, -1.000000000000000000, 3.469845229104974825E-15 ) ) ;
#7 = AXIS2_PLACEMENT_3D ( 'NONE', #360, #272, #201 ) ;
#8 = DIRECTION ( 'NONE',  ( 2.460577220864333335E-29, -3.469845229104974825E-15, -1.000000000000000000 ) ) ;
#9 = CONICAL_SURFACE ( 'NONE', #243, 0.05905000000000001914, 0.7853981633974461696 ) ;
#10 = CARTESIAN_POINT ( 'NONE',  ( 0.000000000000000000, 0.000000000000000000, 0.000000000000000000 ) ) ;
#11 = CC_DESIGN_DATE_AND_TIME_ASSIGNMENT ( #374, #176, ( #150 ) ) ;
#12 = FACE_OUTER_BOUND ( 'NONE', #260, .T. ) ;
#13 = AXIS2_PLACEMENT_3D ( 'NONE', #199, #120, #329 ) ;
#14 = CARTESIAN_POINT ( 'NONE',  ( -4.123439461173497259E-16, -0.05905000000000367594, -1.022699999999999498 ) ) ;
#15 = CLOSED_SHELL ( 'NONE', ( #113, #122, #128, #401, #108, #273, #261, #194 ) ) ;
#16 = CC_DESIGN_PERSON_AND_ORGANIZATION_ASSIGNMENT ( #50, #214, ( #150 ) ) ;
#17 = LINE ( 'NONE', #77, #72 ) ;
#18 = APPLICATION_PROTOCOL_DEFINITION ( 'international standard', 'config_control_design', 1994, #211 ) ;
#19 = AXIS2_PLACEMENT_3D ( 'NONE', #127, #130, #410 ) ;
#20 = PRODUCT ( '48846', '48846', '', ( #209 ) ) ;
#21 = PERSON_AND_ORGANIZATION_ROLE ( 'creator' ) ;
#22 = ORIENTED_EDGE ( 'NONE', *, *, #106, .F. ) ;
#23 = EDGE_CURVE ( 'NONE', #293, #347, #275, .T. ) ;
#24 = VERTEX_POINT ( 'NONE', #375 ) ;
#25 = APPROVAL_DATE_TIME ( #110, #391 ) ;
#26 = ORIENTED_EDGE ( 'NONE', *, *, #335, .F. ) ;
#27 = AXIS2_PLACEMENT_3D ( 'NONE', #364, #169, #48 ) ;
#28 = DATE_AND_TIME ( #84, #52 ) ;
#29 = EDGE_CURVE ( 'NONE', #119, #232, #380, .T. ) ;
#30 = DIRECTION ( 'NONE',  ( -2.460577220864333896E-29, 3.469845229104974431E-15, 1.000000000000000000 ) ) ;
#31 = ORIENTED_EDGE ( 'NONE', *, *, #138, .T. ) ;
#32 = ORIENTED_EDGE ( 'NONE', *, *, #349, .F. ) ;
#33 = DIRECTION ( 'NONE',  ( -2.445468806185136597E-29, 3.491481338843145583E-15, 1.000000000000000000 ) ) ;
#34 = CONICAL_SURFACE ( 'NONE', #270, 0.05804999999999999050, 0.7853981633974824739 ) ;
#35 = CARTESIAN_POINT ( 'NONE',  ( 3.514260947928350449E-29, -5.017433257984542594E-15, -1.437049999999999939 ) ) ;
#36 = ORIENTED_EDGE ( 'NONE', *, *, #100, .F. ) ;
#37 = EDGE_CURVE ( 'NONE', #319, #24, #284, .T. ) ;
#38 = CYLINDRICAL_SURFACE ( 'NONE', #330, 0.05905000000000001914 ) ;
#39 = ORIENTED_EDGE ( 'NONE', *, *, #235, .T. ) ;
#40 = CARTESIAN_POINT ( 'NONE',  ( 0.05905000000000001914, -4.708175298396508446E-15, -1.437049999999999939 ) ) ;
#41 = VECTOR ( 'NONE', #157, 39.37007874015748143 ) ;
#42 = DIRECTION ( 'NONE',  ( 5.024295867788231995E-15, 0.7071067811865739960, 0.7071067811865208164 ) ) ;
#43 = EDGE_CURVE ( 'NONE', #225, #227, #195, .T. ) ;
#44 = CYLINDRICAL_SURFACE ( 'NONE', #341, 0.05905000000000001914 ) ;
#45 = DIRECTION ( 'NONE',  ( -6.982962677686265133E-15, -1.000000000000000000, 4.626330217890359081E-15 ) ) ;
#46 = PRODUCT_DEFINITION ( 'UNKNOWN', '', #288, #168 ) ;
#47 = CC_DESIGN_APPROVAL ( #291, ( #288 ) ) ;
#48 = DIRECTION ( 'NONE',  ( -7.105427357601001070E-15, -1.000000000000000000, 0.000000000000000000 ) ) ;
#49 = LINE ( 'NONE', #394, #242 ) ;
#50 = PERSON_AND_ORGANIZATION ( #357, #302 ) ;
#51 = DIRECTION ( 'NONE',  ( -6.982962677686265922E-15, -1.000000000000000000, 2.353012914439503496E-15 ) ) ;
#52 = LOCAL_TIME ( 8, 4, 48.00000000000000000, #344 ) ;
#53 = ADVANCED_FACE ( 'NONE', ( #254 ), #184, .T. ) ;
#54 = DATE_AND_TIME ( #251, #158 ) ;
#55 = CARTESIAN_POINT ( 'NONE',  ( 3.183141170014464762E-29, -5.491615626124592102E-15, -1.437049999999999939 ) ) ;
#56 = APPROVAL_DATE_TIME ( #54, #240 ) ;
#57 = EDGE_LOOP ( 'NONE', ( #32, #22 ) ) ;
#58 = PERSON_AND_ORGANIZATION_ROLE ( 'design_owner' ) ;
#59 = CARTESIAN_POINT ( 'NONE',  ( -5.230713127078351856E-45, 7.376222471259837295E-31, 2.125807344197449902E-16 ) ) ;
#60 = DIRECTION ( 'NONE',  ( 1.000000000000000000, -6.982962677686270655E-15, 0.000000000000000000 ) ) ;
#61 = ORIENTED_EDGE ( 'NONE', *, *, #379, .T. ) ;
#62 = CARTESIAN_POINT ( 'NONE',  ( 4.921154441728684642E-31, -6.939690458209972133E-17, -0.02000000000000006981 ) ) ;
#63 = ORIENTED_EDGE ( 'NONE', *, *, #408, .T. ) ;
#64 = DIRECTION ( 'NONE',  ( 1.000000000000000000, -6.982962677686262766E-15, 0.000000000000000000 ) ) ;
#65 = CIRCLE ( 'NONE', #107, 0.05905000000000001914 ) ;
#66 = CIRCLE ( 'NONE', #103, 0.05804999999999999050 ) ;
#67 = DIRECTION ( 'NONE',  ( -1.000000000000000000, 6.982962677686265922E-15, -4.876176775795935793E-29 ) ) ;
#68 = ORIENTED_EDGE ( 'NONE', *, *, #298, .T. ) ;
#69 = CARTESIAN_POINT ( 'NONE',  ( 2.518892900998818268E-29, -3.552080561034762086E-15, -1.023699999999999832 ) ) ;
#70 = CARTESIAN_POINT ( 'NONE',  ( 0.05905000000000001914, -3.986573392691101744E-15, -1.023699999999999832 ) ) ;
#71 = MANIFOLD_SOLID_BREP ( 'Body-Move/Copy2[1]', #134 ) ;
#72 = VECTOR ( 'NONE', #392, 39.37007874015748143 ) ;
#73 = LOCAL_TIME ( 8, 4, 48.00000000000000000, #279 ) ;
#74 = DIRECTION ( 'NONE',  ( 4.937700262164536998E-15, 0.7071067811865435759, -0.7071067811865514585 ) ) ;
#75 = CARTESIAN_POINT ( 'NONE',  ( 4.921154441728684642E-31, -6.939690458209972133E-17, -0.02000000000000006981 ) ) ;
#76 = DIRECTION ( 'NONE',  ( 1.000000000000000000, -6.982962677686266711E-15, 4.876176775795935793E-29 ) ) ;
#77 = CARTESIAN_POINT ( 'NONE',  ( -0.05905000000000001914, 4.195754854663392958E-16, -2.904631170795522943E-30 ) ) ;
#78 = DIRECTION ( 'NONE',  ( -2.460577220864333896E-29, 3.469845229104974431E-15, 1.000000000000000000 ) ) ;
#79 = CC_DESIGN_PERSON_AND_ORGANIZATION_ASSIGNMENT ( #339, #368, ( #288 ) ) ;
#80 = CARTESIAN_POINT ( 'NONE',  ( 2.518892900998818268E-29, -3.552080561034762086E-15, -1.023699999999999832 ) ) ;
#81 = APPROVAL_DATE_TIME ( #253, #291 ) ;
#82 = ORIENTED_EDGE ( 'NONE', *, *, #267, .F. ) ;
#83 = AXIS2_PLACEMENT_3D ( 'NONE', #305, #363, #241 ) ;
#84 = CALENDAR_DATE ( 2024, 10, 4 ) ;
#85 = EDGE_LOOP ( 'NONE', ( #411, #282, #116, #26 ) ) ;
#86 = CC_DESIGN_PERSON_AND_ORGANIZATION_ASSIGNMENT ( #220, #313, ( #288 ) ) ;
#87 = DIRECTION ( 'NONE',  ( -6.982962677686265922E-15, -1.000000000000000000, 3.469845229104975220E-15 ) ) ;
#88 = COORDINATED_UNIVERSAL_TIME_OFFSET ( 5, 0, .BEHIND. ) ;
#89 = ORIENTED_EDGE ( 'NONE', *, *, #106, .T. ) ;
#90 = ORIENTED_EDGE ( 'NONE', *, *, #335, .T. ) ;
#91 = CARTESIAN_POINT ( 'NONE',  ( 4.160227717875641831E-16, 0.05804999999999643778, -1.023699999999999832 ) ) ;
#92 = EDGE_LOOP ( 'NONE', ( #340, #89, #90, #161 ) ) ;
#93 = CC_DESIGN_PERSON_AND_ORGANIZATION_ASSIGNMENT ( #316, #21, ( #46 ) ) ;
#94 = DIRECTION ( 'NONE',  ( -6.982962677686265922E-15, -1.000000000000000000, 3.469747663417776213E-15 ) ) ;
#95 = EDGE_LOOP ( 'NONE', ( #263, #351 ) ) ;
#96 = LINE ( 'NONE', #196, #185 ) ;
#97 = ORIENTED_EDGE ( 'NONE', *, *, #327, .F. ) ;
#98 = CIRCLE ( 'NONE', #166, 0.05905000000000001914 ) ;
#99 = CARTESIAN_POINT ( 'NONE',  ( 2.518892900998818268E-29, -3.552080561034762086E-15, -1.023699999999999832 ) ) ;
#100 = EDGE_CURVE ( 'NONE', #232, #119, #141, .T. ) ;
#101 = FACE_OUTER_BOUND ( 'NONE', #255, .T. ) ;
#102 = FACE_OUTER_BOUND ( 'NONE', #121, .T. ) ;
#103 = AXIS2_PLACEMENT_3D ( 'NONE', #178, #246, #51 ) ;
#104 = AXIS2_PLACEMENT_3D ( 'NONE', #69, #163, #6 ) ;
#105 = DIRECTION ( 'NONE',  ( -2.460577220864333896E-29, 3.469845229104974825E-15, 1.000000000000000000 ) ) ;
#106 = EDGE_CURVE ( 'NONE', #126, #343, #66, .T. ) ;
#107 = AXIS2_PLACEMENT_3D ( 'NONE', #172, #334, #207 ) ;
#108 = ADVANCED_FACE ( 'NONE', ( #369 ), #177, .T. ) ;
#109 = APPROVAL_STATUS ( 'not_yet_approved' ) ;
#110 = DATE_AND_TIME ( #142, #73 ) ;
#111 = DIRECTION ( 'NONE',  ( -1.000000000000000000, 6.982962677686265922E-15, -4.883557194083112340E-29 ) ) ;
#112 = APPROVAL_PERSON_ORGANIZATION ( #216, #291, #306 ) ;
#113 = ADVANCED_FACE ( 'NONE', ( #370 ), #34, .T. ) ;
#114 = ORIENTED_EDGE ( 'NONE', *, *, #219, .T. ) ;
#115 = DATE_TIME_ROLE ( 'creation_date' ) ;
#116 = ORIENTED_EDGE ( 'NONE', *, *, #366, .F. ) ;
#117 = PERSON_AND_ORGANIZATION ( #357, #302 ) ;
#118 = DIRECTION ( 'NONE',  ( -2.460577220864333896E-29, 3.469845229104974431E-15, 1.000000000000000000 ) ) ;
#119 = VERTEX_POINT ( 'NONE', #143 ) ;
#120 = DIRECTION ( 'NONE',  ( -2.460577220864333896E-29, 3.469845229104974431E-15, 1.000000000000000000 ) ) ;
#121 = EDGE_LOOP ( 'NONE', ( #287, #249, #290, #31, #222 ) ) ;
#122 = ADVANCED_FACE ( 'NONE', ( #278 ), #372, .T. ) ;
#123 = DIRECTION ( 'NONE',  ( 6.982962677686265922E-15, 1.000000000000000000, -3.469845229104974825E-15 ) ) ;
#124 = ORIENTED_EDGE ( 'NONE', *, *, #327, .T. ) ;
#125 = DIRECTION ( 'NONE',  ( -2.445468806185136597E-29, 3.491481338843145583E-15, 1.000000000000000000 ) ) ;
#126 = VERTEX_POINT ( 'NONE', #91 ) ;
#127 = CARTESIAN_POINT ( 'NONE',  ( 4.921154441728684642E-31, -6.939690458209972133E-17, -0.02000000000000006981 ) ) ;
#128 = ADVANCED_FACE ( 'NONE', ( #101 ), #9, .T. ) ;
#129 = CC_DESIGN_APPROVAL ( #391, ( #150 ) ) ;
#130 = DIRECTION ( 'NONE',  ( -2.460577220864333896E-29, 3.469845229104974431E-15, 1.000000000000000000 ) ) ;
#131 = UNCERTAINTY_MEASURE_WITH_UNIT (LENGTH_MEASURE( 1.000000000000000082E-05 ), #206, 'distance_accuracy_value', 'NONE');
#132 = LINE ( 'NONE', #236, #256 ) ;
#133 = DIRECTION ( 'NONE',  ( 6.982962677686265922E-15, 1.000000000000000000, -4.626330217890349615E-15 ) ) ;
#134 = CLOSED_SHELL ( 'NONE', ( #231, #53, #373, #162, #303 ) ) ;
#135 = AXIS2_PLACEMENT_3D ( 'NONE', #239, #333, #45 ) ;
#136 = VECTOR ( 'NONE', #217, 39.37007874015748143 ) ;
#137 = CARTESIAN_POINT ( 'NONE',  ( -4.195754854663065087E-16, -0.05905000000000539678, -1.437049999999999716 ) ) ;
#138 = EDGE_CURVE ( 'NONE', #295, #153, #96, .T. ) ;
#139 = AXIS2_PLACEMENT_3D ( 'NONE', #336, #173, #133 ) ;
#140 = APPROVAL_STATUS ( 'not_yet_approved' ) ;
#141 = CIRCLE ( 'NONE', #250, 0.03904999999999982097 ) ;
#142 = CALENDAR_DATE ( 2024, 10, 4 ) ;
#143 = CARTESIAN_POINT ( 'NONE',  ( 3.425143193405110303E-16, 0.03904999999999982097, 7.708327822319635891E-17 ) ) ;
#144 = SECURITY_CLASSIFICATION_LEVEL ( 'unclassified' ) ;
#145 = DIRECTION ( 'NONE',  ( -6.982962677686265922E-15, -1.000000000000000000, 3.469845229104974431E-15 ) ) ;
#146 = SHAPE_DEFINITION_REPRESENTATION ( #311, #204 ) ;
#147 = EDGE_CURVE ( 'NONE', #153, #258, #378, .T. ) ;
#148 = CIRCLE ( 'NONE', #171, 0.05905000000000001914 ) ;
#149 = ORIENTED_EDGE ( 'NONE', *, *, #235, .F. ) ;
#150 = SECURITY_CLASSIFICATION ( '', '', #144 ) ;
#151 = CARTESIAN_POINT ( 'NONE',  ( 0.000000000000000000, 0.000000000000000000, 0.000000000000000000 ) ) ;
#152 = EDGE_LOOP ( 'NONE', ( #405, #124, #156, #188 ) ) ;
#153 = VERTEX_POINT ( 'NONE', #70 ) ;
#154 = ORIENTED_EDGE ( 'NONE', *, *, #267, .T. ) ;
#155 = CC_DESIGN_DATE_AND_TIME_ASSIGNMENT ( #28, #115, ( #46 ) ) ;
#156 = ORIENTED_EDGE ( 'NONE', *, *, #23, .F. ) ;
#157 = DIRECTION ( 'NONE',  ( -4.851104656540953231E-15, -0.7071067811865484609, -0.7071067811865465735 ) ) ;
#158 = LOCAL_TIME ( 8, 4, 48.00000000000000000, #182 ) ;
#159 = ORIENTED_EDGE ( 'NONE', *, *, #147, .F. ) ;
#160 = DIRECTION ( 'NONE',  ( -2.445468806185136597E-29, 3.491481338843145583E-15, 1.000000000000000000 ) ) ;
#161 = ORIENTED_EDGE ( 'NONE', *, *, #379, .F. ) ;
#162 = ADVANCED_FACE ( 'NONE', ( #266 ), #355, .F. ) ;
#163 = DIRECTION ( 'NONE',  ( -2.460577220864333335E-29, 3.469845229104974825E-15, 1.000000000000000000 ) ) ;
#164 = ORIENTED_EDGE ( 'NONE', *, *, #100, .T. ) ;
#165 = FACE_OUTER_BOUND ( 'NONE', #409, .T. ) ;
#166 = AXIS2_PLACEMENT_3D ( 'NONE', #35, #125, #294 ) ;
#167 = PLANE ( 'NONE',  #221 ) ;
#168 = DESIGN_CONTEXT ( 'detailed design', #211, 'design' ) ;
#169 = DIRECTION ( 'NONE',  ( -1.000000000000000000, 7.105427357601001070E-15, -4.926315508542082329E-29 ) ) ;
#170 = EDGE_CURVE ( 'NONE', #126, #356, #350, .T. ) ;
#171 = AXIS2_PLACEMENT_3D ( 'NONE', #292, #383, #198 ) ;
#172 = CARTESIAN_POINT ( 'NONE',  ( 2.503426416891723784E-29, -3.574229446573727613E-15, -1.023699999999999832 ) ) ;
#173 = DIRECTION ( 'NONE',  ( -1.000000000000000000, 6.982962677686265922E-15, -4.883557194083112340E-29 ) ) ;
#174 = CALENDAR_DATE ( 2024, 10, 4 ) ;
#175 =( GEOMETRIC_REPRESENTATION_CONTEXT ( 3 ) GLOBAL_UNCERTAINTY_ASSIGNED_CONTEXT ( ( #131 ) ) GLOBAL_UNIT_ASSIGNED_CONTEXT ( ( #206, #396, #304 ) ) REPRESENTATION_CONTEXT ( 'NONE', 'WORKASPACE' ) );
#176 = DATE_TIME_ROLE ( 'classification_date' ) ;
#177 = CYLINDRICAL_SURFACE ( 'NONE', #212, 0.05905000000000006771 ) ;
#178 = CARTESIAN_POINT ( 'NONE',  ( 2.518892900998818268E-29, -3.552080561034762086E-15, -1.023699999999999832 ) ) ;
#179 = EDGE_CURVE ( 'NONE', #181, #24, #365, .T. ) ;
#180 = CALENDAR_DATE ( 2024, 10, 4 ) ;
#181 = VERTEX_POINT ( 'NONE', #259 ) ;
#182 = COORDINATED_UNIVERSAL_TIME_OFFSET ( 5, 0, .BEHIND. ) ;
#183 = AXIS2_PLACEMENT_3D ( 'NONE', #359, #389, #94 ) ;
#184 = SPHERICAL_SURFACE ( 'NONE', #332, 0.05905000000000025506 ) ;
#185 = VECTOR ( 'NONE', #323, 39.37007874015748143 ) ;
#186 = EDGE_CURVE ( 'NONE', #347, #295, #98, .T. ) ;
#187 = CARTESIAN_POINT ( 'NONE',  ( 3.183141170014464762E-29, -5.491615626124592102E-15, -1.437049999999999939 ) ) ;
#188 = ORIENTED_EDGE ( 'NONE', *, *, #298, .F. ) ;
#189 = CARTESIAN_POINT ( 'NONE',  ( -3.365074267906927480E-16, -0.03904999999999982097, 3.480781906162936462E-16 ) ) ;
#190 = ORIENTED_EDGE ( 'NONE', *, *, #37, .T. ) ;
#191 = CARTESIAN_POINT ( 'NONE',  ( 4.124700581087631860E-16, 0.05804999999999643778, -1.023699999999999832 ) ) ;
#192 = CIRCLE ( 'NONE', #7, 0.05905000000000001914 ) ;
#193 = ORIENTED_EDGE ( 'NONE', *, *, #366, .T. ) ;
#194 = ADVANCED_FACE ( 'NONE', ( #165 ), #167, .F. ) ;
#195 = CIRCLE ( 'NONE', #321, 0.05905000000000025506 ) ;
#196 = CARTESIAN_POINT ( 'NONE',  ( 0.05905000000000001914, -4.123439461173741806E-16, 2.879382386107500921E-30 ) ) ;
#197 = ORIENTED_EDGE ( 'NONE', *, *, #138, .F. ) ;
#198 = DIRECTION ( 'NONE',  ( 1.000000000000000000, -6.982962677686270655E-15, 0.000000000000000000 ) ) ;
#199 = CARTESIAN_POINT ( 'NONE',  ( 0.000000000000000000, 0.000000000000000000, 0.000000000000000000 ) ) ;
#200 = AXIS2_PLACEMENT_3D ( 'NONE', #224, #234, #67 ) ;
#201 = DIRECTION ( 'NONE',  ( 1.000000000000000000, -6.982962677686270655E-15, 0.000000000000000000 ) ) ;
#202 = LINE ( 'NONE', #367, #274 ) ;
#203 =( LENGTH_UNIT ( ) NAMED_UNIT ( * ) SI_UNIT ( $, .METRE. ) );
#204 = ADVANCED_BREP_SHAPE_REPRESENTATION ( '48846', ( #71, #208, #1 ), #175 ) ;
#205 = CIRCLE ( 'NONE', #83, 0.05905000000000013016 ) ;
#206 =( CONVERSION_BASED_UNIT ( 'INCH', #361 ) LENGTH_UNIT ( ) NAMED_UNIT ( #299 ) );
#207 = DIRECTION ( 'NONE',  ( 1.000000000000000000, -6.982962677686262766E-15, 0.000000000000000000 ) ) ;
#208 = MANIFOLD_SOLID_BREP ( 'Body-Move/Copy2[2]', #15 ) ;
#209 = MECHANICAL_CONTEXT ( 'NONE', #412, 'mechanical' ) ;
#210 = DIRECTION ( 'NONE',  ( 1.000000000000000000, -6.982962677686265922E-15, 4.883557194083112340E-29 ) ) ;
#211 = APPLICATION_CONTEXT ( 'configuration controlled 3d designs of mechanical parts and assemblies' ) ;
#212 = AXIS2_PLACEMENT_3D ( 'NONE', #407, #118, #145 ) ;
#213 = CIRCLE ( 'NONE', #135, 0.05905000000000013016 ) ;
#214 = PERSON_AND_ORGANIZATION_ROLE ( 'classification_officer' ) ;
#215 = CARTESIAN_POINT ( 'NONE',  ( 3.514260947928350449E-29, -5.017433257984542594E-15, -1.437049999999999939 ) ) ;
#216 = PERSON_AND_ORGANIZATION ( #357, #302 ) ;
#217 = DIRECTION ( 'NONE',  ( -2.460577220864333896E-29, 3.469845229104974825E-15, 1.000000000000000000 ) ) ;
#218 = CARTESIAN_POINT ( 'NONE',  ( -4.123439461173744764E-16, -0.05905000000000006771, 2.048943607786489689E-16 ) ) ;
#219 = EDGE_CURVE ( 'NONE', #24, #181, #281, .T. ) ;
#220 = PERSON_AND_ORGANIZATION ( #357, #302 ) ;
#221 = AXIS2_PLACEMENT_3D ( 'NONE', #325, #8, #123 ) ;
#222 = ORIENTED_EDGE ( 'NONE', *, *, #362, .F. ) ;
#223 = ORIENTED_EDGE ( 'NONE', *, *, #37, .F. ) ;
#224 = CARTESIAN_POINT ( 'NONE',  ( 4.123439461173991776E-16, 0.05904999999999643867, -1.023700000000000054 ) ) ;
#225 = VERTEX_POINT ( 'NONE', #262 ) ;
#226 = DIRECTION ( 'NONE',  ( -6.982962677686265922E-15, -1.000000000000000000, 2.353012914439503496E-15 ) ) ;
#227 = VERTEX_POINT ( 'NONE', #358 ) ;
#228 = CARTESIAN_POINT ( 'NONE',  ( -4.051124067684085231E-16, -0.05905000000000008159, -0.01999999999999986511 ) ) ;
#229 = LOCAL_TIME ( 8, 4, 48.00000000000000000, #88 ) ;
#230 = APPROVAL_PERSON_ORGANIZATION ( #276, #391, #245 ) ;
#231 = ADVANCED_FACE ( 'NONE', ( #257 ), #38, .T. ) ;
#232 = VERTEX_POINT ( 'NONE', #189 ) ;
#233 = DIRECTION ( 'NONE',  ( -2.460577220864333896E-29, 3.469845229104974431E-15, 1.000000000000000000 ) ) ;
#234 = DIRECTION ( 'NONE',  ( 2.438088387897960049E-29, -3.491481338843145188E-15, -1.000000000000000000 ) ) ;
#235 = EDGE_CURVE ( 'NONE', #232, #24, #320, .T. ) ;
#236 = CARTESIAN_POINT ( 'NONE',  ( -4.053609834396624790E-16, -0.05805000000000353627, -1.023699999999999610 ) ) ;
#237 = CC_DESIGN_APPROVAL ( #240, ( #46 ) ) ;
#238 = CARTESIAN_POINT ( 'NONE',  ( -4.053609834396624790E-16, -0.05805000000000353627, -1.023699999999999610 ) ) ;
#239 = CARTESIAN_POINT ( 'NONE',  ( 2.516432323777953558E-29, -3.548610715805655912E-15, -1.022699999999999720 ) ) ;
#240 = APPROVAL ( #140, 'UNSPECIFIED' ) ;
#241 = DIRECTION ( 'NONE',  ( -6.982962677686265133E-15, -1.000000000000000000, 4.626330217890359081E-15 ) ) ;
#242 = VECTOR ( 'NONE', #74, 39.37007874015748143 ) ;
#243 = AXIS2_PLACEMENT_3D ( 'NONE', #62, #385, #352 ) ;
#244 = DIRECTION ( 'NONE',  ( -2.445468806185136597E-29, 3.491481338843145583E-15, 1.000000000000000000 ) ) ;
#245 = APPROVAL_ROLE ( '' ) ;
#246 = DIRECTION ( 'NONE',  ( -2.460577220864333896E-29, 3.469845229104974431E-15, 1.000000000000000000 ) ) ;
#247 = DIRECTION ( 'NONE',  ( -6.982962677686265922E-15, -1.000000000000000000, 3.469845229104975220E-15 ) ) ;
#248 = CONICAL_SURFACE ( 'NONE', #265, 0.05905000000000001914, 0.7853981633974461696 ) ;
#249 = ORIENTED_EDGE ( 'NONE', *, *, #23, .T. ) ;
#250 = AXIS2_PLACEMENT_3D ( 'NONE', #59, #30, #247 ) ;
#251 = CALENDAR_DATE ( 2024, 10, 4 ) ;
#252 = DIRECTION ( 'NONE',  ( -2.445468806185136597E-29, 3.491481338843145583E-15, 1.000000000000000000 ) ) ;
#253 = DATE_AND_TIME ( #180, #229 ) ;
#254 = FACE_OUTER_BOUND ( 'NONE', #152, .T. ) ;
#255 = EDGE_LOOP ( 'NONE', ( #36, #39, #114, #314 ) ) ;
#256 = VECTOR ( 'NONE', #300, 39.37007874015748854 ) ;
#257 = FACE_OUTER_BOUND ( 'NONE', #382, .T. ) ;
#258 = VERTEX_POINT ( 'NONE', #264 ) ;
#259 = CARTESIAN_POINT ( 'NONE',  ( 4.123439461173745750E-16, 0.05904999999999994975, -0.02000000000000027450 ) ) ;
#260 = EDGE_LOOP ( 'NONE', ( #149, #285, #384, #353 ) ) ;
#261 = ADVANCED_FACE ( 'NONE', ( #289 ), #2, .F. ) ;
#262 = CARTESIAN_POINT ( 'NONE',  ( 3.330070981488499955E-29, -5.694171829508798064E-15, -1.496100000000000207 ) ) ;
#263 = ORIENTED_EDGE ( 'NONE', *, *, #147, .T. ) ;
#264 = CARTESIAN_POINT ( 'NONE',  ( -0.05905000000000001914, -3.876255866812795611E-15, -1.023699999999999832 ) ) ;
#265 = AXIS2_PLACEMENT_3D ( 'NONE', #75, #338, #395 ) ;
#266 = FACE_OUTER_BOUND ( 'NONE', #95, .T. ) ;
#267 = EDGE_CURVE ( 'NONE', #295, #227, #148, .T. ) ;
#268 = CARTESIAN_POINT ( 'NONE',  ( 2.518892900998818268E-29, -3.552080561034762086E-15, -1.023699999999999832 ) ) ;
#269 = CARTESIAN_POINT ( 'NONE',  ( 4.195754854663525585E-16, 0.05904999999999657745, -1.022699999999999942 ) ) ;
#270 = AXIS2_PLACEMENT_3D ( 'NONE', #80, #309, #342 ) ;
#271 = AXIS2_PLACEMENT_3D ( 'NONE', #268, #78, #390 ) ;
#272 = DIRECTION ( 'NONE',  ( -2.445468806185136597E-29, 3.491481338843145583E-15, 1.000000000000000000 ) ) ;
#273 = ADVANCED_FACE ( 'NONE', ( #4 ), #322, .T. ) ;
#274 = VECTOR ( 'NONE', #105, 39.37007874015748143 ) ;
#275 = CIRCLE ( 'NONE', #397, 0.05905000000000001914 ) ;
#276 = PERSON_AND_ORGANIZATION ( #357, #302 ) ;
#277 = PRODUCT_RELATED_PRODUCT_CATEGORY ( 'detail', '', ( #20 ) ) ;
#278 = FACE_OUTER_BOUND ( 'NONE', #345, .T. ) ;
#279 = COORDINATED_UNIVERSAL_TIME_OFFSET ( 5, 0, .BEHIND. ) ;
#280 = DIRECTION ( 'NONE',  ( -2.460577220864333896E-29, 3.469845229104974431E-15, 1.000000000000000000 ) ) ;
#281 = CIRCLE ( 'NONE', #19, 0.05905000000000001914 ) ;
#282 = ORIENTED_EDGE ( 'NONE', *, *, #170, .T. ) ;
#283 = PERSON_AND_ORGANIZATION ( #357, #302 ) ;
#284 = LINE ( 'NONE', #218, #136 ) ;
#285 = ORIENTED_EDGE ( 'NONE', *, *, #29, .F. ) ;
#286 = EDGE_LOOP ( 'NONE', ( #97, #377, #82, #318 ) ) ;
#287 = ORIENTED_EDGE ( 'NONE', *, *, #408, .F. ) ;
#288 = PRODUCT_DEFINITION_FORMATION_WITH_SPECIFIED_SOURCE ( 'ANY', '', #20, .NOT_KNOWN. ) ;
#289 = FACE_OUTER_BOUND ( 'NONE', #57, .T. ) ;
#290 = ORIENTED_EDGE ( 'NONE', *, *, #186, .T. ) ;
#291 = APPROVAL ( #376, 'UNSPECIFIED' ) ;
#292 = CARTESIAN_POINT ( 'NONE',  ( 3.514260947928350449E-29, -5.017433257984542594E-15, -1.437049999999999939 ) ) ;
#293 = VERTEX_POINT ( 'NONE', #328 ) ;
#294 = DIRECTION ( 'NONE',  ( 1.000000000000000000, -6.982962677686270655E-15, 0.000000000000000000 ) ) ;
#295 = VERTEX_POINT ( 'NONE', #40 ) ;
#296 = CARTESIAN_POINT ( 'NONE',  ( 2.503426416891723784E-29, -3.574229446573727613E-15, -1.023699999999999832 ) ) ;
#297 = AXIS2_PLACEMENT_3D ( 'NONE', #296, #33, #64 ) ;
#298 = EDGE_CURVE ( 'NONE', #227, #293, #192, .T. ) ;
#299 = DIMENSIONAL_EXPONENTS ( 1.000000000000000000, 0.000000000000000000, 0.000000000000000000, 0.000000000000000000, 0.000000000000000000, 0.000000000000000000, 0.000000000000000000 ) ;
#300 = DIRECTION ( 'NONE',  ( -4.937700262164715281E-15, -0.7071067811865691111, 0.7071067811865257013 ) ) ;
#301 = FACE_OUTER_BOUND ( 'NONE', #286, .T. ) ;
#302 = ORGANIZATION ( 'UNSPECIFIED', 'UNSPECIFIED', '' ) ;
#303 = ADVANCED_FACE ( 'NONE', ( #102 ), #44, .T. ) ;
#304 =( NAMED_UNIT ( * ) SI_UNIT ( $, .STERADIAN. ) SOLID_ANGLE_UNIT ( ) );
#305 = CARTESIAN_POINT ( 'NONE',  ( 2.516432323777953558E-29, -3.548610715805655912E-15, -1.022699999999999720 ) ) ;
#306 = APPROVAL_ROLE ( '' ) ;
#307 = EDGE_CURVE ( 'NONE', #119, #181, #49, .T. ) ;
#308 = AXIS2_PLACEMENT_3D ( 'NONE', #310, #280, #87 ) ;
#309 = DIRECTION ( 'NONE',  ( -2.460577220864333896E-29, 3.469845229104974431E-15, 1.000000000000000000 ) ) ;
#310 = CARTESIAN_POINT ( 'NONE',  ( -5.230713127078351856E-45, 7.376222471259837295E-31, 2.125807344197449902E-16 ) ) ;
#311 = PRODUCT_DEFINITION_SHAPE ( 'NONE', 'NONE',  #46 ) ;
#312 = EDGE_CURVE ( 'NONE', #356, #181, #202, .T. ) ;
#313 = PERSON_AND_ORGANIZATION_ROLE ( 'design_supplier' ) ;
#314 = ORIENTED_EDGE ( 'NONE', *, *, #307, .F. ) ;
#315 = APPROVAL_PERSON_ORGANIZATION ( #283, #240, #371 ) ;
#316 = PERSON_AND_ORGANIZATION ( #357, #302 ) ;
#317 = DIRECTION ( 'NONE',  ( 6.982962677686265922E-15, 1.000000000000000000, -4.626330217890349615E-15 ) ) ;
#318 = ORIENTED_EDGE ( 'NONE', *, *, #186, .F. ) ;
#319 = VERTEX_POINT ( 'NONE', #14 ) ;
#320 = LINE ( 'NONE', #228, #41 ) ;
#321 = AXIS2_PLACEMENT_3D ( 'NONE', #187, #210, #399 ) ;
#322 = CONICAL_SURFACE ( 'NONE', #387, 0.05804999999999999050, 0.7853981633974824739 ) ;
#323 = DIRECTION ( 'NONE',  ( -2.445468806185136877E-29, 3.491481338843145188E-15, 1.000000000000000000 ) ) ;
#324 = ORIENTED_EDGE ( 'NONE', *, *, #179, .F. ) ;
#325 = CARTESIAN_POINT ( 'NONE',  ( 2.726846925636474363E-16, 0.03904999999999982097, -2.920708898667613620E-17 ) ) ;
#326 = ORIENTED_EDGE ( 'NONE', *, *, #312, .F. ) ;
#327 = EDGE_CURVE ( 'NONE', #225, #347, #393, .T. ) ;
#328 = CARTESIAN_POINT ( 'NONE',  ( -0.05905000000000001914, -3.876255866812795611E-15, -1.437049999999999939 ) ) ;
#329 = DIRECTION ( 'NONE',  ( -6.982962677686265922E-15, -1.000000000000000000, 3.469845229104974431E-15 ) ) ;
#330 = AXIS2_PLACEMENT_3D ( 'NONE', #388, #160, #381 ) ;
#331 = CC_DESIGN_SECURITY_CLASSIFICATION ( #150, ( #288 ) ) ;
#332 = AXIS2_PLACEMENT_3D ( 'NONE', #55, #111, #317 ) ;
#333 = DIRECTION ( 'NONE',  ( -2.460577220864333896E-29, 3.469845229104974431E-15, 1.000000000000000000 ) ) ;
#334 = DIRECTION ( 'NONE',  ( -2.445468806185136597E-29, 3.491481338843145583E-15, 1.000000000000000000 ) ) ;
#335 = EDGE_CURVE ( 'NONE', #343, #319, #132, .T. ) ;
#336 = CARTESIAN_POINT ( 'NONE',  ( 3.183141170014464762E-29, -5.491615626124592102E-15, -1.437049999999999939 ) ) ;
#337 = SPHERICAL_SURFACE ( 'NONE', #139, 0.05905000000000025506 ) ;
#338 = DIRECTION ( 'NONE',  ( 2.460577220864333896E-29, -3.469845229104974431E-15, -1.000000000000000000 ) ) ;
#339 = PERSON_AND_ORGANIZATION ( #357, #302 ) ;
#340 = ORIENTED_EDGE ( 'NONE', *, *, #170, .F. ) ;
#341 = AXIS2_PLACEMENT_3D ( 'NONE', #10, #244, #76 ) ;
#342 = DIRECTION ( 'NONE',  ( -6.982962677686265922E-15, -1.000000000000000000, 2.353012914439503496E-15 ) ) ;
#343 = VERTEX_POINT ( 'NONE', #238 ) ;
#344 = COORDINATED_UNIVERSAL_TIME_OFFSET ( 5, 0, .BEHIND. ) ;
#345 = EDGE_LOOP ( 'NONE', ( #193, #348, #3, #223 ) ) ;
#346 = COORDINATED_UNIVERSAL_TIME_OFFSET ( 5, 0, .BEHIND. ) ;
#347 = VERTEX_POINT ( 'NONE', #137 ) ;
#348 = ORIENTED_EDGE ( 'NONE', *, *, #312, .T. ) ;
#349 = EDGE_CURVE ( 'NONE', #343, #126, #403, .T. ) ;
#350 = LINE ( 'NONE', #191, #354 ) ;
#351 = ORIENTED_EDGE ( 'NONE', *, *, #362, .T. ) ;
#352 = DIRECTION ( 'NONE',  ( 6.982962677686265922E-15, 1.000000000000000000, -3.469747663417776213E-15 ) ) ;
#353 = ORIENTED_EDGE ( 'NONE', *, *, #179, .T. ) ;
#354 = VECTOR ( 'NONE', #42, 39.37007874015748854 ) ;
#355 = PLANE ( 'NONE',  #200 ) ;
#356 = VERTEX_POINT ( 'NONE', #269 ) ;
#357 = PERSON ( 'UNSPECIFIED', 'UNSPECIFIED', 'UNSPECIFIED', ('UNSPECIFIED'), ('UNSPECIFIED'), ('UNSPECIFIED') ) ;
#358 = CARTESIAN_POINT ( 'NONE',  ( 4.123439461174084467E-16, 0.05904999999999487742, -1.437050000000000161 ) ) ;
#359 = CARTESIAN_POINT ( 'NONE',  ( 4.921154441728684642E-31, -6.939690458209972133E-17, -0.02000000000000006981 ) ) ;
#360 = CARTESIAN_POINT ( 'NONE',  ( 3.514260947928350449E-29, -5.017433257984542594E-15, -1.437049999999999939 ) ) ;
#361 = LENGTH_MEASURE_WITH_UNIT ( LENGTH_MEASURE( 0.02539999999999999897 ), #203 );
#362 = EDGE_CURVE ( 'NONE', #258, #153, #65, .T. ) ;
#363 = DIRECTION ( 'NONE',  ( -2.460577220864333896E-29, 3.469845229104974431E-15, 1.000000000000000000 ) ) ;
#364 = CARTESIAN_POINT ( 'NONE',  ( 3.183141170014464762E-29, -5.491615626124592102E-15, -1.437049999999999939 ) ) ;
#365 = CIRCLE ( 'NONE', #183, 0.05905000000000001914 ) ;
#366 = EDGE_CURVE ( 'NONE', #319, #356, #213, .T. ) ;
#367 = CARTESIAN_POINT ( 'NONE',  ( 4.195754854663395916E-16, 0.05905000000000006771, -2.048943607786489689E-16 ) ) ;
#368 = PERSON_AND_ORGANIZATION_ROLE ( 'creator' ) ;
#369 = FACE_OUTER_BOUND ( 'NONE', #5, .T. ) ;
#370 = FACE_OUTER_BOUND ( 'NONE', #85, .T. ) ;
#371 = APPROVAL_ROLE ( '' ) ;
#372 = CYLINDRICAL_SURFACE ( 'NONE', #13, 0.05905000000000006771 ) ;
#373 = ADVANCED_FACE ( 'NONE', ( #301 ), #337, .T. ) ;
#374 = DATE_AND_TIME ( #174, #404 ) ;
#375 = CARTESIAN_POINT ( 'NONE',  ( -4.051124067684085231E-16, -0.05905000000000008159, -0.01999999999999986511 ) ) ;
#376 = APPROVAL_STATUS ( 'not_yet_approved' ) ;
#377 = ORIENTED_EDGE ( 'NONE', *, *, #43, .T. ) ;
#378 = CIRCLE ( 'NONE', #297, 0.05905000000000001914 ) ;
#379 = EDGE_CURVE ( 'NONE', #356, #319, #205, .T. ) ;
#380 = CIRCLE ( 'NONE', #308, 0.03904999999999982097 ) ;
#381 = DIRECTION ( 'NONE',  ( 1.000000000000000000, -6.982962677686266711E-15, 4.876176775795935793E-29 ) ) ;
#382 = EDGE_LOOP ( 'NONE', ( #68, #63, #159, #197, #154 ) ) ;
#383 = DIRECTION ( 'NONE',  ( -2.445468806185136597E-29, 3.491481338843145583E-15, 1.000000000000000000 ) ) ;
#384 = ORIENTED_EDGE ( 'NONE', *, *, #307, .T. ) ;
#385 = DIRECTION ( 'NONE',  ( 2.460577220864333896E-29, -3.469845229104974431E-15, -1.000000000000000000 ) ) ;
#386 = CC_DESIGN_PERSON_AND_ORGANIZATION_ASSIGNMENT ( #117, #58, ( #20 ) ) ;
#387 = AXIS2_PLACEMENT_3D ( 'NONE', #99, #233, #226 ) ;
#388 = CARTESIAN_POINT ( 'NONE',  ( 0.000000000000000000, 0.000000000000000000, 0.000000000000000000 ) ) ;
#389 = DIRECTION ( 'NONE',  ( -2.460577220864333896E-29, 3.469845229104974431E-15, 1.000000000000000000 ) ) ;
#390 = DIRECTION ( 'NONE',  ( -6.982962677686265922E-15, -1.000000000000000000, 2.353012914439503496E-15 ) ) ;
#391 = APPROVAL ( #109, 'UNSPECIFIED' ) ;
#392 = DIRECTION ( 'NONE',  ( -2.445468806185136877E-29, 3.491481338843145188E-15, 1.000000000000000000 ) ) ;
#393 = CIRCLE ( 'NONE', #27, 0.05905000000000025506 ) ;
#394 = CARTESIAN_POINT ( 'NONE',  ( 4.123439461173745750E-16, 0.05904999999999994975, -0.02000000000000027450 ) ) ;
#395 = DIRECTION ( 'NONE',  ( 6.982962677686265922E-15, 1.000000000000000000, -3.469747663417776213E-15 ) ) ;
#396 =( NAMED_UNIT ( * ) PLANE_ANGLE_UNIT ( ) SI_UNIT ( $, .RADIAN. ) );
#397 = AXIS2_PLACEMENT_3D ( 'NONE', #215, #252, #60 ) ;
#398 = DIRECTION ( 'NONE',  ( 0.000000000000000000, 0.000000000000000000, 1.000000000000000000 ) ) ;
#399 = DIRECTION ( 'NONE',  ( 6.982962677686266711E-15, 1.000000000000000000, 0.000000000000000000 ) ) ;
#400 = DIRECTION ( 'NONE',  ( 1.000000000000000000, 0.000000000000000000, 0.000000000000000000 ) ) ;
#401 = ADVANCED_FACE ( 'NONE', ( #12 ), #248, .T. ) ;
#402 = ORIENTED_EDGE ( 'NONE', *, *, #29, .T. ) ;
#403 = CIRCLE ( 'NONE', #271, 0.05804999999999999050 ) ;
#404 = LOCAL_TIME ( 8, 4, 48.00000000000000000, #346 ) ;
#405 = ORIENTED_EDGE ( 'NONE', *, *, #43, .F. ) ;
#406 = APPLICATION_PROTOCOL_DEFINITION ( 'international standard', 'config_control_design', 1994, #412 ) ;
#407 = CARTESIAN_POINT ( 'NONE',  ( 0.000000000000000000, 0.000000000000000000, 0.000000000000000000 ) ) ;
#408 = EDGE_CURVE ( 'NONE', #293, #258, #17, .T. ) ;
#409 = EDGE_LOOP ( 'NONE', ( #402, #164 ) ) ;
#410 = DIRECTION ( 'NONE',  ( -6.982962677686265922E-15, -1.000000000000000000, 3.469747663417776213E-15 ) ) ;
#411 = ORIENTED_EDGE ( 'NONE', *, *, #349, .T. ) ;
#412 = APPLICATION_CONTEXT ( 'configuration controlled 3d designs of mechanical parts and assemblies' ) ;
ENDSEC;
END-ISO-10303-21;
