ISO-10303-21;
HEADER;
FILE_DESCRIPTION (( 'STEP AP203' ),
    '1' );
FILE_NAME ('48867.STEP',
    '2024-04-10T12:07:13',
    ( '' ),
    ( '' ),
    'SwSTEP 2.0',
    'SolidWorks 2023',
    '' );
FILE_SCHEMA (( 'CONFIG_CONTROL_DESIGN' ));
ENDSEC;

DATA;
#1 = LINE ( 'NONE', #354, #305 ) ;
#2 = CC_DESIGN_PERSON_AND_ORGANIZATION_ASSIGNMENT ( #128, #268, ( #199 ) ) ;
#3 = ORIENTED_EDGE ( 'NONE', *, *, #82, .F. ) ;
#4 = CIRCLE ( 'NONE', #174, 0.05804999999999999050 ) ;
#5 = CALENDAR_DATE ( 2024, 10, 4 ) ;
#6 = DIRECTION ( 'NONE',  ( -6.982962677686265922E-15, -1.000000000000000000, 3.464101218148871426E-15 ) ) ;
#7 = EDGE_CURVE ( 'NONE', #317, #327, #124, .T. ) ;
#8 = EDGE_CURVE ( 'NONE', #95, #212, #401, .T. ) ;
#9 = APPROVAL_DATE_TIME ( #233, #69 ) ;
#10 = ORIENTED_EDGE ( 'NONE', *, *, #150, .T. ) ;
#11 = DIRECTION ( 'NONE',  ( -4.851104656540957964E-15, -0.7071067811865491270, -0.7071067811865459074 ) ) ;
#12 = CIRCLE ( 'NONE', #116, 0.05905000000000025506 ) ;
#13 = FACE_OUTER_BOUND ( 'NONE', #240, .T. ) ;
#14 = AXIS2_PLACEMENT_3D ( 'NONE', #410, #227, #52 ) ;
#15 = CARTESIAN_POINT ( 'NONE',  ( -4.123439461173496766E-16, -0.05905000000000366900, -1.022699999999999498 ) ) ;
#16 = EDGE_CURVE ( 'NONE', #87, #95, #180, .T. ) ;
#17 = DIRECTION ( 'NONE',  ( 2.464588242277002314E-29, -3.464101218148871820E-15, -1.000000000000000000 ) ) ;
#18 = PLANE ( 'NONE',  #200 ) ;
#19 = CLOSED_SHELL ( 'NONE', ( #223, #122, #259, #364, #72, #209, #78, #291 ) ) ;
#20 = ORGANIZATION ( 'UNSPECIFIED', 'UNSPECIFIED', '' ) ;
#21 = DIRECTION ( 'NONE',  ( -7.105427357601001070E-15, -1.000000000000000000, 0.000000000000000000 ) ) ;
#22 = ORIENTED_EDGE ( 'NONE', *, *, #8, .T. ) ;
#23 = CARTESIAN_POINT ( 'NONE',  ( 4.929176484554022950E-31, -6.928202436297765531E-17, -0.02000000000000006981 ) ) ;
#24 = EDGE_CURVE ( 'NONE', #87, #340, #1, .T. ) ;
#25 = EDGE_LOOP ( 'NONE', ( #127, #383, #345, #120 ) ) ;
#26 =( NAMED_UNIT ( * ) SI_UNIT ( $, .STERADIAN. ) SOLID_ANGLE_UNIT ( ) );
#27 = EDGE_LOOP ( 'NONE', ( #59, #109 ) ) ;
#28 = LOCAL_TIME ( 8, 7, 13.00000000000000000, #169 ) ;
#29 = CALENDAR_DATE ( 2024, 10, 4 ) ;
#30 = ORIENTED_EDGE ( 'NONE', *, *, #249, .F. ) ;
#31 = APPROVAL_ROLE ( '' ) ;
#32 = CARTESIAN_POINT ( 'NONE',  ( 2.520534395376689975E-29, -3.542736315800849943E-15, -1.022699999999999720 ) ) ;
#33 = PERSON_AND_ORGANIZATION ( #204, #20 ) ;
#34 = CARTESIAN_POINT ( 'NONE',  ( -4.053609834396624297E-16, -0.05805000000000352933, -1.023699999999999610 ) ) ;
#35 = APPROVAL_PERSON_ORGANIZATION ( #412, #69, #191 ) ;
#36 = MECHANICAL_CONTEXT ( 'NONE', #334, 'mechanical' ) ;
#37 = ORIENTED_EDGE ( 'NONE', *, *, #178, .F. ) ;
#38 = CARTESIAN_POINT ( 'NONE',  ( 2.522998983618967196E-29, -3.546200417018999006E-15, -1.023699999999999832 ) ) ;
#39 = CARTESIAN_POINT ( 'NONE',  ( 4.929176484554022950E-31, -6.928202436297765531E-17, -0.02000000000000006981 ) ) ;
#40 = CIRCLE ( 'NONE', #285, 0.05905000000000025506 ) ;
#41 = DIRECTION ( 'NONE',  ( 1.000000000000000000, -6.982962677686262766E-15, 0.000000000000000000 ) ) ;
#42 =( GEOMETRIC_REPRESENTATION_CONTEXT ( 3 ) GLOBAL_UNCERTAINTY_ASSIGNED_CONTEXT ( ( #103 ) ) GLOBAL_UNIT_ASSIGNED_CONTEXT ( ( #50, #247, #26 ) ) REPRESENTATION_CONTEXT ( 'NONE', 'WORKASPACE' ) );
#43 = ORIENTED_EDGE ( 'NONE', *, *, #214, .F. ) ;
#44 = DIRECTION ( 'NONE',  ( 6.982962677686265922E-15, 1.000000000000000000, -3.469747663417776213E-15 ) ) ;
#45 = CARTESIAN_POINT ( 'NONE',  ( 3.183141170014464762E-29, -5.491615626124592102E-15, -1.437049999999999939 ) ) ;
#46 = CC_DESIGN_DATE_AND_TIME_ASSIGNMENT ( #136, #353, ( #161 ) ) ;
#47 = ORIENTED_EDGE ( 'NONE', *, *, #249, .T. ) ;
#48 = CARTESIAN_POINT ( 'NONE',  ( 2.726846925636469433E-16, 0.03904999999999975158, -1.415514345740654226E-17 ) ) ;
#49 = VECTOR ( 'NONE', #11, 39.37007874015748143 ) ;
#50 =( CONVERSION_BASED_UNIT ( 'INCH', #250 ) LENGTH_UNIT ( ) NAMED_UNIT ( #367 ) );
#51 = ORIENTED_EDGE ( 'NONE', *, *, #214, .T. ) ;
#52 = DIRECTION ( 'NONE',  ( 6.982962677686265922E-15, 1.000000000000000000, -3.469747663417776213E-15 ) ) ;
#53 = ORIENTED_EDGE ( 'NONE', *, *, #350, .T. ) ;
#54 = FACE_OUTER_BOUND ( 'NONE', #25, .T. ) ;
#55 = ORIENTED_EDGE ( 'NONE', *, *, #404, .F. ) ;
#56 = PRODUCT ( '48867', '48867', '', ( #36 ) ) ;
#57 = CIRCLE ( 'NONE', #309, 0.05905000000000001914 ) ;
#58 = MANIFOLD_SOLID_BREP ( 'Body-Move/Copy2[1]', #167 ) ;
#59 = ORIENTED_EDGE ( 'NONE', *, *, #60, .F. ) ;
#60 = EDGE_CURVE ( 'NONE', #157, #289, #224, .T. ) ;
#61 = APPLICATION_PROTOCOL_DEFINITION ( 'international standard', 'config_control_design', 1994, #80 ) ;
#62 = DIRECTION ( 'NONE',  ( -6.982962677686265922E-15, -1.000000000000000000, 3.464101218148871820E-15 ) ) ;
#63 = AXIS2_PLACEMENT_3D ( 'NONE', #393, #267, #70 ) ;
#64 = DIRECTION ( 'NONE',  ( -2.445468806185136597E-29, 3.491481338843145583E-15, 1.000000000000000000 ) ) ;
#65 = APPROVAL_DATE_TIME ( #134, #88 ) ;
#66 = DIRECTION ( 'NONE',  ( 6.982962677686266711E-15, 1.000000000000000000, 0.000000000000000000 ) ) ;
#67 = PERSON_AND_ORGANIZATION_ROLE ( 'design_owner' ) ;
#68 = VERTEX_POINT ( 'NONE', #265 ) ;
#69 = APPROVAL ( #229, 'UNSPECIFIED' ) ;
#70 = DIRECTION ( 'NONE',  ( 1.000000000000000000, -6.982962677686270655E-15, 0.000000000000000000 ) ) ;
#71 = LINE ( 'NONE', #113, #153 ) ;
#72 = ADVANCED_FACE ( 'NONE', ( #270 ), #100, .T. ) ;
#73 = LINE ( 'NONE', #142, #319 ) ;
#74 = VERTEX_POINT ( 'NONE', #330 ) ;
#75 = AXIS2_PLACEMENT_3D ( 'NONE', #201, #231, #363 ) ;
#76 = FACE_OUTER_BOUND ( 'NONE', #170, .T. ) ;
#77 = ORIENTED_EDGE ( 'NONE', *, *, #348, .T. ) ;
#78 = ADVANCED_FACE ( 'NONE', ( #357 ), #195, .F. ) ;
#79 = CARTESIAN_POINT ( 'NONE',  ( 0.05905000000000001914, -4.123439461173741806E-16, 2.879382386107500921E-30 ) ) ;
#80 = APPLICATION_CONTEXT ( 'configuration controlled 3d designs of mechanical parts and assemblies' ) ;
#81 = DIRECTION ( 'NONE',  ( -6.982962677686265922E-15, -1.000000000000000000, 2.353012914439503496E-15 ) ) ;
#82 = EDGE_CURVE ( 'NONE', #316, #154, #371, .T. ) ;
#83 = CARTESIAN_POINT ( 'NONE',  ( 0.000000000000000000, 0.000000000000000000, 0.000000000000000000 ) ) ;
#84 = AXIS2_PLACEMENT_3D ( 'NONE', #38, #320, #137 ) ;
#85 = CIRCLE ( 'NONE', #356, 0.05905000000000001914 ) ;
#86 = DIRECTION ( 'NONE',  ( -6.982962677686265922E-15, -1.000000000000000000, 3.469747663417776213E-15 ) ) ;
#87 = VERTEX_POINT ( 'NONE', #389 ) ;
#88 = APPROVAL ( #296, 'UNSPECIFIED' ) ;
#89 = ORIENTED_EDGE ( 'NONE', *, *, #182, .F. ) ;
#90 = ORIENTED_EDGE ( 'NONE', *, *, #290, .F. ) ;
#91 = AXIS2_PLACEMENT_3D ( 'NONE', #335, #148, #280 ) ;
#92 = CARTESIAN_POINT ( 'NONE',  ( -4.053609834396624297E-16, -0.05805000000000352933, -1.023699999999999610 ) ) ;
#93 = ORIENTED_EDGE ( 'NONE', *, *, #252, .F. ) ;
#94 = APPROVAL ( #196, 'UNSPECIFIED' ) ;
#95 = VERTEX_POINT ( 'NONE', #302 ) ;
#96 = CARTESIAN_POINT ( 'NONE',  ( 0.000000000000000000, 0.000000000000000000, 0.000000000000000000 ) ) ;
#97 = LOCAL_TIME ( 8, 7, 13.00000000000000000, #298 ) ;
#98 = DIRECTION ( 'NONE',  ( -6.982962677686265922E-15, -1.000000000000000000, 3.464101218148870243E-15 ) ) ;
#99 = PERSON_AND_ORGANIZATION_ROLE ( 'creator' ) ;
#100 = CYLINDRICAL_SURFACE ( 'NONE', #277, 0.05905000000000006771 ) ;
#101 = APPROVAL_ROLE ( '' ) ;
#102 = ORIENTED_EDGE ( 'NONE', *, *, #16, .F. ) ;
#103 = UNCERTAINTY_MEASURE_WITH_UNIT (LENGTH_MEASURE( 1.000000000000000082E-05 ), #50, 'distance_accuracy_value', 'NONE');
#104 = CIRCLE ( 'NONE', #91, 0.05905000000000001914 ) ;
#105 = FACE_OUTER_BOUND ( 'NONE', #121, .T. ) ;
#106 = EDGE_CURVE ( 'NONE', #316, #118, #395, .T. ) ;
#107 = DIRECTION ( 'NONE',  ( -2.445468806185136597E-29, 3.491481338843145583E-15, 1.000000000000000000 ) ) ;
#108 = DIRECTION ( 'NONE',  ( 6.982962677686265922E-15, 1.000000000000000000, -3.464101218148871820E-15 ) ) ;
#109 = ORIENTED_EDGE ( 'NONE', *, *, #171, .F. ) ;
#110 = EDGE_CURVE ( 'NONE', #212, #159, #271, .T. ) ;
#111 = AXIS2_PLACEMENT_3D ( 'NONE', #83, #218, #355 ) ;
#112 = CARTESIAN_POINT ( 'NONE',  ( -5.970120423674474202E-45, 8.391300858044824741E-31, 2.422360182226120163E-16 ) ) ;
#113 = CARTESIAN_POINT ( 'NONE',  ( 4.123439461173745750E-16, 0.05904999999999994975, -0.02000000000000027450 ) ) ;
#114 = PRODUCT_DEFINITION_SHAPE ( 'NONE', 'NONE',  #199 ) ;
#115 = DIRECTION ( 'NONE',  ( -1.000000000000000000, 6.982962677686265922E-15, -4.883557194083112340E-29 ) ) ;
#116 = AXIS2_PLACEMENT_3D ( 'NONE', #131, #359, #66 ) ;
#117 = AXIS2_PLACEMENT_3D ( 'NONE', #368, #400, #377 ) ;
#118 = VERTEX_POINT ( 'NONE', #197 ) ;
#119 = DIRECTION ( 'NONE',  ( -6.982962677686265133E-15, -1.000000000000000000, 2.313165108945179540E-15 ) ) ;
#120 = ORIENTED_EDGE ( 'NONE', *, *, #332, .T. ) ;
#121 = EDGE_LOOP ( 'NONE', ( #369, #53, #188, #93 ) ) ;
#122 = ADVANCED_FACE ( 'NONE', ( #105 ), #192, .T. ) ;
#123 = CC_DESIGN_PERSON_AND_ORGANIZATION_ASSIGNMENT ( #130, #99, ( #256 ) ) ;
#124 = CIRCLE ( 'NONE', #362, 0.05905000000000013016 ) ;
#125 = LOCAL_TIME ( 8, 7, 13.00000000000000000, #300 ) ;
#126 = DATE_TIME_ROLE ( 'creation_date' ) ;
#127 = ORIENTED_EDGE ( 'NONE', *, *, #106, .F. ) ;
#128 = PERSON_AND_ORGANIZATION ( #204, #20 ) ;
#129 = DIRECTION ( 'NONE',  ( -2.445468806185136877E-29, 3.491481338843145188E-15, 1.000000000000000000 ) ) ;
#130 = PERSON_AND_ORGANIZATION ( #204, #20 ) ;
#131 = CARTESIAN_POINT ( 'NONE',  ( 3.183141170014464762E-29, -5.491615626124592102E-15, -1.437049999999999939 ) ) ;
#132 = AXIS2_PLACEMENT_3D ( 'NONE', #361, #172, #62 ) ;
#133 = AXIS2_PLACEMENT_3D ( 'NONE', #366, #246, #81 ) ;
#134 = DATE_AND_TIME ( #358, #273 ) ;
#135 = ORIENTED_EDGE ( 'NONE', *, *, #24, .T. ) ;
#136 = DATE_AND_TIME ( #386, #97 ) ;
#137 = DIRECTION ( 'NONE',  ( -6.982962677686265922E-15, -1.000000000000000000, 2.353012914439503496E-15 ) ) ;
#138 = EDGE_CURVE ( 'NONE', #159, #87, #140, .T. ) ;
#139 = CARTESIAN_POINT ( 'NONE',  ( 3.514260947928350449E-29, -5.017433257984542594E-15, -1.437049999999999939 ) ) ;
#140 = CIRCLE ( 'NONE', #193, 0.05905000000000001914 ) ;
#141 = CIRCLE ( 'NONE', #243, 0.05905000000000013016 ) ;
#142 = CARTESIAN_POINT ( 'NONE',  ( -4.123439461173744764E-16, -0.05905000000000006771, 2.045551769316910901E-16 ) ) ;
#143 = ORIENTED_EDGE ( 'NONE', *, *, #150, .F. ) ;
#144 = DIRECTION ( 'NONE',  ( 2.464588242277002594E-29, -3.464101218148871426E-15, -1.000000000000000000 ) ) ;
#145 = ORIENTED_EDGE ( 'NONE', *, *, #82, .T. ) ;
#146 = DIRECTION ( 'NONE',  ( -1.000000000000000000, 7.105427357601001070E-15, -4.926315508542082329E-29 ) ) ;
#147 = AXIS2_PLACEMENT_3D ( 'NONE', #248, #115, #315 ) ;
#148 = DIRECTION ( 'NONE',  ( -2.445468806185136597E-29, 3.491481338843145583E-15, 1.000000000000000000 ) ) ;
#149 = DIRECTION ( 'NONE',  ( 2.438088387897960049E-29, -3.491481338843145188E-15, -1.000000000000000000 ) ) ;
#150 = EDGE_CURVE ( 'NONE', #376, #159, #12, .T. ) ;
#151 = ORIENTED_EDGE ( 'NONE', *, *, #60, .T. ) ;
#152 = CARTESIAN_POINT ( 'NONE',  ( 0.000000000000000000, 0.000000000000000000, 0.000000000000000000 ) ) ;
#153 = VECTOR ( 'NONE', #203, 39.37007874015748143 ) ;
#154 = VERTEX_POINT ( 'NONE', #325 ) ;
#155 =( LENGTH_UNIT ( ) NAMED_UNIT ( * ) SI_UNIT ( $, .METRE. ) );
#156 = CARTESIAN_POINT ( 'NONE',  ( -0.05905000000000001914, -3.876255866812795611E-15, -1.023699999999999832 ) ) ;
#157 = VERTEX_POINT ( 'NONE', #34 ) ;
#158 = PRODUCT_RELATED_PRODUCT_CATEGORY ( 'detail', '', ( #56 ) ) ;
#159 = VERTEX_POINT ( 'NONE', #238 ) ;
#160 = AXIS2_PLACEMENT_3D ( 'NONE', #96, #163, #6 ) ;
#161 = SECURITY_CLASSIFICATION ( '', '', #324 ) ;
#162 = PERSON_AND_ORGANIZATION_ROLE ( 'design_supplier' ) ;
#163 = DIRECTION ( 'NONE',  ( -2.464588242277002594E-29, 3.464101218148871426E-15, 1.000000000000000000 ) ) ;
#164 = DIRECTION ( 'NONE',  ( -2.445468806185136597E-29, 3.491481338843145583E-15, 1.000000000000000000 ) ) ;
#165 = DATE_AND_TIME ( #29, #28 ) ;
#166 = DIRECTION ( 'NONE',  ( -2.464588242277002594E-29, 3.464101218148871426E-15, 1.000000000000000000 ) ) ;
#167 = CLOSED_SHELL ( 'NONE', ( #337, #326, #374, #331, #321 ) ) ;
#168 = CC_DESIGN_APPROVAL ( #94, ( #199 ) ) ;
#169 = COORDINATED_UNIVERSAL_TIME_OFFSET ( 5, 0, .BEHIND. ) ;
#170 = EDGE_LOOP ( 'NONE', ( #3, #381, #184, #90 ) ) ;
#171 = EDGE_CURVE ( 'NONE', #289, #157, #4, .T. ) ;
#172 = DIRECTION ( 'NONE',  ( -2.464588242277002314E-29, 3.464101218148871820E-15, 1.000000000000000000 ) ) ;
#173 = CARTESIAN_POINT ( 'NONE',  ( 4.160227717875642324E-16, 0.05804999999999644472, -1.023699999999999832 ) ) ;
#174 = AXIS2_PLACEMENT_3D ( 'NONE', #179, #398, #239 ) ;
#175 = CONICAL_SURFACE ( 'NONE', #133, 0.05804999999999999050, 0.7853981633974824739 ) ;
#176 = DIRECTION ( 'NONE',  ( -1.000000000000000000, 6.982962677686265922E-15, -4.883557194083112340E-29 ) ) ;
#177 = DIRECTION ( 'NONE',  ( -2.464588242277002594E-29, 3.464101218148871426E-15, 1.000000000000000000 ) ) ;
#178 = EDGE_CURVE ( 'NONE', #376, #95, #40, .T. ) ;
#179 = CARTESIAN_POINT ( 'NONE',  ( 2.522998983618967196E-29, -3.546200417018999006E-15, -1.023699999999999832 ) ) ;
#180 = CIRCLE ( 'NONE', #63, 0.05905000000000001914 ) ;
#181 = CARTESIAN_POINT ( 'NONE',  ( 0.000000000000000000, 0.000000000000000000, 0.000000000000000000 ) ) ;
#182 = EDGE_CURVE ( 'NONE', #212, #68, #333, .T. ) ;
#183 = CARTESIAN_POINT ( 'NONE',  ( 4.929176484554022950E-31, -6.928202436297765531E-17, -0.02000000000000006981 ) ) ;
#184 = ORIENTED_EDGE ( 'NONE', *, *, #406, .T. ) ;
#185 = AXIS2_PLACEMENT_3D ( 'NONE', #139, #64, #396 ) ;
#186 = SPHERICAL_SURFACE ( 'NONE', #147, 0.05905000000000025506 ) ;
#187 = AXIS2_PLACEMENT_3D ( 'NONE', #39, #144, #44 ) ;
#188 = ORIENTED_EDGE ( 'NONE', *, *, #406, .F. ) ;
#189 = CARTESIAN_POINT ( 'NONE',  ( 3.330070981488499955E-29, -5.694171829508798064E-15, -1.496100000000000207 ) ) ;
#190 = ORIENTED_EDGE ( 'NONE', *, *, #138, .F. ) ;
#191 = APPROVAL_ROLE ( '' ) ;
#192 = CYLINDRICAL_SURFACE ( 'NONE', #160, 0.05905000000000006771 ) ;
#193 = AXIS2_PLACEMENT_3D ( 'NONE', #323, #164, #297 ) ;
#194 = AXIS2_PLACEMENT_3D ( 'NONE', #403, #149, #382 ) ;
#195 = PLANE ( 'NONE',  #132 ) ;
#196 = APPROVAL_STATUS ( 'not_yet_approved' ) ;
#197 = CARTESIAN_POINT ( 'NONE',  ( -4.051124067684085231E-16, -0.05905000000000008159, -0.01999999999999986511 ) ) ;
#198 = EDGE_LOOP ( 'NONE', ( #37, #10, #257, #222 ) ) ;
#199 = PRODUCT_DEFINITION ( 'UNKNOWN', '', #256, #399 ) ;
#200 = AXIS2_PLACEMENT_3D ( 'NONE', #48, #17, #108 ) ;
#201 = CARTESIAN_POINT ( 'NONE',  ( 3.514260947928350449E-29, -5.017433257984542594E-15, -1.437049999999999939 ) ) ;
#202 = CC_DESIGN_SECURITY_CLASSIFICATION ( #161, ( #256 ) ) ;
#203 = DIRECTION ( 'NONE',  ( 4.937700262164541731E-15, 0.7071067811865442421, -0.7071067811865507924 ) ) ;
#204 = PERSON ( 'UNSPECIFIED', 'UNSPECIFIED', 'UNSPECIFIED', ('UNSPECIFIED'), ('UNSPECIFIED'), ('UNSPECIFIED') ) ;
#205 = DIRECTION ( 'NONE',  ( -2.464588242277002314E-29, 3.464101218148871820E-15, 1.000000000000000000 ) ) ;
#206 = ORIENTED_EDGE ( 'NONE', *, *, #7, .T. ) ;
#207 = VECTOR ( 'NONE', #338, 39.37007874015748143 ) ;
#208 = AXIS2_PLACEMENT_3D ( 'NONE', #152, #221, #283 ) ;
#209 = ADVANCED_FACE ( 'NONE', ( #370 ), #226, .T. ) ;
#210 = DIRECTION ( 'NONE',  ( -6.982962677686265922E-15, -1.000000000000000000, 3.464101218148870243E-15 ) ) ;
#211 = PLANE ( 'NONE',  #194 ) ;
#212 = VERTEX_POINT ( 'NONE', #282 ) ;
#213 = CARTESIAN_POINT ( 'NONE',  ( 4.124700581087632353E-16, 0.05804999999999644472, -1.023699999999999832 ) ) ;
#214 = EDGE_CURVE ( 'NONE', #68, #340, #85, .T. ) ;
#215 = ORIENTED_EDGE ( 'NONE', *, *, #252, .T. ) ;
#216 = CC_DESIGN_DATE_AND_TIME_ASSIGNMENT ( #165, #126, ( #199 ) ) ;
#217 = VECTOR ( 'NONE', #346, 39.37007874015748854 ) ;
#218 = DIRECTION ( 'NONE',  ( 0.000000000000000000, 0.000000000000000000, 1.000000000000000000 ) ) ;
#219 = ORIENTED_EDGE ( 'NONE', *, *, #310, .T. ) ;
#220 = CC_DESIGN_APPROVAL ( #88, ( #161 ) ) ;
#221 = DIRECTION ( 'NONE',  ( -2.445468806185136597E-29, 3.491481338843145583E-15, 1.000000000000000000 ) ) ;
#222 = ORIENTED_EDGE ( 'NONE', *, *, #8, .F. ) ;
#223 = ADVANCED_FACE ( 'NONE', ( #276 ), #175, .T. ) ;
#224 = CIRCLE ( 'NONE', #84, 0.05804999999999999050 ) ;
#225 = FACE_OUTER_BOUND ( 'NONE', #198, .T. ) ;
#226 = CONICAL_SURFACE ( 'NONE', #117, 0.05804999999999999050, 0.7853981633974824739 ) ;
#227 = DIRECTION ( 'NONE',  ( 2.464588242277002594E-29, -3.464101218148871426E-15, -1.000000000000000000 ) ) ;
#228 = ORIENTED_EDGE ( 'NONE', *, *, #16, .T. ) ;
#229 = APPROVAL_STATUS ( 'not_yet_approved' ) ;
#230 = EDGE_LOOP ( 'NONE', ( #143, #408, #102, #190 ) ) ;
#231 = DIRECTION ( 'NONE',  ( -2.445468806185136597E-29, 3.491481338843145583E-15, 1.000000000000000000 ) ) ;
#232 = AXIS2_PLACEMENT_3D ( 'NONE', #183, #288, #253 ) ;
#233 = DATE_AND_TIME ( #5, #125 ) ;
#234 = ORIENTED_EDGE ( 'NONE', *, *, #278, .T. ) ;
#235 = DIRECTION ( 'NONE',  ( -6.982962677686265922E-15, -1.000000000000000000, 3.464101218148871426E-15 ) ) ;
#236 = DIRECTION ( 'NONE',  ( -2.464588242277002594E-29, 3.464101218148871426E-15, 1.000000000000000000 ) ) ;
#237 = AXIS2_PLACEMENT_3D ( 'NONE', #269, #166, #98 ) ;
#238 = CARTESIAN_POINT ( 'NONE',  ( 4.123439461174084467E-16, 0.05904999999999487742, -1.437050000000000161 ) ) ;
#239 = DIRECTION ( 'NONE',  ( -6.982962677686265922E-15, -1.000000000000000000, 2.353012914439503496E-15 ) ) ;
#240 = EDGE_LOOP ( 'NONE', ( #254, #228, #22, #380, #385 ) ) ;
#241 = CARTESIAN_POINT ( 'NONE',  ( 3.183141170014464762E-29, -5.491615626124592102E-15, -1.437049999999999939 ) ) ;
#242 = EDGE_LOOP ( 'NONE', ( #234, #145 ) ) ;
#243 = AXIS2_PLACEMENT_3D ( 'NONE', #379, #351, #119 ) ;
#244 = FACE_OUTER_BOUND ( 'NONE', #313, .T. ) ;
#245 = EDGE_LOOP ( 'NONE', ( #151, #47, #55, #373 ) ) ;
#246 = DIRECTION ( 'NONE',  ( -2.464588242277002594E-29, 3.464101218148871426E-15, 1.000000000000000000 ) ) ;
#247 =( NAMED_UNIT ( * ) PLANE_ANGLE_UNIT ( ) SI_UNIT ( $, .RADIAN. ) );
#248 = CARTESIAN_POINT ( 'NONE',  ( 3.183141170014464762E-29, -5.491615626124592102E-15, -1.437049999999999939 ) ) ;
#249 = EDGE_CURVE ( 'NONE', #289, #317, #339, .T. ) ;
#250 = LENGTH_MEASURE_WITH_UNIT ( LENGTH_MEASURE( 0.02539999999999999897 ), #155 );
#251 = ORIENTED_EDGE ( 'NONE', *, *, #138, .T. ) ;
#252 = EDGE_CURVE ( 'NONE', #327, #118, #73, .T. ) ;
#253 = DIRECTION ( 'NONE',  ( -6.982962677686265922E-15, -1.000000000000000000, 3.469747663417776213E-15 ) ) ;
#254 = ORIENTED_EDGE ( 'NONE', *, *, #24, .F. ) ;
#255 = CYLINDRICAL_SURFACE ( 'NONE', #208, 0.05905000000000001914 ) ;
#256 = PRODUCT_DEFINITION_FORMATION_WITH_SPECIFIED_SOURCE ( 'ANY', '', #56, .NOT_KNOWN. ) ;
#257 = ORIENTED_EDGE ( 'NONE', *, *, #110, .F. ) ;
#258 = PERSON_AND_ORGANIZATION ( #204, #20 ) ;
#259 = ADVANCED_FACE ( 'NONE', ( #76 ), #402, .T. ) ;
#260 = EDGE_LOOP ( 'NONE', ( #287, #206, #215, #284 ) ) ;
#261 = CC_DESIGN_PERSON_AND_ORGANIZATION_ASSIGNMENT ( #262, #162, ( #256 ) ) ;
#262 = PERSON_AND_ORGANIZATION ( #204, #20 ) ;
#263 = DIRECTION ( 'NONE',  ( -6.982962677686265133E-15, -1.000000000000000000, 2.313165108945179540E-15 ) ) ;
#264 = PERSON_AND_ORGANIZATION ( #204, #20 ) ;
#265 = CARTESIAN_POINT ( 'NONE',  ( 0.05905000000000001914, -3.986573392691101744E-15, -1.023699999999999832 ) ) ;
#266 = VECTOR ( 'NONE', #407, 39.37007874015748143 ) ;
#267 = DIRECTION ( 'NONE',  ( -2.445468806185136597E-29, 3.491481338843145583E-15, 1.000000000000000000 ) ) ;
#268 = PERSON_AND_ORGANIZATION_ROLE ( 'creator' ) ;
#269 = CARTESIAN_POINT ( 'NONE',  ( -5.970120423674474202E-45, 8.391300858044824741E-31, 2.422360182226120163E-16 ) ) ;
#270 = FACE_OUTER_BOUND ( 'NONE', #260, .T. ) ;
#271 = CIRCLE ( 'NONE', #185, 0.05905000000000001914 ) ;
#272 = CARTESIAN_POINT ( 'NONE',  ( 4.195754854663527557E-16, 0.05904999999999659133, -1.022699999999999942 ) ) ;
#273 = LOCAL_TIME ( 8, 7, 13.00000000000000000, #294 ) ;
#274 = CC_DESIGN_PERSON_AND_ORGANIZATION_ASSIGNMENT ( #33, #388, ( #161 ) ) ;
#275 = DIRECTION ( 'NONE',  ( -2.445468806185136597E-29, 3.491481338843145583E-15, 1.000000000000000000 ) ) ;
#276 = FACE_OUTER_BOUND ( 'NONE', #245, .T. ) ;
#277 = AXIS2_PLACEMENT_3D ( 'NONE', #391, #295, #235 ) ;
#278 = EDGE_CURVE ( 'NONE', #154, #316, #409, .T. ) ;
#279 = VECTOR ( 'NONE', #341, 39.37007874015748854 ) ;
#280 = DIRECTION ( 'NONE',  ( 1.000000000000000000, -6.982962677686262766E-15, 0.000000000000000000 ) ) ;
#281 = ORIENTED_EDGE ( 'NONE', *, *, #7, .F. ) ;
#282 = CARTESIAN_POINT ( 'NONE',  ( 0.05905000000000001914, -4.708175298396508446E-15, -1.437049999999999939 ) ) ;
#283 = DIRECTION ( 'NONE',  ( 1.000000000000000000, -6.982962677686266711E-15, 4.876176775795935793E-29 ) ) ;
#284 = ORIENTED_EDGE ( 'NONE', *, *, #332, .F. ) ;
#285 = AXIS2_PLACEMENT_3D ( 'NONE', #45, #146, #21 ) ;
#286 = APPROVAL_PERSON_ORGANIZATION ( #258, #94, #31 ) ;
#287 = ORIENTED_EDGE ( 'NONE', *, *, #350, .F. ) ;
#288 = DIRECTION ( 'NONE',  ( -2.464588242277002594E-29, 3.464101218148871426E-15, 1.000000000000000000 ) ) ;
#289 = VERTEX_POINT ( 'NONE', #173 ) ;
#290 = EDGE_CURVE ( 'NONE', #154, #74, #71, .T. ) ;
#291 = ADVANCED_FACE ( 'NONE', ( #307 ), #18, .F. ) ;
#292 = APPLICATION_PROTOCOL_DEFINITION ( 'international standard', 'config_control_design', 1994, #334 ) ;
#293 = CC_DESIGN_APPROVAL ( #69, ( #256 ) ) ;
#294 = COORDINATED_UNIVERSAL_TIME_OFFSET ( 5, 0, .BEHIND. ) ;
#295 = DIRECTION ( 'NONE',  ( -2.464588242277002594E-29, 3.464101218148871426E-15, 1.000000000000000000 ) ) ;
#296 = APPROVAL_STATUS ( 'not_yet_approved' ) ;
#297 = DIRECTION ( 'NONE',  ( 1.000000000000000000, -6.982962677686270655E-15, 0.000000000000000000 ) ) ;
#298 = COORDINATED_UNIVERSAL_TIME_OFFSET ( 5, 0, .BEHIND. ) ;
#299 = CARTESIAN_POINT ( 'NONE',  ( -4.051124067684085231E-16, -0.05905000000000008159, -0.01999999999999986511 ) ) ;
#300 = COORDINATED_UNIVERSAL_TIME_OFFSET ( 5, 0, .BEHIND. ) ;
#301 = ORIENTED_EDGE ( 'NONE', *, *, #171, .T. ) ;
#302 = CARTESIAN_POINT ( 'NONE',  ( -4.195754854663065087E-16, -0.05905000000000539678, -1.437049999999999716 ) ) ;
#303 = ADVANCED_BREP_SHAPE_REPRESENTATION ( '48867', ( #58, #336, #111 ), #42 ) ;
#304 = CARTESIAN_POINT ( 'NONE',  ( -3.365074267906925015E-16, -0.03904999999999975158, 3.775091707913245636E-16 ) ) ;
#305 = VECTOR ( 'NONE', #129, 39.37007874015748143 ) ;
#306 = DIRECTION ( 'NONE',  ( 6.982962677686265922E-15, 1.000000000000000000, -4.626330217890349615E-15 ) ) ;
#307 = FACE_OUTER_BOUND ( 'NONE', #242, .T. ) ;
#308 = CARTESIAN_POINT ( 'NONE',  ( 2.503426416891723784E-29, -3.574229446573727613E-15, -1.023699999999999832 ) ) ;
#309 = AXIS2_PLACEMENT_3D ( 'NONE', #23, #343, #86 ) ;
#310 = EDGE_CURVE ( 'NONE', #340, #68, #104, .T. ) ;
#311 = FACE_OUTER_BOUND ( 'NONE', #230, .T. ) ;
#312 = CARTESIAN_POINT ( 'NONE',  ( 4.195754854663395916E-16, 0.05905000000000006771, -2.045551769316910901E-16 ) ) ;
#313 = EDGE_LOOP ( 'NONE', ( #51, #219 ) ) ;
#314 = CIRCLE ( 'NONE', #232, 0.05905000000000001914 ) ;
#315 = DIRECTION ( 'NONE',  ( 6.982962677686265922E-15, 1.000000000000000000, -4.626330217890349615E-15 ) ) ;
#316 = VERTEX_POINT ( 'NONE', #304 ) ;
#317 = VERTEX_POINT ( 'NONE', #272 ) ;
#318 = APPROVAL_DATE_TIME ( #392, #94 ) ;
#319 = VECTOR ( 'NONE', #205, 39.37007874015748143 ) ;
#320 = DIRECTION ( 'NONE',  ( -2.464588242277002594E-29, 3.464101218148871426E-15, 1.000000000000000000 ) ) ;
#321 = ADVANCED_FACE ( 'NONE', ( #13 ), #397, .T. ) ;
#322 = PERSON_AND_ORGANIZATION ( #204, #20 ) ;
#323 = CARTESIAN_POINT ( 'NONE',  ( 3.514260947928350449E-29, -5.017433257984542594E-15, -1.437049999999999939 ) ) ;
#324 = SECURITY_CLASSIFICATION_LEVEL ( 'unclassified' ) ;
#325 = CARTESIAN_POINT ( 'NONE',  ( 3.425143193405107838E-16, 0.03904999999999975158, 1.069628656538994690E-16 ) ) ;
#326 = ADVANCED_FACE ( 'NONE', ( #311 ), #375, .T. ) ;
#327 = VERTEX_POINT ( 'NONE', #15 ) ;
#328 = AXIS2_PLACEMENT_3D ( 'NONE', #181, #107, #405 ) ;
#329 = COORDINATED_UNIVERSAL_TIME_OFFSET ( 5, 0, .BEHIND. ) ;
#330 = CARTESIAN_POINT ( 'NONE',  ( 4.123439461173745750E-16, 0.05904999999999994975, -0.02000000000000027450 ) ) ;
#331 = ADVANCED_FACE ( 'NONE', ( #244 ), #211, .F. ) ;
#332 = EDGE_CURVE ( 'NONE', #74, #118, #314, .T. ) ;
#333 = LINE ( 'NONE', #79, #207 ) ;
#334 = APPLICATION_CONTEXT ( 'configuration controlled 3d designs of mechanical parts and assemblies' ) ;
#335 = CARTESIAN_POINT ( 'NONE',  ( 2.503426416891723784E-29, -3.574229446573727613E-15, -1.023699999999999832 ) ) ;
#336 = MANIFOLD_SOLID_BREP ( 'Body-Move/Copy2[2]', #19 ) ;
#337 = ADVANCED_FACE ( 'NONE', ( #349 ), #255, .T. ) ;
#338 = DIRECTION ( 'NONE',  ( -2.445468806185136877E-29, 3.491481338843145188E-15, 1.000000000000000000 ) ) ;
#339 = LINE ( 'NONE', #213, #279 ) ;
#340 = VERTEX_POINT ( 'NONE', #156 ) ;
#341 = DIRECTION ( 'NONE',  ( 5.024295867788231995E-15, 0.7071067811865739960, 0.7071067811865208164 ) ) ;
#342 = AXIS2_PLACEMENT_3D ( 'NONE', #241, #176, #306 ) ;
#343 = DIRECTION ( 'NONE',  ( -2.464588242277002594E-29, 3.464101218148871426E-15, 1.000000000000000000 ) ) ;
#344 = LINE ( 'NONE', #312, #266 ) ;
#345 = ORIENTED_EDGE ( 'NONE', *, *, #290, .T. ) ;
#346 = DIRECTION ( 'NONE',  ( -4.937700262164715281E-15, -0.7071067811865691111, 0.7071067811865257013 ) ) ;
#347 = LOCAL_TIME ( 8, 7, 13.00000000000000000, #329 ) ;
#348 = EDGE_CURVE ( 'NONE', #157, #327, #384, .T. ) ;
#349 = FACE_OUTER_BOUND ( 'NONE', #352, .T. ) ;
#350 = EDGE_CURVE ( 'NONE', #317, #74, #344, .T. ) ;
#351 = DIRECTION ( 'NONE',  ( -2.464588242277002594E-29, 3.464101218148871426E-15, 1.000000000000000000 ) ) ;
#352 = EDGE_LOOP ( 'NONE', ( #251, #135, #43, #89, #411 ) ) ;
#353 = DATE_TIME_ROLE ( 'classification_date' ) ;
#354 = CARTESIAN_POINT ( 'NONE',  ( -0.05905000000000001914, 4.195754854663392958E-16, -2.904631170795522943E-30 ) ) ;
#355 = DIRECTION ( 'NONE',  ( 1.000000000000000000, 0.000000000000000000, 0.000000000000000000 ) ) ;
#356 = AXIS2_PLACEMENT_3D ( 'NONE', #308, #275, #41 ) ;
#357 = FACE_OUTER_BOUND ( 'NONE', #27, .T. ) ;
#358 = CALENDAR_DATE ( 2024, 10, 4 ) ;
#359 = DIRECTION ( 'NONE',  ( 1.000000000000000000, -6.982962677686265922E-15, 4.883557194083112340E-29 ) ) ;
#360 = CALENDAR_DATE ( 2024, 10, 4 ) ;
#361 = CARTESIAN_POINT ( 'NONE',  ( 2.522998983618967196E-29, -3.546200417018999006E-15, -1.023699999999999832 ) ) ;
#362 = AXIS2_PLACEMENT_3D ( 'NONE', #32, #236, #263 ) ;
#363 = DIRECTION ( 'NONE',  ( 1.000000000000000000, -6.982962677686270655E-15, 0.000000000000000000 ) ) ;
#364 = ADVANCED_FACE ( 'NONE', ( #54 ), #372, .T. ) ;
#365 = APPROVAL_PERSON_ORGANIZATION ( #264, #88, #101 ) ;
#366 = CARTESIAN_POINT ( 'NONE',  ( 2.522998983618967196E-29, -3.546200417018999006E-15, -1.023699999999999832 ) ) ;
#367 = DIMENSIONAL_EXPONENTS ( 1.000000000000000000, 0.000000000000000000, 0.000000000000000000, 0.000000000000000000, 0.000000000000000000, 0.000000000000000000, 0.000000000000000000 ) ;
#368 = CARTESIAN_POINT ( 'NONE',  ( 2.522998983618967196E-29, -3.546200417018999006E-15, -1.023699999999999832 ) ) ;
#369 = ORIENTED_EDGE ( 'NONE', *, *, #404, .T. ) ;
#370 = FACE_OUTER_BOUND ( 'NONE', #387, .T. ) ;
#371 = CIRCLE ( 'NONE', #237, 0.03904999999999975158 ) ;
#372 = CONICAL_SURFACE ( 'NONE', #14, 0.05905000000000001914, 0.7853981633974471688 ) ;
#373 = ORIENTED_EDGE ( 'NONE', *, *, #348, .F. ) ;
#374 = ADVANCED_FACE ( 'NONE', ( #225 ), #186, .T. ) ;
#375 = SPHERICAL_SURFACE ( 'NONE', #342, 0.05905000000000025506 ) ;
#376 = VERTEX_POINT ( 'NONE', #189 ) ;
#377 = DIRECTION ( 'NONE',  ( -6.982962677686265922E-15, -1.000000000000000000, 2.353012914439503496E-15 ) ) ;
#378 = AXIS2_PLACEMENT_3D ( 'NONE', #112, #177, #210 ) ;
#379 = CARTESIAN_POINT ( 'NONE',  ( 2.520534395376689975E-29, -3.542736315800849943E-15, -1.022699999999999720 ) ) ;
#380 = ORIENTED_EDGE ( 'NONE', *, *, #182, .T. ) ;
#381 = ORIENTED_EDGE ( 'NONE', *, *, #106, .T. ) ;
#382 = DIRECTION ( 'NONE',  ( -1.000000000000000000, 6.982962677686265922E-15, -4.876176775795935793E-29 ) ) ;
#383 = ORIENTED_EDGE ( 'NONE', *, *, #278, .F. ) ;
#384 = LINE ( 'NONE', #92, #217 ) ;
#385 = ORIENTED_EDGE ( 'NONE', *, *, #310, .F. ) ;
#386 = CALENDAR_DATE ( 2024, 10, 4 ) ;
#387 = EDGE_LOOP ( 'NONE', ( #30, #301, #77, #281 ) ) ;
#388 = PERSON_AND_ORGANIZATION_ROLE ( 'classification_officer' ) ;
#389 = CARTESIAN_POINT ( 'NONE',  ( -0.05905000000000001914, -3.876255866812795611E-15, -1.437049999999999939 ) ) ;
#390 = CC_DESIGN_PERSON_AND_ORGANIZATION_ASSIGNMENT ( #322, #67, ( #56 ) ) ;
#391 = CARTESIAN_POINT ( 'NONE',  ( 0.000000000000000000, 0.000000000000000000, 0.000000000000000000 ) ) ;
#392 = DATE_AND_TIME ( #360, #347 ) ;
#393 = CARTESIAN_POINT ( 'NONE',  ( 3.514260947928350449E-29, -5.017433257984542594E-15, -1.437049999999999939 ) ) ;
#394 = SHAPE_DEFINITION_REPRESENTATION ( #114, #303 ) ;
#395 = LINE ( 'NONE', #299, #49 ) ;
#396 = DIRECTION ( 'NONE',  ( 1.000000000000000000, -6.982962677686270655E-15, 0.000000000000000000 ) ) ;
#397 = CYLINDRICAL_SURFACE ( 'NONE', #328, 0.05905000000000001914 ) ;
#398 = DIRECTION ( 'NONE',  ( -2.464588242277002594E-29, 3.464101218148871426E-15, 1.000000000000000000 ) ) ;
#399 = DESIGN_CONTEXT ( 'detailed design', #80, 'design' ) ;
#400 = DIRECTION ( 'NONE',  ( -2.464588242277002594E-29, 3.464101218148871426E-15, 1.000000000000000000 ) ) ;
#401 = CIRCLE ( 'NONE', #75, 0.05905000000000001914 ) ;
#402 = CONICAL_SURFACE ( 'NONE', #187, 0.05905000000000001914, 0.7853981633974471688 ) ;
#403 = CARTESIAN_POINT ( 'NONE',  ( 4.123439461173991776E-16, 0.05904999999999643867, -1.023700000000000054 ) ) ;
#404 = EDGE_CURVE ( 'NONE', #327, #317, #141, .T. ) ;
#405 = DIRECTION ( 'NONE',  ( 1.000000000000000000, -6.982962677686266711E-15, 4.876176775795935793E-29 ) ) ;
#406 = EDGE_CURVE ( 'NONE', #118, #74, #57, .T. ) ;
#407 = DIRECTION ( 'NONE',  ( -2.464588242277002314E-29, 3.464101218148871820E-15, 1.000000000000000000 ) ) ;
#408 = ORIENTED_EDGE ( 'NONE', *, *, #178, .T. ) ;
#409 = CIRCLE ( 'NONE', #378, 0.03904999999999975158 ) ;
#410 = CARTESIAN_POINT ( 'NONE',  ( 4.929176484554022950E-31, -6.928202436297765531E-17, -0.02000000000000006981 ) ) ;
#411 = ORIENTED_EDGE ( 'NONE', *, *, #110, .T. ) ;
#412 = PERSON_AND_ORGANIZATION ( #204, #20 ) ;
ENDSEC;
END-ISO-10303-21;
