ISO-10303-21;
HEADER;
FILE_DESCRIPTION (( 'STEP AP203' ),
    '1' );
FILE_NAME ('49140.STEP',
    '2024-02-28T15:43:40',
    ( '' ),
    ( '' ),
    'SwSTEP 2.0',
    'SolidWorks 2023',
    '' );
FILE_SCHEMA (( 'CONFIG_CONTROL_DESIGN' ));
ENDSEC;

DATA;
#1 = CARTESIAN_POINT ( 'NONE',  ( 0.000000000000000000, 0.000000000000000000, 0.000000000000000000 ) ) ;
#2 = PRODUCT_DEFINITION_SHAPE ( 'NONE', 'NONE',  #269 ) ;
#3 = LOCAL_TIME ( 10, 43, 40.00000000000000000, #202 ) ;
#4 = FACE_OUTER_BOUND ( 'NONE', #350, .T. ) ;
#5 = EDGE_CURVE ( 'NONE', #234, #204, #102, .T. ) ;
#6 = DIRECTION ( 'NONE',  ( 1.000000000000000000, -6.982962677686270655E-15, 0.000000000000000000 ) ) ;
#7 = AXIS2_PLACEMENT_3D ( 'NONE', #166, #117, #115 ) ;
#8 = PERSON_AND_ORGANIZATION ( #307, #163 ) ;
#9 = ORIENTED_EDGE ( 'NONE', *, *, #155, .F. ) ;
#10 = PERSON_AND_ORGANIZATION_ROLE ( 'creator' ) ;
#11 = APPROVAL_STATUS ( 'not_yet_approved' ) ;
#12 = ORIENTED_EDGE ( 'NONE', *, *, #252, .F. ) ;
#13 = CIRCLE ( 'NONE', #72, 0.05805000000000001131 ) ;
#14 = CALENDAR_DATE ( 2024, 28, 2 ) ;
#15 = ORIENTED_EDGE ( 'NONE', *, *, #357, .F. ) ;
#16 = ORIENTED_EDGE ( 'NONE', *, *, #302, .F. ) ;
#17 = ORIENTED_EDGE ( 'NONE', *, *, #34, .T. ) ;
#18 = CC_DESIGN_APPROVAL ( #85, ( #269 ) ) ;
#19 = DIRECTION ( 'NONE',  ( 1.000000000000000000, -6.982962677686270655E-15, 0.000000000000000000 ) ) ;
#20 = DIRECTION ( 'NONE',  ( -2.445468806185136597E-29, 3.491481338843145583E-15, 1.000000000000000000 ) ) ;
#21 = APPROVAL ( #258, 'UNSPECIFIED' ) ;
#22 = CARTESIAN_POINT ( 'NONE',  ( 1.357006838635785746E-45, -1.937446121494581442E-31, -5.549066237130534971E-17 ) ) ;
#23 = DIRECTION ( 'NONE',  ( -2.445468806185136597E-29, 3.491481338843145583E-15, 1.000000000000000000 ) ) ;
#24 = FACE_OUTER_BOUND ( 'NONE', #297, .T. ) ;
#25 = DIRECTION ( 'NONE',  ( 2.445468806185136597E-29, -3.491481338843145583E-15, -1.000000000000000000 ) ) ;
#26 = CARTESIAN_POINT ( 'NONE',  ( 0.05905000000000001914, -5.635949177160603791E-15, -1.496099999999999985 ) ) ;
#27 = CC_DESIGN_SECURITY_CLASSIFICATION ( #158, ( #63 ) ) ;
#28 = CARTESIAN_POINT ( 'NONE',  ( 0.05904999999999988036, -4.749420335452712790E-16, -0.02000000000000007674 ) ) ;
#29 = CARTESIAN_POINT ( 'NONE',  ( 0.05904999999999994975, -4.123439461173736876E-16, 2.879382386107497418E-30 ) ) ;
#30 = COORDINATED_UNIVERSAL_TIME_OFFSET ( 5, 0, .BEHIND. ) ;
#31 = ORIENTED_EDGE ( 'NONE', *, *, #67, .F. ) ;
#32 = AXIS2_PLACEMENT_3D ( 'NONE', #42, #304, #19 ) ;
#33 = APPROVAL_PERSON_ORGANIZATION ( #236, #85, #354 ) ;
#34 = EDGE_CURVE ( 'NONE', #356, #209, #13, .T. ) ;
#35 =( NAMED_UNIT ( * ) SI_UNIT ( $, .STERADIAN. ) SOLID_ANGLE_UNIT ( ) );
#36 = ORIENTED_EDGE ( 'NONE', *, *, #334, .T. ) ;
#37 = CALENDAR_DATE ( 2024, 28, 2 ) ;
#38 = EDGE_LOOP ( 'NONE', ( #39, #296 ) ) ;
#39 = ORIENTED_EDGE ( 'NONE', *, *, #159, .T. ) ;
#40 = ADVANCED_FACE ( 'NONE', ( #215 ), #328, .F. ) ;
#41 = ADVANCED_FACE ( 'NONE', ( #360 ), #306, .T. ) ;
#42 = CARTESIAN_POINT ( 'NONE',  ( 3.658665880933582389E-29, -5.223605231043229660E-15, -1.496099999999999985 ) ) ;
#43 = CARTESIAN_POINT ( 'NONE',  ( 2.726846925636479293E-16, 0.03904999999999989035, -1.640876774674771079E-16 ) ) ;
#44 = CIRCLE ( 'NONE', #77, 0.05805000000000001131 ) ;
#45 = VERTEX_POINT ( 'NONE', #184 ) ;
#46 = CARTESIAN_POINT ( 'NONE',  ( 0.05904999999999988036, -4.749420335452712790E-16, -0.02000000000000007674 ) ) ;
#47 = CARTESIAN_POINT ( 'NONE',  ( 3.081046148912654067E-29, -4.398917338808479820E-15, -1.259900000000000020 ) ) ;
#48 = APPROVAL_DATE_TIME ( #191, #21 ) ;
#49 = ADVANCED_FACE ( 'NONE', ( #220 ), #335, .T. ) ;
#50 = VECTOR ( 'NONE', #230, 39.37007874015748143 ) ;
#51 = CARTESIAN_POINT ( 'NONE',  ( 4.890937612370292426E-31, -6.982962677686317493E-17, -0.02000000000000007674 ) ) ;
#52 = CARTESIAN_POINT ( 'NONE',  ( -0.05904999999999994975, 4.195754854663388027E-16, -2.904631170795519440E-30 ) ) ;
#53 = PRODUCT ( '49140', '49140', '', ( #173 ) ) ;
#54 = CARTESIAN_POINT ( 'NONE',  ( 4.890937612370292426E-31, -6.982962677686317493E-17, -0.02000000000000007674 ) ) ;
#55 = DIRECTION ( 'NONE',  ( -2.445468806185136597E-29, 3.491481338843145583E-15, 1.000000000000000000 ) ) ;
#56 = AXIS2_PLACEMENT_3D ( 'NONE', #310, #224, #251 ) ;
#57 = DIRECTION ( 'NONE',  ( 0.7071067811864267805, -2.468850131080992517E-15, 0.7071067811866682540 ) ) ;
#58 = DIRECTION ( 'NONE',  ( -2.445468806185136597E-29, 3.491481338843145583E-15, 1.000000000000000000 ) ) ;
#59 = ORIENTED_EDGE ( 'NONE', *, *, #67, .T. ) ;
#60 = DATE_AND_TIME ( #317, #3 ) ;
#61 = CALENDAR_DATE ( 2024, 28, 2 ) ;
#62 = EDGE_LOOP ( 'NONE', ( #322, #325, #151, #31 ) ) ;
#63 = PRODUCT_DEFINITION_FORMATION_WITH_SPECIFIED_SOURCE ( 'ANY', '', #53, .NOT_KNOWN. ) ;
#64 = CC_DESIGN_DATE_AND_TIME_ASSIGNMENT ( #60, #175, ( #158 ) ) ;
#65 = EDGE_LOOP ( 'NONE', ( #181, #358 ) ) ;
#66 = APPLICATION_CONTEXT ( 'configuration controlled 3d designs of mechanical parts and assemblies' ) ;
#67 = EDGE_CURVE ( 'NONE', #45, #204, #129, .T. ) ;
#68 =( NAMED_UNIT ( * ) PLANE_ANGLE_UNIT ( ) SI_UNIT ( $, .RADIAN. ) );
#69 = VERTEX_POINT ( 'NONE', #80 ) ;
#70 = ADVANCED_FACE ( 'NONE', ( #75 ), #298, .F. ) ;
#71 = ORIENTED_EDGE ( 'NONE', *, *, #171, .T. ) ;
#72 = AXIS2_PLACEMENT_3D ( 'NONE', #47, #156, #267 ) ;
#73 = VECTOR ( 'NONE', #97, 39.37007874015748143 ) ;
#74 = FACE_OUTER_BOUND ( 'NONE', #239, .T. ) ;
#75 = FACE_OUTER_BOUND ( 'NONE', #38, .T. ) ;
#76 = DIRECTION ( 'NONE',  ( -1.000000000000000000, 6.982962677686266711E-15, 0.000000000000000000 ) ) ;
#77 = AXIS2_PLACEMENT_3D ( 'NONE', #162, #23, #247 ) ;
#78 = AXIS2_PLACEMENT_3D ( 'NONE', #81, #342, #199 ) ;
#79 = DIRECTION ( 'NONE',  ( 1.000000000000000000, -6.982962677686266711E-15, 0.000000000000000000 ) ) ;
#80 = CARTESIAN_POINT ( 'NONE',  ( 0.05905000000000001914, -4.807769803587009366E-15, -1.258899999999999686 ) ) ;
#81 = CARTESIAN_POINT ( 'NONE',  ( 3.078600680106467904E-29, -4.395425857469635235E-15, -1.258899999999999686 ) ) ;
#82 = CIRCLE ( 'NONE', #286, 0.05904999999999988036 ) ;
#83 = CARTESIAN_POINT ( 'NONE',  ( 0.03904999999999989035, -3.714222401791245450E-16, -5.549066237130309406E-17 ) ) ;
#84 = CARTESIAN_POINT ( 'NONE',  ( 0.05805000000000001131, -4.804278322248167937E-15, -1.259900000000000020 ) ) ;
#85 = APPROVAL ( #282, 'UNSPECIFIED' ) ;
#86 = DIRECTION ( 'NONE',  ( 2.438088387897960049E-29, -3.491481338843145188E-15, -1.000000000000000000 ) ) ;
#87 = LINE ( 'NONE', #315, #314 ) ;
#88 = VECTOR ( 'NONE', #275, 39.37007874015748143 ) ;
#89 = CARTESIAN_POINT ( 'NONE',  ( 0.000000000000000000, 0.000000000000000000, 0.000000000000000000 ) ) ;
#90 = PERSON_AND_ORGANIZATION_ROLE ( 'classification_officer' ) ;
#91 = DIRECTION ( 'NONE',  ( 1.000000000000000000, -6.982962677686270655E-15, 0.000000000000000000 ) ) ;
#92 = EDGE_LOOP ( 'NONE', ( #154, #123, #316, #16 ) ) ;
#93 = DIMENSIONAL_EXPONENTS ( 1.000000000000000000, 0.000000000000000000, 0.000000000000000000, 0.000000000000000000, 0.000000000000000000, 0.000000000000000000, 0.000000000000000000 ) ;
#94 = EDGE_LOOP ( 'NONE', ( #9, #150, #59, #71 ) ) ;
#95 = LOCAL_TIME ( 10, 43, 40.00000000000000000, #205 ) ;
#96 = EDGE_CURVE ( 'NONE', #212, #179, #235, .T. ) ;
#97 = DIRECTION ( 'NONE',  ( -2.445468806185136877E-29, 3.491481338843145188E-15, 1.000000000000000000 ) ) ;
#98 = ORIENTED_EDGE ( 'NONE', *, *, #5, .F. ) ;
#99 = CC_DESIGN_PERSON_AND_ORGANIZATION_ASSIGNMENT ( #8, #120, ( #53 ) ) ;
#100 = ORIENTED_EDGE ( 'NONE', *, *, #171, .F. ) ;
#101 = ORIENTED_EDGE ( 'NONE', *, *, #252, .T. ) ;
#102 = CIRCLE ( 'NONE', #168, 0.05904999999999988036 ) ;
#103 = CARTESIAN_POINT ( 'NONE',  ( -0.05904999999999988036, 3.425143193405099949E-16, -0.02000000000000007674 ) ) ;
#104 = ADVANCED_FACE ( 'NONE', ( #74 ), #132, .T. ) ;
#105 = DESIGN_CONTEXT ( 'detailed design', #66, 'design' ) ;
#106 = DIRECTION ( 'NONE',  ( 1.000000000000000000, -6.982962677686270655E-15, 0.000000000000000000 ) ) ;
#107 = LINE ( 'NONE', #46, #338 ) ;
#108 = AXIS2_PLACEMENT_3D ( 'NONE', #110, #20, #327 ) ;
#109 = ADVANCED_FACE ( 'NONE', ( #332 ), #319, .T. ) ;
#110 = CARTESIAN_POINT ( 'NONE',  ( 0.000000000000000000, 0.000000000000000000, 0.000000000000000000 ) ) ;
#111 = CYLINDRICAL_SURFACE ( 'NONE', #295, 0.05905000000000001914 ) ;
#112 = CARTESIAN_POINT ( 'NONE',  ( 3.081046148912652946E-29, -4.398917338808479031E-15, -1.259899999999999798 ) ) ;
#113 = AXIS2_PLACEMENT_3D ( 'NONE', #131, #242, #245 ) ;
#114 = APPROVAL_PERSON_ORGANIZATION ( #287, #187, #349 ) ;
#115 = DIRECTION ( 'NONE',  ( 1.000000000000000000, -6.982962677686265922E-15, 4.873707401586876696E-29 ) ) ;
#116 = EDGE_CURVE ( 'NONE', #209, #356, #44, .T. ) ;
#117 = DIRECTION ( 'NONE',  ( -2.445468806185136597E-29, 3.491481338843145583E-15, 1.000000000000000000 ) ) ;
#118 = LINE ( 'NONE', #225, #50 ) ;
#119 = SHAPE_DEFINITION_REPRESENTATION ( #2, #323 ) ;
#120 = PERSON_AND_ORGANIZATION_ROLE ( 'design_owner' ) ;
#121 = ORIENTED_EDGE ( 'NONE', *, *, #34, .F. ) ;
#122 = CARTESIAN_POINT ( 'NONE',  ( 3.081046148912652946E-29, -4.398917338808479031E-15, -1.259899999999999798 ) ) ;
#123 = ORIENTED_EDGE ( 'NONE', *, *, #243, .T. ) ;
#124 = ADVANCED_FACE ( 'NONE', ( #218 ), #303, .T. ) ;
#125 = LENGTH_MEASURE_WITH_UNIT ( LENGTH_MEASURE( 0.02539999999999999897 ), #255 );
#126 = AXIS2_PLACEMENT_3D ( 'NONE', #54, #25, #142 ) ;
#127 = CC_DESIGN_PERSON_AND_ORGANIZATION_ASSIGNMENT ( #330, #148, ( #63 ) ) ;
#128 = ORIENTED_EDGE ( 'NONE', *, *, #284, .F. ) ;
#129 = LINE ( 'NONE', #103, #192 ) ;
#130 = CIRCLE ( 'NONE', #363, 0.05905000000000001914 ) ;
#131 = CARTESIAN_POINT ( 'NONE',  ( 0.000000000000000000, 0.000000000000000000, 0.000000000000000000 ) ) ;
#132 = CYLINDRICAL_SURFACE ( 'NONE', #113, 0.05904999999999994975 ) ;
#133 = EDGE_CURVE ( 'NONE', #179, #212, #274, .T. ) ;
#134 = DIRECTION ( 'NONE',  ( -2.445468806185136597E-29, 3.491481338843145583E-15, 1.000000000000000000 ) ) ;
#135 = PRODUCT_RELATED_PRODUCT_CATEGORY ( 'detail', '', ( #53 ) ) ;
#136 = AXIS2_PLACEMENT_3D ( 'NONE', #240, #160, #76 ) ;
#137 = CIRCLE ( 'NONE', #146, 0.05905000000000001914 ) ;
#138 = DIRECTION ( 'NONE',  ( 2.438088387897960049E-29, -3.491481338843145188E-15, -1.000000000000000000 ) ) ;
#139 = CARTESIAN_POINT ( 'NONE',  ( 3.081046148912654067E-29, -4.398917338808479820E-15, -1.259900000000000020 ) ) ;
#140 = CARTESIAN_POINT ( 'NONE',  ( 0.05905000000000001914, -4.811261284925853162E-15, -1.259899999999999798 ) ) ;
#141 = AXIS2_PLACEMENT_3D ( 'NONE', #185, #300, #188 ) ;
#142 = DIRECTION ( 'NONE',  ( -1.000000000000000000, 6.982962677686266711E-15, 0.000000000000000000 ) ) ;
#143 = DIRECTION ( 'NONE',  ( 1.000000000000000000, -6.982962677686266711E-15, 4.876176775795935793E-29 ) ) ;
#144 = CARTESIAN_POINT ( 'NONE',  ( 4.123439461174049462E-16, 0.05904999999999561988, -1.259900000000000020 ) ) ;
#145 = APPROVAL_DATE_TIME ( #210, #85 ) ;
#146 = AXIS2_PLACEMENT_3D ( 'NONE', #112, #254, #6 ) ;
#147 = ORIENTED_EDGE ( 'NONE', *, *, #213, .F. ) ;
#148 = PERSON_AND_ORGANIZATION_ROLE ( 'design_supplier' ) ;
#149 =( CONVERSION_BASED_UNIT ( 'INCH', #125 ) LENGTH_UNIT ( ) NAMED_UNIT ( #93 ) );
#150 = ORIENTED_EDGE ( 'NONE', *, *, #159, .F. ) ;
#151 = ORIENTED_EDGE ( 'NONE', *, *, #5, .T. ) ;
#152 = EDGE_LOOP ( 'NONE', ( #182, #288 ) ) ;
#153 = AXIS2_PLACEMENT_3D ( 'NONE', #276, #55, #143 ) ;
#154 = ORIENTED_EDGE ( 'NONE', *, *, #116, .T. ) ;
#155 = EDGE_CURVE ( 'NONE', #201, #234, #107, .T. ) ;
#156 = DIRECTION ( 'NONE',  ( -2.445468806185136597E-29, 3.491481338843145583E-15, 1.000000000000000000 ) ) ;
#157 = DIRECTION ( 'NONE',  ( -1.000000000000000000, 6.982962677686265922E-15, -4.876176775795935793E-29 ) ) ;
#158 = SECURITY_CLASSIFICATION ( '', '', #271 ) ;
#159 = EDGE_CURVE ( 'NONE', #45, #201, #221, .T. ) ;
#160 = DIRECTION ( 'NONE',  ( 2.445468806185136597E-29, -3.491481338843145583E-15, -1.000000000000000000 ) ) ;
#161 = DIRECTION ( 'NONE',  ( 0.7071067811865469066, -7.319954787623252890E-15, -0.7071067811865479058 ) ) ;
#162 = CARTESIAN_POINT ( 'NONE',  ( 3.081046148912654067E-29, -4.398917338808479820E-15, -1.259900000000000020 ) ) ;
#163 = ORGANIZATION ( 'UNSPECIFIED', 'UNSPECIFIED', '' ) ;
#164 = DIRECTION ( 'NONE',  ( -2.445468806185136597E-29, 3.491481338843145583E-15, 1.000000000000000000 ) ) ;
#165 = ADVANCED_FACE ( 'NONE', ( #278 ), #111, .T. ) ;
#166 = CARTESIAN_POINT ( 'NONE',  ( 1.357006838635785746E-45, -1.937446121494581442E-31, -5.549066237130534971E-17 ) ) ;
#167 = CARTESIAN_POINT ( 'NONE',  ( -0.05905000000000001914, -4.391685799459515247E-15, -1.259899999999999798 ) ) ;
#168 = AXIS2_PLACEMENT_3D ( 'NONE', #272, #268, #79 ) ;
#169 = PERSON_AND_ORGANIZATION ( #307, #163 ) ;
#170 = CYLINDRICAL_SURFACE ( 'NONE', #153, 0.05905000000000001914 ) ;
#171 = EDGE_CURVE ( 'NONE', #204, #234, #82, .T. ) ;
#172 = CARTESIAN_POINT ( 'NONE',  ( -0.05905000000000001914, -1.813052256656907407E-15, -1.258899999999999686 ) ) ;
#173 = MECHANICAL_CONTEXT ( 'NONE', #253, 'mechanical' ) ;
#174 = ORIENTED_EDGE ( 'NONE', *, *, #351, .T. ) ;
#175 = DATE_TIME_ROLE ( 'classification_date' ) ;
#176 = DATE_TIME_ROLE ( 'creation_date' ) ;
#177 = LOCAL_TIME ( 10, 43, 40.00000000000000000, #30 ) ;
#178 = VERTEX_POINT ( 'NONE', #167 ) ;
#179 = VERTEX_POINT ( 'NONE', #365 ) ;
#180 = DIRECTION ( 'NONE',  ( 1.000000000000000000, 0.000000000000000000, 0.000000000000000000 ) ) ;
#181 = ORIENTED_EDGE ( 'NONE', *, *, #357, .T. ) ;
#182 = ORIENTED_EDGE ( 'NONE', *, *, #96, .F. ) ;
#183 = CARTESIAN_POINT ( 'NONE',  ( 3.658665880933582389E-29, -5.223605231043229660E-15, -1.496099999999999985 ) ) ;
#184 = CARTESIAN_POINT ( 'NONE',  ( -0.03904999999999989035, 3.075995059520788882E-16, -5.549066237130737733E-17 ) ) ;
#185 = CARTESIAN_POINT ( 'NONE',  ( 3.081046148912652946E-29, -4.398917338808479031E-15, -1.259899999999999798 ) ) ;
#186 = CC_DESIGN_APPROVAL ( #21, ( #158 ) ) ;
#187 = APPROVAL ( #11, 'UNSPECIFIED' ) ;
#188 = DIRECTION ( 'NONE',  ( 1.000000000000000000, -6.982962677686265922E-15, 4.876176775795935793E-29 ) ) ;
#189 = DIRECTION ( 'NONE',  ( 2.438088387897960049E-29, -3.491481338843145188E-15, -1.000000000000000000 ) ) ;
#190 = DIRECTION ( 'NONE',  ( -1.000000000000000000, 6.982962677686265922E-15, -4.876176775795935793E-29 ) ) ;
#191 = DATE_AND_TIME ( #311, #95 ) ;
#192 = VECTOR ( 'NONE', #217, 39.37007874015748854 ) ;
#193 = AXIS2_PLACEMENT_3D ( 'NONE', #273, #138, #364 ) ;
#194 = CARTESIAN_POINT ( 'NONE',  ( -0.05905000000000001914, 4.195754854663392958E-16, -2.904631170795522943E-30 ) ) ;
#195 = DIRECTION ( 'NONE',  ( -2.445468806185136597E-29, 3.491481338843145583E-15, 1.000000000000000000 ) ) ;
#196 = DIRECTION ( 'NONE',  ( -2.445468806185136877E-29, 3.491481338843145188E-15, 1.000000000000000000 ) ) ;
#197 = AXIS2_PLACEMENT_3D ( 'NONE', #139, #195, #339 ) ;
#198 = ADVANCED_FACE ( 'NONE', ( #4 ), #308, .T. ) ;
#199 = DIRECTION ( 'NONE',  ( 1.000000000000000000, -6.982962677686270655E-15, 0.000000000000000000 ) ) ;
#200 = APPLICATION_PROTOCOL_DEFINITION ( 'international standard', 'config_control_design', 1994, #253 ) ;
#201 = VERTEX_POINT ( 'NONE', #83 ) ;
#202 = COORDINATED_UNIVERSAL_TIME_OFFSET ( 5, 0, .BEHIND. ) ;
#203 = COORDINATED_UNIVERSAL_TIME_OFFSET ( 5, 0, .BEHIND. ) ;
#204 = VERTEX_POINT ( 'NONE', #248 ) ;
#205 = COORDINATED_UNIVERSAL_TIME_OFFSET ( 5, 0, .BEHIND. ) ;
#206 = AXIS2_PLACEMENT_3D ( 'NONE', #244, #361, #106 ) ;
#207 = COORDINATED_UNIVERSAL_TIME_OFFSET ( 5, 0, .BEHIND. ) ;
#208 = APPROVAL_PERSON_ORGANIZATION ( #285, #21, #348 ) ;
#209 = VERTEX_POINT ( 'NONE', #84 ) ;
#210 = DATE_AND_TIME ( #61, #177 ) ;
#211 = ORIENTED_EDGE ( 'NONE', *, *, #133, .T. ) ;
#212 = VERTEX_POINT ( 'NONE', #26 ) ;
#213 = EDGE_CURVE ( 'NONE', #318, #69, #250, .T. ) ;
#214 = CLOSED_SHELL ( 'NONE', ( #277, #124, #228, #165 ) ) ;
#215 = FACE_OUTER_BOUND ( 'NONE', #262, .T. ) ;
#216 = CONICAL_SURFACE ( 'NONE', #126, 0.05904999999999988036, 0.7853981633974476129 ) ;
#217 = DIRECTION ( 'NONE',  ( -0.7071067811865469066, 2.468850131082251144E-15, -0.7071067811865479058 ) ) ;
#218 = FACE_OUTER_BOUND ( 'NONE', #152, .T. ) ;
#219 = EDGE_CURVE ( 'NONE', #69, #318, #279, .T. ) ;
#220 = FACE_OUTER_BOUND ( 'NONE', #257, .T. ) ;
#221 = CIRCLE ( 'NONE', #331, 0.03904999999999989035 ) ;
#222 = DIRECTION ( 'NONE',  ( 1.000000000000000000, -6.982962677686265922E-15, 4.873707401586876696E-29 ) ) ;
#223 = ADVANCED_FACE ( 'NONE', ( #313 ), #216, .T. ) ;
#224 = DIRECTION ( 'NONE',  ( -2.445468806185136597E-29, 3.491481338843145583E-15, 1.000000000000000000 ) ) ;
#225 = CARTESIAN_POINT ( 'NONE',  ( 0.05905000000000001914, -4.123439461173741806E-16, 2.879382386107500921E-30 ) ) ;
#226 = LOCAL_TIME ( 10, 43, 40.00000000000000000, #203 ) ;
#227 = LINE ( 'NONE', #194, #343 ) ;
#228 = ADVANCED_FACE ( 'NONE', ( #366 ), #281, .F. ) ;
#229 = DIRECTION ( 'NONE',  ( -2.445468806185136597E-29, 3.491481338843145583E-15, 1.000000000000000000 ) ) ;
#230 = DIRECTION ( 'NONE',  ( -2.445468806185136877E-29, 3.491481338843145188E-15, 1.000000000000000000 ) ) ;
#231 = DIRECTION ( 'NONE',  ( 0.000000000000000000, 0.000000000000000000, 1.000000000000000000 ) ) ;
#232 = PERSON_AND_ORGANIZATION ( #307, #163 ) ;
#233 = ORIENTED_EDGE ( 'NONE', *, *, #219, .T. ) ;
#234 = VERTEX_POINT ( 'NONE', #28 ) ;
#235 = CIRCLE ( 'NONE', #32, 0.05905000000000001914 ) ;
#236 = PERSON_AND_ORGANIZATION ( #307, #163 ) ;
#237 = EDGE_LOOP ( 'NONE', ( #265, #211, #266, #128 ) ) ;
#238 = EDGE_CURVE ( 'NONE', #201, #45, #263, .T. ) ;
#239 = EDGE_LOOP ( 'NONE', ( #233, #174, #98, #12 ) ) ;
#240 = CARTESIAN_POINT ( 'NONE',  ( 4.890937612370292426E-31, -6.982962677686317493E-17, -0.02000000000000007674 ) ) ;
#241 = AXIS2_PLACEMENT_3D ( 'NONE', #183, #329, #362 ) ;
#242 = DIRECTION ( 'NONE',  ( -2.445468806185136597E-29, 3.491481338843145583E-15, 1.000000000000000000 ) ) ;
#243 = EDGE_CURVE ( 'NONE', #356, #318, #280, .T. ) ;
#244 = CARTESIAN_POINT ( 'NONE',  ( 3.081046148912654067E-29, -4.398917338808479820E-15, -1.259900000000000020 ) ) ;
#245 = DIRECTION ( 'NONE',  ( 1.000000000000000000, -6.982962677686266711E-15, 4.876176775795935232E-29 ) ) ;
#246 = AXIS2_PLACEMENT_3D ( 'NONE', #144, #86, #190 ) ;
#247 = DIRECTION ( 'NONE',  ( 1.000000000000000000, -6.982962677686270655E-15, 0.000000000000000000 ) ) ;
#248 = CARTESIAN_POINT ( 'NONE',  ( -0.05904999999999988036, 3.425143193405099949E-16, -0.02000000000000007674 ) ) ;
#249 = LINE ( 'NONE', #52, #73 ) ;
#250 = CIRCLE ( 'NONE', #56, 0.05905000000000001914 ) ;
#251 = DIRECTION ( 'NONE',  ( 1.000000000000000000, -6.982962677686270655E-15, 0.000000000000000000 ) ) ;
#252 = EDGE_CURVE ( 'NONE', #69, #234, #337, .T. ) ;
#253 = APPLICATION_CONTEXT ( 'configuration controlled 3d designs of mechanical parts and assemblies' ) ;
#254 = DIRECTION ( 'NONE',  ( -2.445468806185136597E-29, 3.491481338843145583E-15, 1.000000000000000000 ) ) ;
#255 =( LENGTH_UNIT ( ) NAMED_UNIT ( * ) SI_UNIT ( $, .METRE. ) );
#256 =( GEOMETRIC_REPRESENTATION_CONTEXT ( 3 ) GLOBAL_UNCERTAINTY_ASSIGNED_CONTEXT ( ( #290 ) ) GLOBAL_UNIT_ASSIGNED_CONTEXT ( ( #149, #68, #35 ) ) REPRESENTATION_CONTEXT ( 'NONE', 'WORKASPACE' ) );
#257 = EDGE_LOOP ( 'NONE', ( #291, #326, #101, #100 ) ) ;
#258 = APPROVAL_STATUS ( 'not_yet_approved' ) ;
#259 = CC_DESIGN_PERSON_AND_ORGANIZATION_ASSIGNMENT ( #345, #90, ( #158 ) ) ;
#260 = ORIENTED_EDGE ( 'NONE', *, *, #243, .F. ) ;
#261 = APPLICATION_PROTOCOL_DEFINITION ( 'international standard', 'config_control_design', 1994, #66 ) ;
#262 = EDGE_LOOP ( 'NONE', ( #347, #121 ) ) ;
#263 = CIRCLE ( 'NONE', #7, 0.03904999999999989035 ) ;
#264 = CARTESIAN_POINT ( 'NONE',  ( -0.05805000000000001131, -3.981148826351518933E-15, -1.259900000000000020 ) ) ;
#265 = ORIENTED_EDGE ( 'NONE', *, *, #334, .F. ) ;
#266 = ORIENTED_EDGE ( 'NONE', *, *, #289, .T. ) ;
#267 = DIRECTION ( 'NONE',  ( 1.000000000000000000, -6.982962677686270655E-15, 0.000000000000000000 ) ) ;
#268 = DIRECTION ( 'NONE',  ( -2.445468806185136597E-29, 3.491481338843145583E-15, 1.000000000000000000 ) ) ;
#269 = PRODUCT_DEFINITION ( 'UNKNOWN', '', #63, #105 ) ;
#270 = VERTEX_POINT ( 'NONE', #140 ) ;
#271 = SECURITY_CLASSIFICATION_LEVEL ( 'unclassified' ) ;
#272 = CARTESIAN_POINT ( 'NONE',  ( 4.890937612370292426E-31, -6.982962677686317493E-17, -0.02000000000000007674 ) ) ;
#273 = CARTESIAN_POINT ( 'NONE',  ( 4.123439461174106654E-16, 0.05904999999999479415, -1.496100000000000207 ) ) ;
#274 = CIRCLE ( 'NONE', #241, 0.05905000000000001914 ) ;
#275 = DIRECTION ( 'NONE',  ( -0.7071067811864267805, 7.493145998869918709E-15, 0.7071067811866682540 ) ) ;
#276 = CARTESIAN_POINT ( 'NONE',  ( 0.000000000000000000, 0.000000000000000000, 0.000000000000000000 ) ) ;
#277 = ADVANCED_FACE ( 'NONE', ( #24 ), #170, .T. ) ;
#278 = FACE_OUTER_BOUND ( 'NONE', #237, .T. ) ;
#279 = CIRCLE ( 'NONE', #78, 0.05905000000000001914 ) ;
#280 = LINE ( 'NONE', #305, #88 ) ;
#281 = PLANE ( 'NONE',  #246 ) ;
#282 = APPROVAL_STATUS ( 'not_yet_approved' ) ;
#283 = ORIENTED_EDGE ( 'NONE', *, *, #289, .F. ) ;
#284 = EDGE_CURVE ( 'NONE', #178, #270, #137, .T. ) ;
#285 = PERSON_AND_ORGANIZATION ( #307, #163 ) ;
#286 = AXIS2_PLACEMENT_3D ( 'NONE', #51, #164, #341 ) ;
#287 = PERSON_AND_ORGANIZATION ( #307, #163 ) ;
#288 = ORIENTED_EDGE ( 'NONE', *, *, #133, .F. ) ;
#289 = EDGE_CURVE ( 'NONE', #212, #270, #118, .T. ) ;
#290 = UNCERTAINTY_MEASURE_WITH_UNIT (LENGTH_MEASURE( 1.000000000000000082E-05 ), #149, 'distance_accuracy_value', 'NONE');
#291 = ORIENTED_EDGE ( 'NONE', *, *, #351, .F. ) ;
#292 = DATE_AND_TIME ( #37, #320 ) ;
#293 = ORIENTED_EDGE ( 'NONE', *, *, #302, .T. ) ;
#294 = AXIS2_PLACEMENT_3D ( 'NONE', #43, #189, #157 ) ;
#295 = AXIS2_PLACEMENT_3D ( 'NONE', #1, #229, #336 ) ;
#296 = ORIENTED_EDGE ( 'NONE', *, *, #238, .T. ) ;
#297 = EDGE_LOOP ( 'NONE', ( #355, #36, #15, #283 ) ) ;
#298 = PLANE ( 'NONE',  #294 ) ;
#299 = MANIFOLD_SOLID_BREP ( 'Body-Move/Copy2[2]', #352 ) ;
#300 = DIRECTION ( 'NONE',  ( -2.438088387897960049E-29, 3.491481338843145188E-15, 1.000000000000000000 ) ) ;
#301 = MANIFOLD_SOLID_BREP ( 'Body-Move/Copy2[1]', #214 ) ;
#302 = EDGE_CURVE ( 'NONE', #209, #69, #87, .T. ) ;
#303 = PLANE ( 'NONE',  #193 ) ;
#304 = DIRECTION ( 'NONE',  ( -2.445468806185136597E-29, 3.491481338843145583E-15, 1.000000000000000000 ) ) ;
#305 = CARTESIAN_POINT ( 'NONE',  ( -0.05805000000000001131, -3.986447280699741335E-15, -1.259900000000000020 ) ) ;
#306 = CONICAL_SURFACE ( 'NONE', #136, 0.05904999999999988036, 0.7853981633974476129 ) ;
#307 = PERSON ( 'UNSPECIFIED', 'UNSPECIFIED', 'UNSPECIFIED', ('UNSPECIFIED'), ('UNSPECIFIED'), ('UNSPECIFIED') ) ;
#308 = CONICAL_SURFACE ( 'NONE', #197, 0.05805000000000001131, 0.7853981633972775267 ) ;
#309 = DIRECTION ( 'NONE',  ( -2.445468806185136877E-29, 3.491481338843145188E-15, 1.000000000000000000 ) ) ;
#310 = CARTESIAN_POINT ( 'NONE',  ( 3.078600680106467904E-29, -4.395425857469635235E-15, -1.258899999999999686 ) ) ;
#311 = CALENDAR_DATE ( 2024, 28, 2 ) ;
#312 = APPROVAL_DATE_TIME ( #292, #187 ) ;
#313 = FACE_OUTER_BOUND ( 'NONE', #94, .T. ) ;
#314 = VECTOR ( 'NONE', #57, 39.37007874015748143 ) ;
#315 = CARTESIAN_POINT ( 'NONE',  ( 0.05805000000000001131, -4.804278322248167937E-15, -1.259900000000000020 ) ) ;
#316 = ORIENTED_EDGE ( 'NONE', *, *, #219, .F. ) ;
#317 = CALENDAR_DATE ( 2024, 28, 2 ) ;
#318 = VERTEX_POINT ( 'NONE', #172 ) ;
#319 = CONICAL_SURFACE ( 'NONE', #206, 0.05805000000000001131, 0.7853981633972775267 ) ;
#320 = LOCAL_TIME ( 10, 43, 40.00000000000000000, #207 ) ;
#321 = DATE_AND_TIME ( #14, #226 ) ;
#322 = ORIENTED_EDGE ( 'NONE', *, *, #238, .F. ) ;
#323 = ADVANCED_BREP_SHAPE_REPRESENTATION ( '49140', ( #301, #299, #359 ), #256 ) ;
#324 = CC_DESIGN_DATE_AND_TIME_ASSIGNMENT ( #321, #176, ( #269 ) ) ;
#325 = ORIENTED_EDGE ( 'NONE', *, *, #155, .T. ) ;
#326 = ORIENTED_EDGE ( 'NONE', *, *, #213, .T. ) ;
#327 = DIRECTION ( 'NONE',  ( 1.000000000000000000, -6.982962677686266711E-15, 4.876176775795935232E-29 ) ) ;
#328 = PLANE ( 'NONE',  #141 ) ;
#329 = DIRECTION ( 'NONE',  ( -2.445468806185136597E-29, 3.491481338843145583E-15, 1.000000000000000000 ) ) ;
#330 = PERSON_AND_ORGANIZATION ( #307, #163 ) ;
#331 = AXIS2_PLACEMENT_3D ( 'NONE', #22, #134, #222 ) ;
#332 = FACE_OUTER_BOUND ( 'NONE', #92, .T. ) ;
#333 = VECTOR ( 'NONE', #196, 39.37007874015748143 ) ;
#334 = EDGE_CURVE ( 'NONE', #179, #178, #227, .T. ) ;
#335 = CYLINDRICAL_SURFACE ( 'NONE', #108, 0.05904999999999994975 ) ;
#336 = DIRECTION ( 'NONE',  ( 1.000000000000000000, -6.982962677686266711E-15, 4.876176775795935793E-29 ) ) ;
#337 = LINE ( 'NONE', #29, #333 ) ;
#338 = VECTOR ( 'NONE', #161, 39.37007874015748854 ) ;
#339 = DIRECTION ( 'NONE',  ( 1.000000000000000000, -6.982962677686270655E-15, 0.000000000000000000 ) ) ;
#340 = CC_DESIGN_PERSON_AND_ORGANIZATION_ASSIGNMENT ( #169, #10, ( #63 ) ) ;
#341 = DIRECTION ( 'NONE',  ( 1.000000000000000000, -6.982962677686266711E-15, 0.000000000000000000 ) ) ;
#342 = DIRECTION ( 'NONE',  ( -2.445468806185136597E-29, 3.491481338843145583E-15, 1.000000000000000000 ) ) ;
#343 = VECTOR ( 'NONE', #309, 39.37007874015748143 ) ;
#344 = CC_DESIGN_PERSON_AND_ORGANIZATION_ASSIGNMENT ( #232, #346, ( #269 ) ) ;
#345 = PERSON_AND_ORGANIZATION ( #307, #163 ) ;
#346 = PERSON_AND_ORGANIZATION_ROLE ( 'creator' ) ;
#347 = ORIENTED_EDGE ( 'NONE', *, *, #116, .F. ) ;
#348 = APPROVAL_ROLE ( '' ) ;
#349 = APPROVAL_ROLE ( '' ) ;
#350 = EDGE_LOOP ( 'NONE', ( #260, #17, #293, #147 ) ) ;
#351 = EDGE_CURVE ( 'NONE', #318, #204, #249, .T. ) ;
#352 = CLOSED_SHELL ( 'NONE', ( #109, #104, #41, #223, #49, #198, #40, #70 ) ) ;
#353 = CC_DESIGN_APPROVAL ( #187, ( #63 ) ) ;
#354 = APPROVAL_ROLE ( '' ) ;
#355 = ORIENTED_EDGE ( 'NONE', *, *, #96, .T. ) ;
#356 = VERTEX_POINT ( 'NONE', #264 ) ;
#357 = EDGE_CURVE ( 'NONE', #270, #178, #130, .T. ) ;
#358 = ORIENTED_EDGE ( 'NONE', *, *, #284, .T. ) ;
#359 = AXIS2_PLACEMENT_3D ( 'NONE', #89, #231, #180 ) ;
#360 = FACE_OUTER_BOUND ( 'NONE', #62, .T. ) ;
#361 = DIRECTION ( 'NONE',  ( -2.445468806185136597E-29, 3.491481338843145583E-15, 1.000000000000000000 ) ) ;
#362 = DIRECTION ( 'NONE',  ( 1.000000000000000000, -6.982962677686270655E-15, 0.000000000000000000 ) ) ;
#363 = AXIS2_PLACEMENT_3D ( 'NONE', #122, #58, #91 ) ;
#364 = DIRECTION ( 'NONE',  ( -1.000000000000000000, 6.982962677686265922E-15, -4.876176775795935793E-29 ) ) ;
#365 = CARTESIAN_POINT ( 'NONE',  ( -0.05905000000000001914, -4.391685799459515247E-15, -1.496099999999999985 ) ) ;
#366 = FACE_OUTER_BOUND ( 'NONE', #65, .T. ) ;
ENDSEC;
END-ISO-10303-21;
