ISO-10303-21;
HEADER;
FILE_DESCRIPTION (( 'STEP AP203' ),
    '1' );
FILE_NAME ('49403.STEP',
    '2024-02-28T19:11:03',
    ( '' ),
    ( '' ),
    'SwSTEP 2.0',
    'SolidWorks 2023',
    '' );
FILE_SCHEMA (( 'CONFIG_CONTROL_DESIGN' ));
ENDSEC;

DATA;
#1 = CC_DESIGN_PERSON_AND_ORGANIZATION_ASSIGNMENT ( #354, #161, ( #17 ) ) ;
#2 = ORIENTED_EDGE ( 'NONE', *, *, #6, .T. ) ;
#3 = ORIENTED_EDGE ( 'NONE', *, *, #49, .T. ) ;
#4 = DIRECTION ( 'NONE',  ( -2.445468806185136877E-29, 3.491481338843145188E-15, 1.000000000000000000 ) ) ;
#5 = EDGE_LOOP ( 'NONE', ( #113, #267 ) ) ;
#6 = EDGE_CURVE ( 'NONE', #305, #119, #329, .T. ) ;
#7 = DIRECTION ( 'NONE',  ( 1.000000000000000000, -6.982962677686264344E-15, 0.000000000000000000 ) ) ;
#8 = ORIENTED_EDGE ( 'NONE', *, *, #107, .F. ) ;
#9 = CIRCLE ( 'NONE', #266, 0.1180999999999999966 ) ;
#10 = CC_DESIGN_APPROVAL ( #283, ( #47 ) ) ;
#11 = CARTESIAN_POINT ( 'NONE',  ( 6.850286386810212718E-16, 0.09809999999999979847, -3.403800630954616551E-16 ) ) ;
#12 = ORIENTED_EDGE ( 'NONE', *, *, #94, .T. ) ;
#13 = DIRECTION ( 'NONE',  ( 1.000000000000000000, -6.982962677686265133E-15, 0.000000000000000000 ) ) ;
#14 = EDGE_CURVE ( 'NONE', #342, #285, #303, .T. ) ;
#15 = DIRECTION ( 'NONE',  ( 1.000000000000000000, -6.982962677686265133E-15, 0.000000000000000000 ) ) ;
#16 = AXIS2_PLACEMENT_3D ( 'NONE', #122, #321, #155 ) ;
#17 = SECURITY_CLASSIFICATION ( '', '', #241 ) ;
#18 = APPROVAL_DATE_TIME ( #275, #283 ) ;
#19 = COORDINATED_UNIVERSAL_TIME_OFFSET ( 5, 0, .BEHIND. ) ;
#20 = VECTOR ( 'NONE', #197, 39.37007874015748143 ) ;
#21 = APPROVAL_DATE_TIME ( #184, #214 ) ;
#22 = APPROVAL_STATUS ( 'not_yet_approved' ) ;
#23 = CARTESIAN_POINT ( 'NONE',  ( 4.811459876169255671E-29, -6.869489534173887122E-15, -1.967499999999999805 ) ) ;
#24 = APPLICATION_PROTOCOL_DEFINITION ( 'international standard', 'config_control_design', 1994, #216 ) ;
#25 = CARTESIAN_POINT ( 'NONE',  ( 0.1180999999999999966, -8.246878922347480654E-16, 5.758764772215000440E-30 ) ) ;
#26 = ADVANCED_FACE ( 'NONE', ( #163 ), #361, .F. ) ;
#27 = DIRECTION ( 'NONE',  ( -2.445468806185136597E-29, 3.491481338843145583E-15, 1.000000000000000000 ) ) ;
#28 = FACE_OUTER_BOUND ( 'NONE', #172, .T. ) ;
#29 = PERSON_AND_ORGANIZATION_ROLE ( 'creator' ) ;
#30 = AXIS2_PLACEMENT_3D ( 'NONE', #31, #165, #280 ) ;
#31 = CARTESIAN_POINT ( 'NONE',  ( 4.813905344975440714E-29, -6.872981015512730918E-15, -1.968499999999999694 ) ) ;
#32 = CC_DESIGN_DATE_AND_TIME_ASSIGNMENT ( #74, #187, ( #47 ) ) ;
#33 = ORIENTED_EDGE ( 'NONE', *, *, #171, .F. ) ;
#34 = ORIENTED_EDGE ( 'NONE', *, *, #49, .F. ) ;
#35 = AXIS2_PLACEMENT_3D ( 'NONE', #347, #154, #40 ) ;
#36 = AXIS2_PLACEMENT_3D ( 'NONE', #139, #195, #73 ) ;
#37 = CARTESIAN_POINT ( 'NONE',  ( -0.1170999999999999958, -6.035637017589432116E-15, -1.968500000000000139 ) ) ;
#38 = VERTEX_POINT ( 'NONE', #366 ) ;
#39 = CC_DESIGN_DATE_AND_TIME_ASSIGNMENT ( #299, #219, ( #17 ) ) ;
#40 = DIRECTION ( 'NONE',  ( 1.000000000000000000, -6.982962677686267499E-15, 4.876195163481342132E-29 ) ) ;
#41 = ORIENTED_EDGE ( 'NONE', *, *, #138, .F. ) ;
#42 = CARTESIAN_POINT ( 'NONE',  ( 4.890937612370279289E-31, -6.982962677686299005E-17, -0.02000000000000002470 ) ) ;
#43 = AXIS2_PLACEMENT_3D ( 'NONE', #91, #70, #265 ) ;
#44 = DIRECTION ( 'NONE',  ( -2.445468806185136597E-29, 3.491481338843145583E-15, 1.000000000000000000 ) ) ;
#45 = PERSON_AND_ORGANIZATION ( #282, #81 ) ;
#46 = CONICAL_SURFACE ( 'NONE', #251, 0.1170999999999999958, 0.7853981633972775267 ) ;
#47 = PRODUCT_DEFINITION ( 'UNKNOWN', '', #323, #273 ) ;
#48 = CARTESIAN_POINT ( 'NONE',  ( -0.1181000000000000105, -2.630508609542693069E-15, -1.967499999999999805 ) ) ;
#49 = EDGE_CURVE ( 'NONE', #231, #288, #346, .T. ) ;
#50 =( NAMED_UNIT ( * ) PLANE_ANGLE_UNIT ( ) SI_UNIT ( $, .RADIAN. ) );
#51 = DIRECTION ( 'NONE',  ( 1.000000000000000000, -6.982962677686265922E-15, 4.876176775795935793E-29 ) ) ;
#52 = DIRECTION ( 'NONE',  ( 1.000000000000000000, -6.982962677686273021E-15, 0.000000000000000000 ) ) ;
#53 = DIRECTION ( 'NONE',  ( -1.000000000000000000, 6.982962677686265922E-15, -4.876176775795935793E-29 ) ) ;
#54 = CARTESIAN_POINT ( 'NONE',  ( 4.813905344975441835E-29, -6.872981015512731707E-15, -1.968500000000000139 ) ) ;
#55 = CLOSED_SHELL ( 'NONE', ( #246, #315, #360, #211, #123, #274, #307, #201 ) ) ;
#56 = PERSON_AND_ORGANIZATION ( #282, #81 ) ;
#57 = ORIENTED_EDGE ( 'NONE', *, *, #338, .T. ) ;
#58 = DIRECTION ( 'NONE',  ( 1.000000000000000000, -6.982962677686266711E-15, 0.000000000000000000 ) ) ;
#59 = ORIENTED_EDGE ( 'NONE', *, *, #324, .T. ) ;
#60 = CONICAL_SURFACE ( 'NONE', #16, 0.1180999999999997607, 0.7853981633974465026 ) ;
#61 = DIRECTION ( 'NONE',  ( -2.445468806185136597E-29, 3.491481338843145583E-15, 1.000000000000000000 ) ) ;
#62 = ORIENTED_EDGE ( 'NONE', *, *, #14, .T. ) ;
#63 = CARTESIAN_POINT ( 'NONE',  ( -0.1180999999999998856, 8.391509709326775068E-16, -5.809262341591038179E-30 ) ) ;
#64 = ORIENTED_EDGE ( 'NONE', *, *, #338, .F. ) ;
#65 = CARTESIAN_POINT ( 'NONE',  ( 4.813905344975440714E-29, -6.872981015512730918E-15, -1.968499999999999694 ) ) ;
#66 = APPROVAL_DATE_TIME ( #141, #160 ) ;
#67 = AXIS2_PLACEMENT_3D ( 'NONE', #295, #268, #58 ) ;
#68 = CC_DESIGN_APPROVAL ( #160, ( #323 ) ) ;
#69 = CC_DESIGN_PERSON_AND_ORGANIZATION_ASSIGNMENT ( #56, #134, ( #217 ) ) ;
#70 = DIRECTION ( 'NONE',  ( -2.445468806185136597E-29, 3.491481338843145583E-15, 1.000000000000000000 ) ) ;
#71 = CARTESIAN_POINT ( 'NONE',  ( 0.09809999999999979847, -7.765346469475324764E-16, 4.268512490105521927E-18 ) ) ;
#72 =( GEOMETRIC_REPRESENTATION_CONTEXT ( 3 ) GLOBAL_UNCERTAINTY_ASSIGNED_CONTEXT ( ( #157 ) ) GLOBAL_UNIT_ASSIGNED_CONTEXT ( ( #253, #50, #300 ) ) REPRESENTATION_CONTEXT ( 'NONE', 'WORKASPACE' ) );
#73 = DIRECTION ( 'NONE',  ( 1.000000000000000000, -6.982962677686267499E-15, 4.876195163481342132E-29 ) ) ;
#74 = DATE_AND_TIME ( #203, #240 ) ;
#75 = DIRECTION ( 'NONE',  ( 1.000000000000000000, -6.982962677686265133E-15, 0.000000000000000000 ) ) ;
#76 = CARTESIAN_POINT ( 'NONE',  ( 4.890937612370279289E-31, -6.982962677686299005E-17, -0.02000000000000002470 ) ) ;
#77 = CYLINDRICAL_SURFACE ( 'NONE', #213, 0.1180999999999998856 ) ;
#78 = EDGE_LOOP ( 'NONE', ( #226, #117, #254, #89 ) ) ;
#79 = PERSON_AND_ORGANIZATION ( #282, #81 ) ;
#80 = DIRECTION ( 'NONE',  ( -2.445468806185136597E-29, 3.491481338843145583E-15, 1.000000000000000000 ) ) ;
#81 = ORGANIZATION ( 'UNSPECIFIED', 'UNSPECIFIED', '' ) ;
#82 = VERTEX_POINT ( 'NONE', #336 ) ;
#83 = DIRECTION ( 'NONE',  ( 1.000000000000000000, -6.982962677686266711E-15, 0.000000000000000000 ) ) ;
#84 = PLANE ( 'NONE',  #92 ) ;
#85 = EDGE_LOOP ( 'NONE', ( #170, #206, #263, #313 ) ) ;
#86 = CIRCLE ( 'NONE', #322, 0.1170999999999999958 ) ;
#87 = CARTESIAN_POINT ( 'NONE',  ( -0.1180999999999999966, -7.752162585491706132E-15, -1.968499999999999694 ) ) ;
#88 = PERSON_AND_ORGANIZATION ( #282, #81 ) ;
#89 = ORIENTED_EDGE ( 'NONE', *, *, #14, .F. ) ;
#90 = CYLINDRICAL_SURFACE ( 'NONE', #120, 0.1180999999999998856 ) ;
#91 = CARTESIAN_POINT ( 'NONE',  ( 0.000000000000000000, 0.000000000000000000, 0.000000000000000000 ) ) ;
#92 = AXIS2_PLACEMENT_3D ( 'NONE', #11, #238, #116 ) ;
#93 = PRODUCT_DEFINITION_SHAPE ( 'NONE', 'NONE',  #47 ) ;
#94 = EDGE_CURVE ( 'NONE', #142, #112, #175, .T. ) ;
#95 = CARTESIAN_POINT ( 'NONE',  ( 4.813905344975441835E-29, -6.872981015512731707E-15, -1.968500000000000139 ) ) ;
#96 = AXIS2_PLACEMENT_3D ( 'NONE', #125, #61, #320 ) ;
#97 = PERSON_AND_ORGANIZATION ( #282, #81 ) ;
#98 = LENGTH_MEASURE_WITH_UNIT ( LENGTH_MEASURE( 0.02539999999999999897 ), #301 );
#99 = DIRECTION ( 'NONE',  ( 2.445468806185136597E-29, -3.491481338843145583E-15, -1.000000000000000000 ) ) ;
#100 = ADVANCED_FACE ( 'NONE', ( #28 ), #252, .T. ) ;
#101 = CALENDAR_DATE ( 2024, 28, 2 ) ;
#102 = DIRECTION ( 'NONE',  ( 2.438088387897960049E-29, -3.491481338843145188E-15, -1.000000000000000000 ) ) ;
#103 = AXIS2_PLACEMENT_3D ( 'NONE', #42, #349, #83 ) ;
#104 = APPLICATION_CONTEXT ( 'configuration controlled 3d designs of mechanical parts and assemblies' ) ;
#105 = APPLICATION_PROTOCOL_DEFINITION ( 'international standard', 'config_control_design', 1994, #104 ) ;
#106 = ORIENTED_EDGE ( 'NONE', *, *, #244, .F. ) ;
#107 = EDGE_CURVE ( 'NONE', #342, #258, #235, .T. ) ;
#108 = DIRECTION ( 'NONE',  ( -2.445468806185136597E-29, 3.491481338843145583E-15, 1.000000000000000000 ) ) ;
#109 = EDGE_LOOP ( 'NONE', ( #146, #59, #62, #335 ) ) ;
#110 = CIRCLE ( 'NONE', #181, 0.1180999999999999966 ) ;
#111 = AXIS2_PLACEMENT_3D ( 'NONE', #220, #331, #190 ) ;
#112 = VERTEX_POINT ( 'NONE', #284 ) ;
#113 = ORIENTED_EDGE ( 'NONE', *, *, #340, .T. ) ;
#114 = EDGE_LOOP ( 'NONE', ( #41, #2, #140, #124 ) ) ;
#115 = ADVANCED_FACE ( 'NONE', ( #310 ), #180, .T. ) ;
#116 = DIRECTION ( 'NONE',  ( -1.000000000000000000, 6.982962677686265922E-15, -4.876176775795935793E-29 ) ) ;
#117 = ORIENTED_EDGE ( 'NONE', *, *, #351, .T. ) ;
#118 = CARTESIAN_POINT ( 'NONE',  ( 0.1180999999999999966, -7.694177426408635385E-15, -1.967499999999999805 ) ) ;
#119 = VERTEX_POINT ( 'NONE', #293 ) ;
#120 = AXIS2_PLACEMENT_3D ( 'NONE', #232, #318, #182 ) ;
#121 = LOCAL_TIME ( 14, 11, 3.000000000000000000, #169 ) ;
#122 = CARTESIAN_POINT ( 'NONE',  ( 4.890937612370279289E-31, -6.982962677686299005E-17, -0.02000000000000002470 ) ) ;
#123 = ADVANCED_FACE ( 'NONE', ( #207 ), #90, .T. ) ;
#124 = ORIENTED_EDGE ( 'NONE', *, *, #325, .F. ) ;
#125 = CARTESIAN_POINT ( 'NONE',  ( 7.220980290903470182E-29, -1.030964609733603853E-14, -2.952799999999999869 ) ) ;
#126 = PERSON_AND_ORGANIZATION ( #282, #81 ) ;
#127 = VECTOR ( 'NONE', #135, 39.37007874015748143 ) ;
#128 = APPROVAL_PERSON_ORGANIZATION ( #88, #160, #297 ) ;
#129 = CARTESIAN_POINT ( 'NONE',  ( 0.1180999999999999966, -1.113433398957078679E-14, -2.952799999999999869 ) ) ;
#130 = CALENDAR_DATE ( 2024, 28, 2 ) ;
#131 = AXIS2_PLACEMENT_3D ( 'NONE', #314, #289, #287 ) ;
#132 = LOCAL_TIME ( 14, 11, 3.000000000000000000, #248 ) ;
#133 = EDGE_CURVE ( 'NONE', #82, #119, #204, .T. ) ;
#134 = PERSON_AND_ORGANIZATION_ROLE ( 'design_owner' ) ;
#135 = DIRECTION ( 'NONE',  ( 0.7071067811864267805, -2.468850131080992517E-15, 0.7071067811866682540 ) ) ;
#136 = PERSON_AND_ORGANIZATION_ROLE ( 'design_supplier' ) ;
#137 = DIRECTION ( 'NONE',  ( -2.445468806185136597E-29, 3.491481338843145583E-15, 1.000000000000000000 ) ) ;
#138 = EDGE_CURVE ( 'NONE', #305, #38, #243, .T. ) ;
#139 = CARTESIAN_POINT ( 'NONE',  ( -1.043851414335219820E-46, 1.490343170380447200E-32, 4.268512490100411279E-18 ) ) ;
#140 = ORIENTED_EDGE ( 'NONE', *, *, #244, .T. ) ;
#141 = DATE_AND_TIME ( #101, #294 ) ;
#142 = VERTEX_POINT ( 'NONE', #87 ) ;
#143 = EDGE_CURVE ( 'NONE', #112, #142, #9, .T. ) ;
#144 = ADVANCED_BREP_SHAPE_REPRESENTATION ( '49403', ( #345, #230, #111 ), #72 ) ;
#145 = CIRCLE ( 'NONE', #36, 0.09809999999999979847 ) ;
#146 = ORIENTED_EDGE ( 'NONE', *, *, #351, .F. ) ;
#147 = CARTESIAN_POINT ( 'NONE',  ( -0.1180999999999999966, 8.391509709326782957E-16, -5.809262341591043784E-30 ) ) ;
#148 = EDGE_LOOP ( 'NONE', ( #260, #317, #106, #236 ) ) ;
#149 = DIRECTION ( 'NONE',  ( 1.000000000000000000, -6.982962677686266711E-15, 4.876176775795935232E-29 ) ) ;
#150 = CARTESIAN_POINT ( 'NONE',  ( 4.813905344975441835E-29, -6.872981015512731707E-15, -1.968500000000000139 ) ) ;
#151 = ORIENTED_EDGE ( 'NONE', *, *, #227, .T. ) ;
#152 = ORIENTED_EDGE ( 'NONE', *, *, #205, .F. ) ;
#153 = VECTOR ( 'NONE', #279, 39.37007874015748143 ) ;
#154 = DIRECTION ( 'NONE',  ( -2.445468806185136597E-29, 3.491481338843145583E-15, 1.000000000000000000 ) ) ;
#155 = DIRECTION ( 'NONE',  ( -1.000000000000000000, 6.982962677686266711E-15, 0.000000000000000000 ) ) ;
#156 = EDGE_CURVE ( 'NONE', #285, #119, #234, .T. ) ;
#157 = UNCERTAINTY_MEASURE_WITH_UNIT (LENGTH_MEASURE( 1.000000000000000082E-05 ), #253, 'distance_accuracy_value', 'NONE');
#158 = VECTOR ( 'NONE', #4, 39.37007874015748143 ) ;
#159 = FACE_OUTER_BOUND ( 'NONE', #202, .T. ) ;
#160 = APPROVAL ( #208, 'UNSPECIFIED' ) ;
#161 = PERSON_AND_ORGANIZATION_ROLE ( 'classification_officer' ) ;
#162 = CARTESIAN_POINT ( 'NONE',  ( 0.1170999999999999958, -7.690685945069793956E-15, -1.968500000000000139 ) ) ;
#163 = FACE_OUTER_BOUND ( 'NONE', #178, .T. ) ;
#164 = CARTESIAN_POINT ( 'NONE',  ( 0.000000000000000000, 0.000000000000000000, 0.000000000000000000 ) ) ;
#165 = DIRECTION ( 'NONE',  ( -2.445468806185136597E-29, 3.491481338843145583E-15, 1.000000000000000000 ) ) ;
#166 = LINE ( 'NONE', #185, #250 ) ;
#167 = DIRECTION ( 'NONE',  ( 1.000000000000000000, -6.982962677686264344E-15, 0.000000000000000000 ) ) ;
#168 = CONICAL_SURFACE ( 'NONE', #333, 0.1180999999999997607, 0.7853981633974465026 ) ;
#169 = COORDINATED_UNIVERSAL_TIME_OFFSET ( 5, 0, .BEHIND. ) ;
#170 = ORIENTED_EDGE ( 'NONE', *, *, #6, .F. ) ;
#171 = EDGE_CURVE ( 'NONE', #344, #82, #341, .T. ) ;
#172 = EDGE_LOOP ( 'NONE', ( #198, #319, #173, #64 ) ) ;
#173 = ORIENTED_EDGE ( 'NONE', *, *, #143, .F. ) ;
#174 = CARTESIAN_POINT ( 'NONE',  ( 0.1180999999999998856, -8.246878922347472765E-16, 5.758764772214994135E-30 ) ) ;
#175 = CIRCLE ( 'NONE', #30, 0.1180999999999999966 ) ;
#176 = APPROVAL_PERSON_ORGANIZATION ( #79, #283, #193 ) ;
#177 = FACE_OUTER_BOUND ( 'NONE', #109, .T. ) ;
#178 = EDGE_LOOP ( 'NONE', ( #339, #12 ) ) ;
#179 = DIRECTION ( 'NONE',  ( -2.445468806185136877E-29, 3.491481338843145188E-15, 1.000000000000000000 ) ) ;
#180 = CYLINDRICAL_SURFACE ( 'NONE', #43, 0.1180999999999999966 ) ;
#181 = AXIS2_PLACEMENT_3D ( 'NONE', #23, #365, #75 ) ;
#182 = DIRECTION ( 'NONE',  ( 1.000000000000000000, -6.982962677686266711E-15, 4.876176775795935232E-29 ) ) ;
#183 = AXIS2_PLACEMENT_3D ( 'NONE', #191, #108, #52 ) ;
#184 = DATE_AND_TIME ( #222, #355 ) ;
#185 = CARTESIAN_POINT ( 'NONE',  ( -0.1180999999999997607, 7.548582654578833867E-16, -0.02000000000000002470 ) ) ;
#186 = LINE ( 'NONE', #358, #153 ) ;
#187 = DATE_TIME_ROLE ( 'creation_date' ) ;
#188 = CLOSED_SHELL ( 'NONE', ( #100, #356, #26, #115 ) ) ;
#189 = CC_DESIGN_SECURITY_CLASSIFICATION ( #17, ( #323 ) ) ;
#190 = DIRECTION ( 'NONE',  ( 1.000000000000000000, 0.000000000000000000, 0.000000000000000000 ) ) ;
#191 = CARTESIAN_POINT ( 'NONE',  ( 7.220980290903470182E-29, -1.030964609733603853E-14, -2.952799999999999869 ) ) ;
#192 = PRODUCT_RELATED_PRODUCT_CATEGORY ( 'detail', '', ( #217 ) ) ;
#193 = APPROVAL_ROLE ( '' ) ;
#194 = DIRECTION ( 'NONE',  ( -2.445468806185136597E-29, 3.491481338843145583E-15, 1.000000000000000000 ) ) ;
#195 = DIRECTION ( 'NONE',  ( -2.445468806185136597E-29, 3.491481338843145583E-15, 1.000000000000000000 ) ) ;
#196 = AXIS2_PLACEMENT_3D ( 'NONE', #54, #80, #167 ) ;
#197 = DIRECTION ( 'NONE',  ( 0.7071067811865462405, -7.319954787623251312E-15, -0.7071067811865487940 ) ) ;
#198 = ORIENTED_EDGE ( 'NONE', *, *, #205, .T. ) ;
#199 = ORIENTED_EDGE ( 'NONE', *, *, #133, .F. ) ;
#200 = FACE_OUTER_BOUND ( 'NONE', #78, .T. ) ;
#201 = ADVANCED_FACE ( 'NONE', ( #210 ), #84, .F. ) ;
#202 = EDGE_LOOP ( 'NONE', ( #8, #348 ) ) ;
#203 = CALENDAR_DATE ( 2024, 28, 2 ) ;
#204 = CIRCLE ( 'NONE', #67, 0.1180999999999997607 ) ;
#205 = EDGE_CURVE ( 'NONE', #288, #231, #228, .T. ) ;
#206 = ORIENTED_EDGE ( 'NONE', *, *, #340, .F. ) ;
#207 = FACE_OUTER_BOUND ( 'NONE', #290, .T. ) ;
#208 = APPROVAL_STATUS ( 'not_yet_approved' ) ;
#209 = EDGE_LOOP ( 'NONE', ( #152, #34 ) ) ;
#210 = FACE_OUTER_BOUND ( 'NONE', #5, .T. ) ;
#211 = ADVANCED_FACE ( 'NONE', ( #212 ), #60, .T. ) ;
#212 = FACE_OUTER_BOUND ( 'NONE', #85, .T. ) ;
#213 = AXIS2_PLACEMENT_3D ( 'NONE', #164, #27, #149 ) ;
#214 = APPROVAL ( #330, 'UNSPECIFIED' ) ;
#215 = APPROVAL_ROLE ( '' ) ;
#216 = APPLICATION_CONTEXT ( 'configuration controlled 3d designs of mechanical parts and assemblies' ) ;
#217 = PRODUCT ( '49403', '49403', '', ( #309 ) ) ;
#218 = DIRECTION ( 'NONE',  ( -1.000000000000000000, 6.982962677686266711E-15, 0.000000000000000000 ) ) ;
#219 = DATE_TIME_ROLE ( 'classification_date' ) ;
#220 = CARTESIAN_POINT ( 'NONE',  ( 0.000000000000000000, 0.000000000000000000, 0.000000000000000000 ) ) ;
#221 = DIRECTION ( 'NONE',  ( -1.000000000000000000, 6.982962677686265922E-15, -4.876176775795935793E-29 ) ) ;
#222 = CALENDAR_DATE ( 2024, 28, 2 ) ;
#223 = DIRECTION ( 'NONE',  ( -2.438088387897960049E-29, 3.491481338843145188E-15, 1.000000000000000000 ) ) ;
#224 = CARTESIAN_POINT ( 'NONE',  ( 0.1170999999999999958, -7.690685945069793956E-15, -1.968500000000000139 ) ) ;
#225 = FACE_OUTER_BOUND ( 'NONE', #114, .T. ) ;
#226 = ORIENTED_EDGE ( 'NONE', *, *, #107, .T. ) ;
#227 = EDGE_CURVE ( 'NONE', #344, #285, #276, .T. ) ;
#228 = CIRCLE ( 'NONE', #96, 0.1180999999999999966 ) ;
#229 = ORIENTED_EDGE ( 'NONE', *, *, #94, .F. ) ;
#230 = MANIFOLD_SOLID_BREP ( 'Body-Move/Copy2[2]', #55 ) ;
#231 = VERTEX_POINT ( 'NONE', #237 ) ;
#232 = CARTESIAN_POINT ( 'NONE',  ( 0.000000000000000000, 0.000000000000000000, 0.000000000000000000 ) ) ;
#233 = LINE ( 'NONE', #147, #158 ) ;
#234 = LINE ( 'NONE', #174, #332 ) ;
#235 = CIRCLE ( 'NONE', #196, 0.1170999999999999958 ) ;
#236 = ORIENTED_EDGE ( 'NONE', *, *, #156, .F. ) ;
#237 = CARTESIAN_POINT ( 'NONE',  ( -0.1180999999999999966, -7.752162585491706132E-15, -2.952799999999999869 ) ) ;
#238 = DIRECTION ( 'NONE',  ( 2.438088387897960049E-29, -3.491481338843145188E-15, -1.000000000000000000 ) ) ;
#239 = VECTOR ( 'NONE', #179, 39.37007874015748143 ) ;
#240 = LOCAL_TIME ( 14, 11, 3.000000000000000000, #343 ) ;
#241 = SECURITY_CLASSIFICATION_LEVEL ( 'unclassified' ) ;
#242 = PLANE ( 'NONE',  #277 ) ;
#243 = CIRCLE ( 'NONE', #35, 0.09809999999999979847 ) ;
#244 = EDGE_CURVE ( 'NONE', #119, #82, #286, .T. ) ;
#245 = DIRECTION ( 'NONE',  ( 2.438088387897960049E-29, -3.491481338843145188E-15, -1.000000000000000000 ) ) ;
#246 = ADVANCED_FACE ( 'NONE', ( #200 ), #363, .T. ) ;
#247 = CARTESIAN_POINT ( 'NONE',  ( 0.1180999999999997607, -8.800544403136791611E-16, -0.02000000000000002470 ) ) ;
#248 = COORDINATED_UNIVERSAL_TIME_OFFSET ( 5, 0, .BEHIND. ) ;
#249 = DIRECTION ( 'NONE',  ( 1.000000000000000000, -6.982962677686264344E-15, 0.000000000000000000 ) ) ;
#250 = VECTOR ( 'NONE', #304, 39.37007874015748143 ) ;
#251 = AXIS2_PLACEMENT_3D ( 'NONE', #150, #262, #7 ) ;
#252 = CYLINDRICAL_SURFACE ( 'NONE', #326, 0.1180999999999999966 ) ;
#253 =( CONVERSION_BASED_UNIT ( 'INCH', #98 ) LENGTH_UNIT ( ) NAMED_UNIT ( #350 ) );
#254 = ORIENTED_EDGE ( 'NONE', *, *, #312, .F. ) ;
#255 = EDGE_LOOP ( 'NONE', ( #257, #3, #57, #229 ) ) ;
#256 = VECTOR ( 'NONE', #357, 39.37007874015748143 ) ;
#257 = ORIENTED_EDGE ( 'NONE', *, *, #270, .F. ) ;
#258 = VERTEX_POINT ( 'NONE', #37 ) ;
#259 = CARTESIAN_POINT ( 'NONE',  ( 4.811459876169255671E-29, -6.869489534173887122E-15, -1.967499999999999805 ) ) ;
#260 = ORIENTED_EDGE ( 'NONE', *, *, #312, .T. ) ;
#261 = CC_DESIGN_PERSON_AND_ORGANIZATION_ASSIGNMENT ( #126, #29, ( #323 ) ) ;
#262 = DIRECTION ( 'NONE',  ( -2.445468806185136597E-29, 3.491481338843145583E-15, 1.000000000000000000 ) ) ;
#263 = ORIENTED_EDGE ( 'NONE', *, *, #325, .T. ) ;
#264 = SHAPE_DEFINITION_REPRESENTATION ( #93, #144 ) ;
#265 = DIRECTION ( 'NONE',  ( 1.000000000000000000, -6.982962677686266711E-15, 4.876176775795936353E-29 ) ) ;
#266 = AXIS2_PLACEMENT_3D ( 'NONE', #65, #44, #13 ) ;
#267 = ORIENTED_EDGE ( 'NONE', *, *, #138, .T. ) ;
#268 = DIRECTION ( 'NONE',  ( -2.445468806185136597E-29, 3.491481338843145583E-15, 1.000000000000000000 ) ) ;
#269 = DIRECTION ( 'NONE',  ( -2.445468806185136597E-29, 3.491481338843145583E-15, 1.000000000000000000 ) ) ;
#270 = EDGE_CURVE ( 'NONE', #231, #142, #233, .T. ) ;
#271 = CC_DESIGN_APPROVAL ( #214, ( #17 ) ) ;
#272 = PERSON_AND_ORGANIZATION ( #282, #81 ) ;
#273 = DESIGN_CONTEXT ( 'detailed design', #104, 'design' ) ;
#274 = ADVANCED_FACE ( 'NONE', ( #177 ), #46, .T. ) ;
#275 = DATE_AND_TIME ( #130, #121 ) ;
#276 = CIRCLE ( 'NONE', #302, 0.1180999999999999966 ) ;
#277 = AXIS2_PLACEMENT_3D ( 'NONE', #278, #245, #53 ) ;
#278 = CARTESIAN_POINT ( 'NONE',  ( 8.246878922348201475E-16, 0.1180999999999896855, -2.952800000000000313 ) ) ;
#279 = DIRECTION ( 'NONE',  ( -0.7071067811864267805, 7.493145998869918709E-15, 0.7071067811866682540 ) ) ;
#280 = DIRECTION ( 'NONE',  ( 1.000000000000000000, -6.982962677686265133E-15, 0.000000000000000000 ) ) ;
#281 = FACE_OUTER_BOUND ( 'NONE', #209, .T. ) ;
#282 = PERSON ( 'UNSPECIFIED', 'UNSPECIFIED', 'UNSPECIFIED', ('UNSPECIFIED'), ('UNSPECIFIED'), ('UNSPECIFIED') ) ;
#283 = APPROVAL ( #22, 'UNSPECIFIED' ) ;
#284 = CARTESIAN_POINT ( 'NONE',  ( 0.1180999999999999966, -7.697668907747478392E-15, -1.968499999999999694 ) ) ;
#285 = VERTEX_POINT ( 'NONE', #118 ) ;
#286 = CIRCLE ( 'NONE', #103, 0.1180999999999997607 ) ;
#287 = DIRECTION ( 'NONE',  ( 1.000000000000000000, -6.982962677686264344E-15, 0.000000000000000000 ) ) ;
#288 = VERTEX_POINT ( 'NONE', #129 ) ;
#289 = DIRECTION ( 'NONE',  ( -2.445468806185136597E-29, 3.491481338843145583E-15, 1.000000000000000000 ) ) ;
#290 = EDGE_LOOP ( 'NONE', ( #33, #151, #292, #199 ) ) ;
#291 = DIRECTION ( 'NONE',  ( -2.445468806185136877E-29, 3.491481338843145188E-15, 1.000000000000000000 ) ) ;
#292 = ORIENTED_EDGE ( 'NONE', *, *, #156, .T. ) ;
#293 = CARTESIAN_POINT ( 'NONE',  ( 0.1180999999999997607, -8.800544403136791611E-16, -0.02000000000000002470 ) ) ;
#294 = LOCAL_TIME ( 14, 11, 3.000000000000000000, #19 ) ;
#295 = CARTESIAN_POINT ( 'NONE',  ( 4.890937612370279289E-31, -6.982962677686299005E-17, -0.02000000000000002470 ) ) ;
#296 = PLANE ( 'NONE',  #353 ) ;
#297 = APPROVAL_ROLE ( '' ) ;
#298 = APPROVAL_PERSON_ORGANIZATION ( #97, #214, #215 ) ;
#299 = DATE_AND_TIME ( #359, #132 ) ;
#300 =( NAMED_UNIT ( * ) SI_UNIT ( $, .STERADIAN. ) SOLID_ANGLE_UNIT ( ) );
#301 =( LENGTH_UNIT ( ) NAMED_UNIT ( * ) SI_UNIT ( $, .METRE. ) );
#302 = AXIS2_PLACEMENT_3D ( 'NONE', #259, #269, #15 ) ;
#303 = LINE ( 'NONE', #224, #127 ) ;
#304 = DIRECTION ( 'NONE',  ( -0.7071067811865462405, 2.468850131082243256E-15, -0.7071067811865487940 ) ) ;
#305 = VERTEX_POINT ( 'NONE', #71 ) ;
#306 = LINE ( 'NONE', #25, #256 ) ;
#307 = ADVANCED_FACE ( 'NONE', ( #159 ), #296, .F. ) ;
#308 = CARTESIAN_POINT ( 'NONE',  ( 8.246878922347960873E-16, 0.1180999999999931133, -1.968500000000000361 ) ) ;
#309 = MECHANICAL_CONTEXT ( 'NONE', #216, 'mechanical' ) ;
#310 = FACE_OUTER_BOUND ( 'NONE', #255, .T. ) ;
#311 = PERSON_AND_ORGANIZATION_ROLE ( 'creator' ) ;
#312 = EDGE_CURVE ( 'NONE', #285, #344, #110, .T. ) ;
#313 = ORIENTED_EDGE ( 'NONE', *, *, #133, .T. ) ;
#314 = CARTESIAN_POINT ( 'NONE',  ( 4.813905344975441835E-29, -6.872981015512731707E-15, -1.968500000000000139 ) ) ;
#315 = ADVANCED_FACE ( 'NONE', ( #334 ), #77, .T. ) ;
#316 = AXIS2_PLACEMENT_3D ( 'NONE', #308, #102, #221 ) ;
#317 = ORIENTED_EDGE ( 'NONE', *, *, #171, .T. ) ;
#318 = DIRECTION ( 'NONE',  ( -2.445468806185136597E-29, 3.491481338843145583E-15, 1.000000000000000000 ) ) ;
#319 = ORIENTED_EDGE ( 'NONE', *, *, #270, .T. ) ;
#320 = DIRECTION ( 'NONE',  ( 1.000000000000000000, -6.982962677686273021E-15, 0.000000000000000000 ) ) ;
#321 = DIRECTION ( 'NONE',  ( 2.445468806185136597E-29, -3.491481338843145583E-15, -1.000000000000000000 ) ) ;
#322 = AXIS2_PLACEMENT_3D ( 'NONE', #327, #137, #249 ) ;
#323 = PRODUCT_DEFINITION_FORMATION_WITH_SPECIFIED_SOURCE ( 'ANY', '', #217, .NOT_KNOWN. ) ;
#324 = EDGE_CURVE ( 'NONE', #258, #342, #86, .T. ) ;
#325 = EDGE_CURVE ( 'NONE', #38, #82, #166, .T. ) ;
#326 = AXIS2_PLACEMENT_3D ( 'NONE', #364, #194, #337 ) ;
#327 = CARTESIAN_POINT ( 'NONE',  ( 4.813905344975441835E-29, -6.872981015512731707E-15, -1.968500000000000139 ) ) ;
#328 = CC_DESIGN_PERSON_AND_ORGANIZATION_ASSIGNMENT ( #272, #136, ( #323 ) ) ;
#329 = LINE ( 'NONE', #247, #20 ) ;
#330 = APPROVAL_STATUS ( 'not_yet_approved' ) ;
#331 = DIRECTION ( 'NONE',  ( 0.000000000000000000, 0.000000000000000000, 1.000000000000000000 ) ) ;
#332 = VECTOR ( 'NONE', #291, 39.37007874015748143 ) ;
#333 = AXIS2_PLACEMENT_3D ( 'NONE', #76, #99, #218 ) ;
#334 = FACE_OUTER_BOUND ( 'NONE', #148, .T. ) ;
#335 = ORIENTED_EDGE ( 'NONE', *, *, #227, .F. ) ;
#336 = CARTESIAN_POINT ( 'NONE',  ( -0.1180999999999997607, 7.548582654578833867E-16, -0.02000000000000002470 ) ) ;
#337 = DIRECTION ( 'NONE',  ( 1.000000000000000000, -6.982962677686266711E-15, 4.876176775795936353E-29 ) ) ;
#338 = EDGE_CURVE ( 'NONE', #288, #112, #306, .T. ) ;
#339 = ORIENTED_EDGE ( 'NONE', *, *, #143, .T. ) ;
#340 = EDGE_CURVE ( 'NONE', #38, #305, #145, .T. ) ;
#341 = LINE ( 'NONE', #63, #239 ) ;
#342 = VERTEX_POINT ( 'NONE', #162 ) ;
#343 = COORDINATED_UNIVERSAL_TIME_OFFSET ( 5, 0, .BEHIND. ) ;
#344 = VERTEX_POINT ( 'NONE', #48 ) ;
#345 = MANIFOLD_SOLID_BREP ( 'Body-Move/Copy2[1]', #188 ) ;
#346 = CIRCLE ( 'NONE', #183, 0.1180999999999999966 ) ;
#347 = CARTESIAN_POINT ( 'NONE',  ( -1.043851414335219820E-46, 1.490343170380447200E-32, 4.268512490100411279E-18 ) ) ;
#348 = ORIENTED_EDGE ( 'NONE', *, *, #324, .F. ) ;
#349 = DIRECTION ( 'NONE',  ( -2.445468806185136597E-29, 3.491481338843145583E-15, 1.000000000000000000 ) ) ;
#350 = DIMENSIONAL_EXPONENTS ( 1.000000000000000000, 0.000000000000000000, 0.000000000000000000, 0.000000000000000000, 0.000000000000000000, 0.000000000000000000, 0.000000000000000000 ) ;
#351 = EDGE_CURVE ( 'NONE', #258, #344, #186, .T. ) ;
#352 = CC_DESIGN_PERSON_AND_ORGANIZATION_ASSIGNMENT ( #45, #311, ( #47 ) ) ;
#353 = AXIS2_PLACEMENT_3D ( 'NONE', #95, #223, #51 ) ;
#354 = PERSON_AND_ORGANIZATION ( #282, #81 ) ;
#355 = LOCAL_TIME ( 14, 11, 3.000000000000000000, #362 ) ;
#356 = ADVANCED_FACE ( 'NONE', ( #281 ), #242, .T. ) ;
#357 = DIRECTION ( 'NONE',  ( -2.445468806185136877E-29, 3.491481338843145188E-15, 1.000000000000000000 ) ) ;
#358 = CARTESIAN_POINT ( 'NONE',  ( -0.1170999999999999958, -6.040935471937655307E-15, -1.968500000000000139 ) ) ;
#359 = CALENDAR_DATE ( 2024, 28, 2 ) ;
#360 = ADVANCED_FACE ( 'NONE', ( #225 ), #168, .T. ) ;
#361 = PLANE ( 'NONE',  #316 ) ;
#362 = COORDINATED_UNIVERSAL_TIME_OFFSET ( 5, 0, .BEHIND. ) ;
#363 = CONICAL_SURFACE ( 'NONE', #131, 0.1170999999999999958, 0.7853981633972775267 ) ;
#364 = CARTESIAN_POINT ( 'NONE',  ( 0.000000000000000000, 0.000000000000000000, 0.000000000000000000 ) ) ;
#365 = DIRECTION ( 'NONE',  ( -2.445468806185136597E-29, 3.491481338843145583E-15, 1.000000000000000000 ) ) ;
#366 = CARTESIAN_POINT ( 'NONE',  ( -0.09809999999999979847, 7.199434520694523292E-16, 4.268512490095498617E-18 ) ) ;
ENDSEC;
END-ISO-10303-21;
