ISO-10303-21;
HEADER;
FILE_DESCRIPTION (( 'STEP AP203' ),
    '1' );
FILE_NAME ('49423.STEP',
    '2024-02-28T20:14:05',
    ( '' ),
    ( '' ),
    'SwSTEP 2.0',
    'SolidWorks 2023',
    '' );
FILE_SCHEMA (( 'CONFIG_CONTROL_DESIGN' ));
ENDSEC;

DATA;
#1 = CC_DESIGN_PERSON_AND_ORGANIZATION_ASSIGNMENT ( #125, #268, ( #86 ) ) ;
#2 = AXIS2_PLACEMENT_3D ( 'NONE', #60, #172, #29 ) ;
#3 = CARTESIAN_POINT ( 'NONE',  ( 2.059624841783561302E-15, 0.2949499999999996014, -1.027678164646734185E-15 ) ) ;
#4 = LOCAL_TIME ( 15, 14, 5.000000000000000000, #333 ) ;
#5 = APPROVAL_STATUS ( 'not_yet_approved' ) ;
#6 = LOCAL_TIME ( 15, 14, 5.000000000000000000, #48 ) ;
#7 = ORIENTED_EDGE ( 'NONE', *, *, #242, .F. ) ;
#8 = CC_DESIGN_PERSON_AND_ORGANIZATION_ASSIGNMENT ( #238, #131, ( #142 ) ) ;
#9 = ORIENTED_EDGE ( 'NONE', *, *, #365, .T. ) ;
#10 = APPROVAL_STATUS ( 'not_yet_approved' ) ;
#11 = ORIENTED_EDGE ( 'NONE', *, *, #14, .T. ) ;
#12 = ORIENTED_EDGE ( 'NONE', *, *, #170, .F. ) ;
#13 = AXIS2_PLACEMENT_3D ( 'NONE', #230, #129, #197 ) ;
#14 = EDGE_CURVE ( 'NONE', #267, #63, #103, .T. ) ;
#15 = CYLINDRICAL_SURFACE ( 'NONE', #223, 0.3149499999999998967 ) ;
#16 = DIRECTION ( 'NONE',  ( -2.445468806185136597E-29, 3.491481338843145583E-15, 1.000000000000000000 ) ) ;
#17 = DIRECTION ( 'NONE',  ( -2.445468806185136597E-29, 3.491481338843145583E-15, 1.000000000000000000 ) ) ;
#18 = DATE_AND_TIME ( #28, #87 ) ;
#19 = DIRECTION ( 'NONE',  ( -1.000000000000000000, 6.982962677686265922E-15, -4.876176775795935793E-29 ) ) ;
#20 = DIRECTION ( 'NONE',  ( -2.445468806185136597E-29, 3.491481338843145583E-15, 1.000000000000000000 ) ) ;
#21 = CARTESIAN_POINT ( 'NONE',  ( 0.000000000000000000, 0.000000000000000000, 0.000000000000000000 ) ) ;
#22 = LINE ( 'NONE', #84, #200 ) ;
#23 = ADVANCED_FACE ( 'NONE', ( #133 ), #50, .T. ) ;
#24 = DIRECTION ( 'NONE',  ( -2.445468806185136597E-29, 3.491481338843145583E-15, 1.000000000000000000 ) ) ;
#25 = CARTESIAN_POINT ( 'NONE',  ( -0.3149499999999998967, 2.237854346276434801E-15, -1.549218606675782116E-29 ) ) ;
#26 = AXIS2_PLACEMENT_3D ( 'NONE', #153, #250, #231 ) ;
#27 = EDGE_CURVE ( 'NONE', #358, #67, #92, .T. ) ;
#28 = CALENDAR_DATE ( 2024, 28, 2 ) ;
#29 = DIRECTION ( 'NONE',  ( 1.000000000000000000, 0.000000000000000000, 0.000000000000000000 ) ) ;
#30 = AXIS2_PLACEMENT_3D ( 'NONE', #85, #24, #254 ) ;
#31 = EDGE_CURVE ( 'NONE', #354, #188, #226, .T. ) ;
#32 = DIRECTION ( 'NONE',  ( -2.445468806185136597E-29, 3.491481338843145583E-15, 1.000000000000000000 ) ) ;
#33 = DIRECTION ( 'NONE',  ( -2.445468806185136597E-29, 3.491481338843145583E-15, 1.000000000000000000 ) ) ;
#34 = ORIENTED_EDGE ( 'NONE', *, *, #281, .F. ) ;
#35 = PERSON_AND_ORGANIZATION_ROLE ( 'design_supplier' ) ;
#36 = EDGE_LOOP ( 'NONE', ( #42, #88, #184, #356 ) ) ;
#37 = CARTESIAN_POINT ( 'NONE',  ( 1.444171603492632270E-28, -2.061894304653819197E-14, -5.905499999999999972 ) ) ;
#38 = CARTESIAN_POINT ( 'NONE',  ( 7.220735744022853640E-29, -1.030929694920215659E-14, -2.952700000000000546 ) ) ;
#39 = DATE_AND_TIME ( #64, #119 ) ;
#40 = EDGE_LOOP ( 'NONE', ( #269, #206, #7, #239 ) ) ;
#41 = CARTESIAN_POINT ( 'NONE',  ( 4.890937612370290675E-31, -6.982962677686316261E-17, -0.02000000000000007327 ) ) ;
#42 = ORIENTED_EDGE ( 'NONE', *, *, #14, .F. ) ;
#43 = PRODUCT_DEFINITION_FORMATION_WITH_SPECIFIED_SOURCE ( 'ANY', '', #321, .NOT_KNOWN. ) ;
#44 = FACE_OUTER_BOUND ( 'NONE', #329, .T. ) ;
#45 = CALENDAR_DATE ( 2024, 28, 2 ) ;
#46 = DIRECTION ( 'NONE',  ( 1.000000000000000000, -6.982962677686263555E-15, 0.000000000000000000 ) ) ;
#47 = DIRECTION ( 'NONE',  ( 2.445468806185136597E-29, -3.491481338843145583E-15, -1.000000000000000000 ) ) ;
#48 = COORDINATED_UNIVERSAL_TIME_OFFSET ( 5, 0, .BEHIND. ) ;
#49 = CARTESIAN_POINT ( 'NONE',  ( -0.3149499999999996747, 2.129454468560424206E-15, -0.02000000000000007327 ) ) ;
#50 = PLANE ( 'NONE',  #144 ) ;
#51 = CARTESIAN_POINT ( 'NONE',  ( -0.3149500000000000077, -2.949963201043651274E-15, -2.951700000000000212 ) ) ;
#52 = DIRECTION ( 'NONE',  ( -2.445468806185136597E-29, 3.491481338843145583E-15, 1.000000000000000000 ) ) ;
#53 = DIRECTION ( 'NONE',  ( 1.000000000000000000, -6.982962677686265133E-15, 0.000000000000000000 ) ) ;
#54 = SHAPE_DEFINITION_REPRESENTATION ( #327, #113 ) ;
#55 =( GEOMETRIC_REPRESENTATION_CONTEXT ( 3 ) GLOBAL_UNCERTAINTY_ASSIGNED_CONTEXT ( ( #108 ) ) GLOBAL_UNIT_ASSIGNED_CONTEXT ( ( #143, #225, #205 ) ) REPRESENTATION_CONTEXT ( 'NONE', 'WORKASPACE' ) );
#56 = CARTESIAN_POINT ( 'NONE',  ( 0.3149499999999996747, -2.230543471175005083E-15, -0.02000000000000007327 ) ) ;
#57 = DIRECTION ( 'NONE',  ( -1.000000000000000000, 6.982962677686266711E-15, 0.000000000000000000 ) ) ;
#58 = CONICAL_SURFACE ( 'NONE', #120, 0.3139500000000000624, 0.7853981633972434429 ) ;
#59 = CIRCLE ( 'NONE', #13, 0.3149500000000000077 ) ;
#60 = CARTESIAN_POINT ( 'NONE',  ( 0.000000000000000000, 0.000000000000000000, 0.000000000000000000 ) ) ;
#61 = EDGE_LOOP ( 'NONE', ( #90, #265, #334, #154 ) ) ;
#62 = EDGE_CURVE ( 'NONE', #298, #63, #292, .T. ) ;
#63 = VERTEX_POINT ( 'NONE', #49 ) ;
#64 = CALENDAR_DATE ( 2024, 28, 2 ) ;
#65 = ORIENTED_EDGE ( 'NONE', *, *, #331, .T. ) ;
#66 = APPROVAL_DATE_TIME ( #39, #318 ) ;
#67 = VERTEX_POINT ( 'NONE', #134 ) ;
#68 = CARTESIAN_POINT ( 'NONE',  ( -0.3149499999999996747, 2.129454468560424206E-15, -0.02000000000000007327 ) ) ;
#69 = SECURITY_CLASSIFICATION_LEVEL ( 'unclassified' ) ;
#70 = EDGE_LOOP ( 'NONE', ( #229, #241, #332, #350 ) ) ;
#71 = DIRECTION ( 'NONE',  ( 1.000000000000000000, -6.982962677686266711E-15, 4.876176775795936353E-29 ) ) ;
#72 = DIRECTION ( 'NONE',  ( -0.7071067811865472397, 2.468850131082253905E-15, -0.7071067811865477948 ) ) ;
#73 = APPROVAL_PERSON_ORGANIZATION ( #156, #318, #352 ) ;
#74 = AXIS2_PLACEMENT_3D ( 'NONE', #37, #99, #222 ) ;
#75 = CARTESIAN_POINT ( 'NONE',  ( -1.043851414335219820E-46, 1.490343170380447200E-32, 4.268512490100411279E-18 ) ) ;
#76 = FACE_OUTER_BOUND ( 'NONE', #40, .T. ) ;
#77 = PERSON_AND_ORGANIZATION ( #178, #366 ) ;
#78 = CARTESIAN_POINT ( 'NONE',  ( 0.3149500000000000077, -1.250508956320060346E-14, -2.951700000000000212 ) ) ;
#79 = APPROVAL ( #5, 'UNSPECIFIED' ) ;
#80 = FACE_OUTER_BOUND ( 'NONE', #70, .T. ) ;
#81 = LINE ( 'NONE', #136, #203 ) ;
#82 = AXIS2_PLACEMENT_3D ( 'NONE', #240, #137, #57 ) ;
#83 = APPROVAL_DATE_TIME ( #138, #175 ) ;
#84 = CARTESIAN_POINT ( 'NONE',  ( -0.3149500000000000077, 2.237854346276435590E-15, -1.549218606675782676E-29 ) ) ;
#85 = CARTESIAN_POINT ( 'NONE',  ( 7.220735744022852519E-29, -1.030929694920215502E-14, -2.952700000000000102 ) ) ;
#86 = SECURITY_CLASSIFICATION ( '', '', #69 ) ;
#87 = LOCAL_TIME ( 15, 14, 5.000000000000000000, #289 ) ;
#88 = ORIENTED_EDGE ( 'NONE', *, *, #336, .T. ) ;
#89 = DATE_TIME_ROLE ( 'classification_date' ) ;
#90 = ORIENTED_EDGE ( 'NONE', *, *, #209, .F. ) ;
#91 = VERTEX_POINT ( 'NONE', #345 ) ;
#92 = CIRCLE ( 'NONE', #180, 0.3149500000000000077 ) ;
#93 = CIRCLE ( 'NONE', #232, 0.3149500000000000077 ) ;
#94 = EDGE_LOOP ( 'NONE', ( #149, #11, #245, #12 ) ) ;
#95 = CYLINDRICAL_SURFACE ( 'NONE', #157, 0.3149499999999998967 ) ;
#96 = ADVANCED_FACE ( 'NONE', ( #167 ), #164, .T. ) ;
#97 = EDGE_LOOP ( 'NONE', ( #306, #233 ) ) ;
#98 = CARTESIAN_POINT ( 'NONE',  ( 0.000000000000000000, 0.000000000000000000, 0.000000000000000000 ) ) ;
#99 = DIRECTION ( 'NONE',  ( -2.445468806185136597E-29, 3.491481338843145583E-15, 1.000000000000000000 ) ) ;
#100 = CARTESIAN_POINT ( 'NONE',  ( 7.220735744022852519E-29, -1.030929694920215502E-14, -2.952700000000000102 ) ) ;
#101 = CARTESIAN_POINT ( 'NONE',  ( 0.3149499999999996747, -2.230543471175005083E-15, -0.02000000000000007327 ) ) ;
#102 = DIRECTION ( 'NONE',  ( 1.000000000000000000, -6.982962677686265133E-15, 0.000000000000000000 ) ) ;
#103 = LINE ( 'NONE', #25, #150 ) ;
#104 = ADVANCED_FACE ( 'NONE', ( #196 ), #284, .F. ) ;
#105 = CC_DESIGN_APPROVAL ( #175, ( #86 ) ) ;
#106 = DIRECTION ( 'NONE',  ( 1.000000000000000000, -6.982962677686266711E-15, 4.876053491004741073E-29 ) ) ;
#107 = DIRECTION ( 'NONE',  ( -2.445468806185136877E-29, 3.491481338843145188E-15, 1.000000000000000000 ) ) ;
#108 = UNCERTAINTY_MEASURE_WITH_UNIT (LENGTH_MEASURE( 1.000000000000000082E-05 ), #143, 'distance_accuracy_value', 'NONE');
#109 = EDGE_CURVE ( 'NONE', #188, #358, #81, .T. ) ;
#110 = PLANE ( 'NONE',  #111 ) ;
#111 = AXIS2_PLACEMENT_3D ( 'NONE', #3, #162, #19 ) ;
#112 = CARTESIAN_POINT ( 'NONE',  ( 7.220735744022853640E-29, -1.030929694920215659E-14, -2.952700000000000546 ) ) ;
#113 = ADVANCED_BREP_SHAPE_REPRESENTATION ( '49423', ( #199, #340, #2 ), #55 ) ;
#114 = AXIS2_PLACEMENT_3D ( 'NONE', #161, #253, #283 ) ;
#115 = MECHANICAL_CONTEXT ( 'NONE', #313, 'mechanical' ) ;
#116 = EDGE_CURVE ( 'NONE', #354, #67, #22, .T. ) ;
#117 = DIRECTION ( 'NONE',  ( 1.000000000000000000, -6.982962677686265133E-15, 0.000000000000000000 ) ) ;
#118 = EDGE_LOOP ( 'NONE', ( #177, #9, #215, #237 ) ) ;
#119 = LOCAL_TIME ( 15, 14, 5.000000000000000000, #212 ) ;
#120 = AXIS2_PLACEMENT_3D ( 'NONE', #317, #52, #165 ) ;
#121 = CC_DESIGN_APPROVAL ( #318, ( #43 ) ) ;
#122 = ORIENTED_EDGE ( 'NONE', *, *, #301, .F. ) ;
#123 = VERTEX_POINT ( 'NONE', #343 ) ;
#124 = DIRECTION ( 'NONE',  ( -2.445468806185136597E-29, 3.491481338843145583E-15, 1.000000000000000000 ) ) ;
#125 = PERSON_AND_ORGANIZATION ( #178, #366 ) ;
#126 = APPROVAL_PERSON_ORGANIZATION ( #227, #79, #235 ) ;
#127 = EDGE_LOOP ( 'NONE', ( #208, #122, #152, #224 ) ) ;
#128 = CALENDAR_DATE ( 2024, 28, 2 ) ;
#129 = DIRECTION ( 'NONE',  ( -2.445468806185136597E-29, 3.491481338843145583E-15, 1.000000000000000000 ) ) ;
#130 = PLANE ( 'NONE',  #26 ) ;
#131 = PERSON_AND_ORGANIZATION_ROLE ( 'creator' ) ;
#132 = ADVANCED_FACE ( 'NONE', ( #198 ), #58, .T. ) ;
#133 = FACE_OUTER_BOUND ( 'NONE', #97, .T. ) ;
#134 = CARTESIAN_POINT ( 'NONE',  ( -0.3149500000000000077, -1.322626565159373987E-14, -2.952700000000000102 ) ) ;
#135 = CARTESIAN_POINT ( 'NONE',  ( 0.3149500000000000077, -1.250858104453944331E-14, -2.952700000000000102 ) ) ;
#136 = CARTESIAN_POINT ( 'NONE',  ( 0.3149500000000000077, -2.199284095337289871E-15, 1.535751875536930130E-29 ) ) ;
#137 = DIRECTION ( 'NONE',  ( 2.445468806185136597E-29, -3.491481338843145583E-15, -1.000000000000000000 ) ) ;
#138 = DATE_AND_TIME ( #256, #6 ) ;
#139 = FACE_OUTER_BOUND ( 'NONE', #271, .T. ) ;
#140 = APPROVAL_ROLE ( '' ) ;
#141 = AXIS2_PLACEMENT_3D ( 'NONE', #363, #255, #251 ) ;
#142 = PRODUCT_DEFINITION ( 'UNKNOWN', '', #43, #176 ) ;
#143 =( CONVERSION_BASED_UNIT ( 'INCH', #291 ) LENGTH_UNIT ( ) NAMED_UNIT ( #305 ) );
#144 = AXIS2_PLACEMENT_3D ( 'NONE', #191, #194, #312 ) ;
#145 = AXIS2_PLACEMENT_3D ( 'NONE', #112, #285, #53 ) ;
#146 = ADVANCED_FACE ( 'NONE', ( #139 ), #110, .F. ) ;
#147 = LINE ( 'NONE', #68, #337 ) ;
#148 = PERSON_AND_ORGANIZATION ( #178, #366 ) ;
#149 = ORIENTED_EDGE ( 'NONE', *, *, #242, .T. ) ;
#150 = VECTOR ( 'NONE', #221, 39.37007874015748143 ) ;
#151 = ORIENTED_EDGE ( 'NONE', *, *, #27, .F. ) ;
#152 = ORIENTED_EDGE ( 'NONE', *, *, #236, .T. ) ;
#153 = CARTESIAN_POINT ( 'NONE',  ( 2.199284095337361657E-15, 0.3149499999999896827, -2.952700000000000990 ) ) ;
#154 = ORIENTED_EDGE ( 'NONE', *, *, #336, .F. ) ;
#155 = DIRECTION ( 'NONE',  ( -2.445468806185136597E-29, 3.491481338843145583E-15, 1.000000000000000000 ) ) ;
#156 = PERSON_AND_ORGANIZATION ( #178, #366 ) ;
#157 = AXIS2_PLACEMENT_3D ( 'NONE', #186, #310, #193 ) ;
#158 = EDGE_LOOP ( 'NONE', ( #65, #328, #151, #325 ) ) ;
#159 = DIRECTION ( 'NONE',  ( -2.445468806185136877E-29, 3.491481338843145188E-15, 1.000000000000000000 ) ) ;
#160 = DATE_TIME_ROLE ( 'creation_date' ) ;
#161 = CARTESIAN_POINT ( 'NONE',  ( 0.000000000000000000, 0.000000000000000000, 0.000000000000000000 ) ) ;
#162 = DIRECTION ( 'NONE',  ( 2.438088387897960049E-29, -3.491481338843145188E-15, -1.000000000000000000 ) ) ;
#163 = CARTESIAN_POINT ( 'NONE',  ( 4.890937612370290675E-31, -6.982962677686316261E-17, -0.02000000000000007327 ) ) ;
#164 = CYLINDRICAL_SURFACE ( 'NONE', #114, 0.3149500000000000077 ) ;
#165 = DIRECTION ( 'NONE',  ( 1.000000000000000000, -6.982962677686265133E-15, 0.000000000000000000 ) ) ;
#166 = ADVANCED_FACE ( 'NONE', ( #76 ), #219, .T. ) ;
#167 = FACE_OUTER_BOUND ( 'NONE', #158, .T. ) ;
#168 = DIRECTION ( 'NONE',  ( 0.7071067811864026886, -2.468850131080739687E-15, 0.7071067811866923458 ) ) ;
#169 = APPROVAL_PERSON_ORGANIZATION ( #77, #175, #140 ) ;
#170 = EDGE_CURVE ( 'NONE', #296, #298, #341, .T. ) ;
#171 = PERSON_AND_ORGANIZATION_ROLE ( 'design_owner' ) ;
#172 = DIRECTION ( 'NONE',  ( 0.000000000000000000, 0.000000000000000000, 1.000000000000000000 ) ) ;
#173 = CIRCLE ( 'NONE', #316, 0.3149499999999996747 ) ;
#174 = CARTESIAN_POINT ( 'NONE',  ( 0.3149499999999998967, -2.199284095337288688E-15, 1.535751875536929289E-29 ) ) ;
#175 = APPROVAL ( #280, 'UNSPECIFIED' ) ;
#176 = DESIGN_CONTEXT ( 'detailed design', #276, 'design' ) ;
#177 = ORIENTED_EDGE ( 'NONE', *, *, #355, .F. ) ;
#178 = PERSON ( 'UNSPECIFIED', 'UNSPECIFIED', 'UNSPECIFIED', ('UNSPECIFIED'), ('UNSPECIFIED'), ('UNSPECIFIED') ) ;
#179 = VERTEX_POINT ( 'NONE', #214 ) ;
#180 = AXIS2_PLACEMENT_3D ( 'NONE', #100, #16, #46 ) ;
#181 = CC_DESIGN_PERSON_AND_ORGANIZATION_ASSIGNMENT ( #148, #171, ( #321 ) ) ;
#182 = ORIENTED_EDGE ( 'NONE', *, *, #202, .F. ) ;
#183 = DIRECTION ( 'NONE',  ( -2.445468806185136597E-29, 3.491481338843145583E-15, 1.000000000000000000 ) ) ;
#184 = ORIENTED_EDGE ( 'NONE', *, *, #170, .T. ) ;
#185 = CARTESIAN_POINT ( 'NONE',  ( 0.3139500000000000624, -1.250159808186176045E-14, -2.952700000000000546 ) ) ;
#186 = CARTESIAN_POINT ( 'NONE',  ( 0.000000000000000000, 0.000000000000000000, 0.000000000000000000 ) ) ;
#187 = DATE_AND_TIME ( #45, #4 ) ;
#188 = VERTEX_POINT ( 'NONE', #278 ) ;
#189 = ADVANCED_FACE ( 'NONE', ( #44 ), #130, .F. ) ;
#190 = AXIS2_PLACEMENT_3D ( 'NONE', #314, #47, #252 ) ;
#191 = CARTESIAN_POINT ( 'NONE',  ( 2.199284095337433838E-15, 0.3149499999999793576, -5.905500000000000860 ) ) ;
#192 = DIRECTION ( 'NONE',  ( 1.000000000000000000, -6.982962677686266711E-15, 4.876053491004741073E-29 ) ) ;
#193 = DIRECTION ( 'NONE',  ( 1.000000000000000000, -6.982962677686265922E-15, 4.876176775795935232E-29 ) ) ;
#194 = DIRECTION ( 'NONE',  ( 2.438088387897960049E-29, -3.491481338843145188E-15, -1.000000000000000000 ) ) ;
#195 = CYLINDRICAL_SURFACE ( 'NONE', #259, 0.3149500000000000077 ) ;
#196 = FACE_OUTER_BOUND ( 'NONE', #249, .T. ) ;
#197 = DIRECTION ( 'NONE',  ( 1.000000000000000000, -6.982962677686263555E-15, 0.000000000000000000 ) ) ;
#198 = FACE_OUTER_BOUND ( 'NONE', #61, .T. ) ;
#199 = MANIFOLD_SOLID_BREP ( 'Body-Move/Copy2[1]', #261 ) ;
#200 = VECTOR ( 'NONE', #361, 39.37007874015748143 ) ;
#201 = CC_DESIGN_PERSON_AND_ORGANIZATION_ASSIGNMENT ( #270, #35, ( #43 ) ) ;
#202 = EDGE_CURVE ( 'NONE', #213, #123, #273, .T. ) ;
#203 = VECTOR ( 'NONE', #107, 39.37007874015748143 ) ;
#204 = AXIS2_PLACEMENT_3D ( 'NONE', #75, #342, #192 ) ;
#205 =( NAMED_UNIT ( * ) SI_UNIT ( $, .STERADIAN. ) SOLID_ANGLE_UNIT ( ) );
#206 = ORIENTED_EDGE ( 'NONE', *, *, #209, .T. ) ;
#207 = LINE ( 'NONE', #185, #335 ) ;
#208 = ORIENTED_EDGE ( 'NONE', *, *, #365, .F. ) ;
#209 = EDGE_CURVE ( 'NONE', #123, #267, #357, .T. ) ;
#210 = PRODUCT_RELATED_PRODUCT_CATEGORY ( 'detail', '', ( #321 ) ) ;
#211 = CIRCLE ( 'NONE', #204, 0.2949499999999996014 ) ;
#212 = COORDINATED_UNIVERSAL_TIME_OFFSET ( 5, 0, .BEHIND. ) ;
#213 = VERTEX_POINT ( 'NONE', #347 ) ;
#214 = CARTESIAN_POINT ( 'NONE',  ( -0.2949499999999996014, 2.094539655171992951E-15, 4.268512490085885145E-18 ) ) ;
#215 = ORIENTED_EDGE ( 'NONE', *, *, #62, .T. ) ;
#216 = FACE_OUTER_BOUND ( 'NONE', #118, .T. ) ;
#217 = DIRECTION ( 'NONE',  ( -2.445468806185136597E-29, 3.491481338843145583E-15, 1.000000000000000000 ) ) ;
#218 = DIRECTION ( 'NONE',  ( -0.7071067811864026886, 7.493145998869830357E-15, 0.7071067811866923458 ) ) ;
#219 = CONICAL_SURFACE ( 'NONE', #258, 0.3139500000000000624, 0.7853981633972434429 ) ;
#220 = DIRECTION ( 'NONE',  ( -2.445468806185136597E-29, 3.491481338843145583E-15, 1.000000000000000000 ) ) ;
#221 = DIRECTION ( 'NONE',  ( -2.445468806185136877E-29, 3.491481338843145188E-15, 1.000000000000000000 ) ) ;
#222 = DIRECTION ( 'NONE',  ( 1.000000000000000000, -6.982962677686263555E-15, 0.000000000000000000 ) ) ;
#223 = AXIS2_PLACEMENT_3D ( 'NONE', #98, #183, #294 ) ;
#224 = ORIENTED_EDGE ( 'NONE', *, *, #262, .T. ) ;
#225 =( NAMED_UNIT ( * ) PLANE_ANGLE_UNIT ( ) SI_UNIT ( $, .RADIAN. ) );
#226 = CIRCLE ( 'NONE', #362, 0.3149500000000000077 ) ;
#227 = PERSON_AND_ORGANIZATION ( #178, #366 ) ;
#228 = ADVANCED_FACE ( 'NONE', ( #339 ), #15, .T. ) ;
#229 = ORIENTED_EDGE ( 'NONE', *, *, #116, .F. ) ;
#230 = CARTESIAN_POINT ( 'NONE',  ( 7.218290275216666916E-29, -1.030580546786331359E-14, -2.951700000000000212 ) ) ;
#231 = DIRECTION ( 'NONE',  ( -1.000000000000000000, 6.982962677686265922E-15, -4.876176775795935793E-29 ) ) ;
#232 = AXIS2_PLACEMENT_3D ( 'NONE', #299, #124, #244 ) ;
#233 = ORIENTED_EDGE ( 'NONE', *, *, #31, .F. ) ;
#234 = VECTOR ( 'NONE', #218, 39.37007874015748143 ) ;
#235 = APPROVAL_ROLE ( '' ) ;
#236 = EDGE_CURVE ( 'NONE', #179, #63, #147, .T. ) ;
#237 = ORIENTED_EDGE ( 'NONE', *, *, #236, .F. ) ;
#238 = PERSON_AND_ORGANIZATION ( #178, #366 ) ;
#239 = ORIENTED_EDGE ( 'NONE', *, *, #359, .F. ) ;
#240 = CARTESIAN_POINT ( 'NONE',  ( 4.890937612370290675E-31, -6.982962677686316261E-17, -0.02000000000000007327 ) ) ;
#241 = ORIENTED_EDGE ( 'NONE', *, *, #31, .T. ) ;
#242 = EDGE_CURVE ( 'NONE', #296, #267, #93, .T. ) ;
#243 = CIRCLE ( 'NONE', #74, 0.3149500000000000077 ) ;
#244 = DIRECTION ( 'NONE',  ( 1.000000000000000000, -6.982962677686263555E-15, 0.000000000000000000 ) ) ;
#245 = ORIENTED_EDGE ( 'NONE', *, *, #62, .F. ) ;
#246 = FACE_OUTER_BOUND ( 'NONE', #36, .T. ) ;
#247 = DATE_AND_TIME ( #128, #344 ) ;
#248 = CC_DESIGN_DATE_AND_TIME_ASSIGNMENT ( #247, #89, ( #86 ) ) ;
#249 = EDGE_LOOP ( 'NONE', ( #182, #34 ) ) ;
#250 = DIRECTION ( 'NONE',  ( 2.438088387897960049E-29, -3.491481338843145188E-15, -1.000000000000000000 ) ) ;
#251 = DIRECTION ( 'NONE',  ( 1.000000000000000000, -6.982962677686265922E-15, 4.876176775795935793E-29 ) ) ;
#252 = DIRECTION ( 'NONE',  ( -1.000000000000000000, 6.982962677686266711E-15, 0.000000000000000000 ) ) ;
#253 = DIRECTION ( 'NONE',  ( -2.445468806185136597E-29, 3.491481338843145583E-15, 1.000000000000000000 ) ) ;
#254 = DIRECTION ( 'NONE',  ( 1.000000000000000000, -6.982962677686263555E-15, 0.000000000000000000 ) ) ;
#255 = DIRECTION ( 'NONE',  ( -2.438088387897960049E-29, 3.491481338843145188E-15, 1.000000000000000000 ) ) ;
#256 = CALENDAR_DATE ( 2024, 28, 2 ) ;
#257 = ADVANCED_FACE ( 'NONE', ( #246 ), #95, .T. ) ;
#258 = AXIS2_PLACEMENT_3D ( 'NONE', #38, #17, #117 ) ;
#259 = AXIS2_PLACEMENT_3D ( 'NONE', #21, #220, #71 ) ;
#260 = LINE ( 'NONE', #56, #266 ) ;
#261 = CLOSED_SHELL ( 'NONE', ( #96, #23, #189, #290 ) ) ;
#262 = EDGE_CURVE ( 'NONE', #63, #298, #173, .T. ) ;
#263 = APPLICATION_PROTOCOL_DEFINITION ( 'international standard', 'config_control_design', 1994, #276 ) ;
#264 = ADVANCED_FACE ( 'NONE', ( #216 ), #293, .T. ) ;
#265 = ORIENTED_EDGE ( 'NONE', *, *, #281, .T. ) ;
#266 = VECTOR ( 'NONE', #348, 39.37007874015748143 ) ;
#267 = VERTEX_POINT ( 'NONE', #51 ) ;
#268 = PERSON_AND_ORGANIZATION_ROLE ( 'classification_officer' ) ;
#269 = ORIENTED_EDGE ( 'NONE', *, *, #202, .T. ) ;
#270 = PERSON_AND_ORGANIZATION ( #178, #366 ) ;
#271 = EDGE_LOOP ( 'NONE', ( #353, #277 ) ) ;
#272 = EDGE_CURVE ( 'NONE', #67, #358, #338, .T. ) ;
#273 = CIRCLE ( 'NONE', #324, 0.3139500000000000624 ) ;
#274 = CIRCLE ( 'NONE', #309, 0.2949499999999996014 ) ;
#275 = DIRECTION ( 'NONE',  ( 1.000000000000000000, -6.982962677686266711E-15, 0.000000000000000000 ) ) ;
#276 = APPLICATION_CONTEXT ( 'configuration controlled 3d designs of mechanical parts and assemblies' ) ;
#277 = ORIENTED_EDGE ( 'NONE', *, *, #355, .T. ) ;
#278 = CARTESIAN_POINT ( 'NONE',  ( 0.3149500000000000077, -2.281822714187548341E-14, -5.905499999999999972 ) ) ;
#279 = CARTESIAN_POINT ( 'NONE',  ( 7.220735744022853640E-29, -1.030929694920215659E-14, -2.952700000000000546 ) ) ;
#280 = APPROVAL_STATUS ( 'not_yet_approved' ) ;
#281 = EDGE_CURVE ( 'NONE', #123, #213, #286, .T. ) ;
#282 = CC_DESIGN_PERSON_AND_ORGANIZATION_ASSIGNMENT ( #297, #300, ( #43 ) ) ;
#283 = DIRECTION ( 'NONE',  ( 1.000000000000000000, -6.982962677686266711E-15, 4.876176775795936353E-29 ) ) ;
#284 = PLANE ( 'NONE',  #141 ) ;
#285 = DIRECTION ( 'NONE',  ( -2.445468806185136597E-29, 3.491481338843145583E-15, 1.000000000000000000 ) ) ;
#286 = CIRCLE ( 'NONE', #145, 0.3139500000000000624 ) ;
#287 = CARTESIAN_POINT ( 'NONE',  ( -1.043851414335219820E-46, 1.490343170380447200E-32, 4.268512490100411279E-18 ) ) ;
#288 = CC_DESIGN_APPROVAL ( #79, ( #142 ) ) ;
#289 = COORDINATED_UNIVERSAL_TIME_OFFSET ( 5, 0, .BEHIND. ) ;
#290 = ADVANCED_FACE ( 'NONE', ( #80 ), #195, .T. ) ;
#291 = LENGTH_MEASURE_WITH_UNIT ( LENGTH_MEASURE( 0.02539999999999999897 ), #323 );
#292 = CIRCLE ( 'NONE', #349, 0.3149499999999996747 ) ;
#293 = CONICAL_SURFACE ( 'NONE', #190, 0.3149499999999996747, 0.7853981633974479459 ) ;
#294 = DIRECTION ( 'NONE',  ( 1.000000000000000000, -6.982962677686265922E-15, 4.876176775795935232E-29 ) ) ;
#295 = ORIENTED_EDGE ( 'NONE', *, *, #272, .T. ) ;
#296 = VERTEX_POINT ( 'NONE', #78 ) ;
#297 = PERSON_AND_ORGANIZATION ( #178, #366 ) ;
#298 = VERTEX_POINT ( 'NONE', #101 ) ;
#299 = CARTESIAN_POINT ( 'NONE',  ( 7.218290275216666916E-29, -1.030580546786331359E-14, -2.951700000000000212 ) ) ;
#300 = PERSON_AND_ORGANIZATION_ROLE ( 'creator' ) ;
#301 = EDGE_CURVE ( 'NONE', #179, #91, #211, .T. ) ;
#302 = ORIENTED_EDGE ( 'NONE', *, *, #27, .T. ) ;
#303 = CARTESIAN_POINT ( 'NONE',  ( -0.3139500000000000624, -8.078548030283322406E-15, -2.952700000000000546 ) ) ;
#304 = COORDINATED_UNIVERSAL_TIME_OFFSET ( 5, 0, .BEHIND. ) ;
#305 = DIMENSIONAL_EXPONENTS ( 1.000000000000000000, 0.000000000000000000, 0.000000000000000000, 0.000000000000000000, 0.000000000000000000, 0.000000000000000000, 0.000000000000000000 ) ;
#306 = ORIENTED_EDGE ( 'NONE', *, *, #331, .F. ) ;
#307 = CONICAL_SURFACE ( 'NONE', #82, 0.3149499999999996747, 0.7853981633974479459 ) ;
#308 = CLOSED_SHELL ( 'NONE', ( #166, #228, #264, #346, #257, #132, #104, #146 ) ) ;
#309 = AXIS2_PLACEMENT_3D ( 'NONE', #287, #32, #106 ) ;
#310 = DIRECTION ( 'NONE',  ( -2.445468806185136597E-29, 3.491481338843145583E-15, 1.000000000000000000 ) ) ;
#311 = APPROVAL_DATE_TIME ( #18, #79 ) ;
#312 = DIRECTION ( 'NONE',  ( -1.000000000000000000, 6.982962677686265922E-15, -4.876176775795935793E-29 ) ) ;
#313 = APPLICATION_CONTEXT ( 'configuration controlled 3d designs of mechanical parts and assemblies' ) ;
#314 = CARTESIAN_POINT ( 'NONE',  ( 4.890937612370290675E-31, -6.982962677686316261E-17, -0.02000000000000007327 ) ) ;
#315 = DIRECTION ( 'NONE',  ( 1.000000000000000000, -6.982962677686266711E-15, 0.000000000000000000 ) ) ;
#316 = AXIS2_PLACEMENT_3D ( 'NONE', #41, #155, #275 ) ;
#317 = CARTESIAN_POINT ( 'NONE',  ( 7.220735744022853640E-29, -1.030929694920215659E-14, -2.952700000000000546 ) ) ;
#318 = APPROVAL ( #10, 'UNSPECIFIED' ) ;
#319 = APPLICATION_PROTOCOL_DEFINITION ( 'international standard', 'config_control_design', 1994, #313 ) ;
#320 = CC_DESIGN_SECURITY_CLASSIFICATION ( #86, ( #43 ) ) ;
#321 = PRODUCT ( '49423', '49423', '', ( #115 ) ) ;
#322 = CC_DESIGN_DATE_AND_TIME_ASSIGNMENT ( #187, #160, ( #142 ) ) ;
#323 =( LENGTH_UNIT ( ) NAMED_UNIT ( * ) SI_UNIT ( $, .METRE. ) );
#324 = AXIS2_PLACEMENT_3D ( 'NONE', #279, #33, #102 ) ;
#325 = ORIENTED_EDGE ( 'NONE', *, *, #109, .F. ) ;
#326 = CARTESIAN_POINT ( 'NONE',  ( -0.3149500000000000077, -1.322626565159373987E-14, -5.905499999999999972 ) ) ;
#327 = PRODUCT_DEFINITION_SHAPE ( 'NONE', 'NONE',  #142 ) ;
#328 = ORIENTED_EDGE ( 'NONE', *, *, #116, .T. ) ;
#329 = EDGE_LOOP ( 'NONE', ( #302, #295 ) ) ;
#330 = VECTOR ( 'NONE', #159, 39.37007874015748143 ) ;
#331 = EDGE_CURVE ( 'NONE', #188, #354, #243, .T. ) ;
#332 = ORIENTED_EDGE ( 'NONE', *, *, #109, .T. ) ;
#333 = COORDINATED_UNIVERSAL_TIME_OFFSET ( 5, 0, .BEHIND. ) ;
#334 = ORIENTED_EDGE ( 'NONE', *, *, #359, .T. ) ;
#335 = VECTOR ( 'NONE', #168, 39.37007874015748143 ) ;
#336 = EDGE_CURVE ( 'NONE', #267, #296, #59, .T. ) ;
#337 = VECTOR ( 'NONE', #72, 39.37007874015748143 ) ;
#338 = CIRCLE ( 'NONE', #30, 0.3149500000000000077 ) ;
#339 = FACE_OUTER_BOUND ( 'NONE', #94, .T. ) ;
#340 = MANIFOLD_SOLID_BREP ( 'Body-Move/Copy2[2]', #308 ) ;
#341 = LINE ( 'NONE', #174, #330 ) ;
#342 = DIRECTION ( 'NONE',  ( -2.445468806185136597E-29, 3.491481338843145583E-15, 1.000000000000000000 ) ) ;
#343 = CARTESIAN_POINT ( 'NONE',  ( -0.3139500000000000624, -8.073249575935100004E-15, -2.952700000000000546 ) ) ;
#344 = LOCAL_TIME ( 15, 14, 5.000000000000000000, #304 ) ;
#345 = CARTESIAN_POINT ( 'NONE',  ( 0.2949499999999996014, -2.127023677808857708E-15, 4.268512490115050658E-18 ) ) ;
#346 = ADVANCED_FACE ( 'NONE', ( #351 ), #307, .T. ) ;
#347 = CARTESIAN_POINT ( 'NONE',  ( 0.3139500000000000624, -1.250159808186176045E-14, -2.952700000000000546 ) ) ;
#348 = DIRECTION ( 'NONE',  ( 0.7071067811865472397, -7.319954787623254468E-15, -0.7071067811865477948 ) ) ;
#349 = AXIS2_PLACEMENT_3D ( 'NONE', #163, #217, #315 ) ;
#350 = ORIENTED_EDGE ( 'NONE', *, *, #272, .F. ) ;
#351 = FACE_OUTER_BOUND ( 'NONE', #127, .T. ) ;
#352 = APPROVAL_ROLE ( '' ) ;
#353 = ORIENTED_EDGE ( 'NONE', *, *, #301, .T. ) ;
#354 = VERTEX_POINT ( 'NONE', #326 ) ;
#355 = EDGE_CURVE ( 'NONE', #91, #179, #274, .T. ) ;
#356 = ORIENTED_EDGE ( 'NONE', *, *, #262, .F. ) ;
#357 = LINE ( 'NONE', #303, #234 ) ;
#358 = VERTEX_POINT ( 'NONE', #135 ) ;
#359 = EDGE_CURVE ( 'NONE', #213, #296, #207, .T. ) ;
#360 = DIRECTION ( 'NONE',  ( 1.000000000000000000, -6.982962677686263555E-15, 0.000000000000000000 ) ) ;
#361 = DIRECTION ( 'NONE',  ( -2.445468806185136877E-29, 3.491481338843145188E-15, 1.000000000000000000 ) ) ;
#362 = AXIS2_PLACEMENT_3D ( 'NONE', #364, #20, #360 ) ;
#363 = CARTESIAN_POINT ( 'NONE',  ( 7.220735744022853640E-29, -1.030929694920215659E-14, -2.952700000000000546 ) ) ;
#364 = CARTESIAN_POINT ( 'NONE',  ( 1.444171603492632270E-28, -2.061894304653819197E-14, -5.905499999999999972 ) ) ;
#365 = EDGE_CURVE ( 'NONE', #91, #298, #260, .T. ) ;
#366 = ORGANIZATION ( 'UNSPECIFIED', 'UNSPECIFIED', '' ) ;
ENDSEC;
END-ISO-10303-21;
