ISO-10303-21;
HEADER;
FILE_DESCRIPTION (( 'STEP AP203' ),
    '1' );
FILE_NAME ('49442.STEP',
    '2024-02-28T21:15:14',
    ( '' ),
    ( '' ),
    'SwSTEP 2.0',
    'SolidWorks 2023',
    '' );
FILE_SCHEMA (( 'CONFIG_CONTROL_DESIGN' ));
ENDSEC;

DATA;
#1 = CARTESIAN_POINT ( 'NONE',  ( 4.813905344975441835E-29, -6.872981015512731707E-15, -1.968500000000000139 ) ) ;
#2 = ORIENTED_EDGE ( 'NONE', *, *, #289, .T. ) ;
#3 = VERTEX_POINT ( 'NONE', #332 ) ;
#4 = AXIS2_PLACEMENT_3D ( 'NONE', #302, #72, #161 ) ;
#5 = ORIENTED_EDGE ( 'NONE', *, *, #54, .T. ) ;
#6 = ADVANCED_FACE ( 'NONE', ( #217 ), #160, .T. ) ;
#7 = ORIENTED_EDGE ( 'NONE', *, *, #310, .F. ) ;
#8 = APPROVAL_ROLE ( '' ) ;
#9 = CARTESIAN_POINT ( 'NONE',  ( -0.09809999999999979847, 7.199434520694523292E-16, 4.268512490095498617E-18 ) ) ;
#10 = COORDINATED_UNIVERSAL_TIME_OFFSET ( 5, 0, .BEHIND. ) ;
#11 = AXIS2_PLACEMENT_3D ( 'NONE', #349, #40, #191 ) ;
#12 = DIRECTION ( 'NONE',  ( -2.445468806185136597E-29, 3.491481338843145583E-15, 1.000000000000000000 ) ) ;
#13 = EDGE_CURVE ( 'NONE', #325, #295, #50, .T. ) ;
#14 = CARTESIAN_POINT ( 'NONE',  ( 4.813905344975441835E-29, -6.872981015512731707E-15, -1.968500000000000139 ) ) ;
#15 = PERSON_AND_ORGANIZATION ( #145, #309 ) ;
#16 = CARTESIAN_POINT ( 'NONE',  ( 0.000000000000000000, 0.000000000000000000, 0.000000000000000000 ) ) ;
#17 = AXIS2_PLACEMENT_3D ( 'NONE', #152, #235, #255 ) ;
#18 = PLANE ( 'NONE',  #11 ) ;
#19 = CARTESIAN_POINT ( 'NONE',  ( 4.813905344975441835E-29, -6.872981015512731707E-15, -1.968500000000000139 ) ) ;
#20 = EDGE_CURVE ( 'NONE', #325, #149, #269, .T. ) ;
#21 = DIRECTION ( 'NONE',  ( -2.445468806185136597E-29, 3.491481338843145583E-15, 1.000000000000000000 ) ) ;
#22 = PERSON_AND_ORGANIZATION_ROLE ( 'design_supplier' ) ;
#23 = DIRECTION ( 'NONE',  ( -2.445468806185136597E-29, 3.491481338843145583E-15, 1.000000000000000000 ) ) ;
#24 = CONICAL_SURFACE ( 'NONE', #30, 0.1170999999999999958, 0.7853981633972775267 ) ;
#25 = PRODUCT_DEFINITION ( 'UNKNOWN', '', #45, #82 ) ;
#26 = FACE_OUTER_BOUND ( 'NONE', #233, .T. ) ;
#27 = PLANE ( 'NONE',  #263 ) ;
#28 = ADVANCED_FACE ( 'NONE', ( #167 ), #71, .F. ) ;
#29 = EDGE_LOOP ( 'NONE', ( #237, #164, #5, #92 ) ) ;
#30 = AXIS2_PLACEMENT_3D ( 'NONE', #14, #219, #136 ) ;
#31 = LOCAL_TIME ( 16, 15, 14.00000000000000000, #169 ) ;
#32 = VERTEX_POINT ( 'NONE', #9 ) ;
#33 = VERTEX_POINT ( 'NONE', #140 ) ;
#34 = ORIENTED_EDGE ( 'NONE', *, *, #357, .F. ) ;
#35 = VECTOR ( 'NONE', #258, 39.37007874015748143 ) ;
#36 = EDGE_CURVE ( 'NONE', #33, #316, #119, .T. ) ;
#37 =( GEOMETRIC_REPRESENTATION_CONTEXT ( 3 ) GLOBAL_UNCERTAINTY_ASSIGNED_CONTEXT ( ( #338 ) ) GLOBAL_UNIT_ASSIGNED_CONTEXT ( ( #77, #43, #273 ) ) REPRESENTATION_CONTEXT ( 'NONE', 'WORKASPACE' ) );
#38 = ORIENTED_EDGE ( 'NONE', *, *, #13, .F. ) ;
#39 = CARTESIAN_POINT ( 'NONE',  ( -0.1180999999999997607, 7.548582654578833867E-16, -0.02000000000000002470 ) ) ;
#40 = DIRECTION ( 'NONE',  ( 2.438088387897960049E-29, -3.491481338843145188E-15, -1.000000000000000000 ) ) ;
#41 = DIRECTION ( 'NONE',  ( 1.000000000000000000, -6.982962677686266711E-15, 4.876176775795936353E-29 ) ) ;
#42 = EDGE_CURVE ( 'NONE', #215, #149, #174, .T. ) ;
#43 =( NAMED_UNIT ( * ) PLANE_ANGLE_UNIT ( ) SI_UNIT ( $, .RADIAN. ) );
#44 = CIRCLE ( 'NONE', #193, 0.1180999999999999966 ) ;
#45 = PRODUCT_DEFINITION_FORMATION_WITH_SPECIFIED_SOURCE ( 'ANY', '', #84, .NOT_KNOWN. ) ;
#46 = DIRECTION ( 'NONE',  ( 1.000000000000000000, -6.982962677686273021E-15, 0.000000000000000000 ) ) ;
#47 = CALENDAR_DATE ( 2024, 28, 2 ) ;
#48 = DIRECTION ( 'NONE',  ( 1.000000000000000000, -6.982962677686264344E-15, 0.000000000000000000 ) ) ;
#49 = DIRECTION ( 'NONE',  ( -2.445468806185136597E-29, 3.491481338843145583E-15, 1.000000000000000000 ) ) ;
#50 = CIRCLE ( 'NONE', #148, 0.1180999999999999966 ) ;
#51 = DIRECTION ( 'NONE',  ( -2.445468806185136597E-29, 3.491481338843145583E-15, 1.000000000000000000 ) ) ;
#52 = PERSON_AND_ORGANIZATION_ROLE ( 'creator' ) ;
#53 = CARTESIAN_POINT ( 'NONE',  ( 0.000000000000000000, 0.000000000000000000, 0.000000000000000000 ) ) ;
#54 = EDGE_CURVE ( 'NONE', #180, #365, #303, .T. ) ;
#55 = DATE_AND_TIME ( #361, #199 ) ;
#56 = AXIS2_PLACEMENT_3D ( 'NONE', #202, #339, #200 ) ;
#57 = CARTESIAN_POINT ( 'NONE',  ( -0.1180999999999999966, -7.752162585491706132E-15, -1.968499999999999694 ) ) ;
#58 = ADVANCED_FACE ( 'NONE', ( #354 ), #18, .T. ) ;
#59 = ORIENTED_EDGE ( 'NONE', *, *, #20, .F. ) ;
#60 = VECTOR ( 'NONE', #274, 39.37007874015748143 ) ;
#61 = CARTESIAN_POINT ( 'NONE',  ( -0.1180999999999999966, -7.752162585491706132E-15, -2.952799999999999869 ) ) ;
#62 = ORIENTED_EDGE ( 'NONE', *, *, #252, .T. ) ;
#63 = CARTESIAN_POINT ( 'NONE',  ( 4.890937612370279289E-31, -6.982962677686299005E-17, -0.02000000000000002470 ) ) ;
#64 = APPROVAL ( #139, 'UNSPECIFIED' ) ;
#65 = ORIENTED_EDGE ( 'NONE', *, *, #252, .F. ) ;
#66 = PERSON_AND_ORGANIZATION ( #145, #309 ) ;
#67 = CARTESIAN_POINT ( 'NONE',  ( -0.1180999999999998856, 8.391509709326775068E-16, -5.809262341591038179E-30 ) ) ;
#68 = APPLICATION_CONTEXT ( 'configuration controlled 3d designs of mechanical parts and assemblies' ) ;
#69 = ADVANCED_FACE ( 'NONE', ( #272 ), #24, .T. ) ;
#70 = CALENDAR_DATE ( 2024, 28, 2 ) ;
#71 = PLANE ( 'NONE',  #96 ) ;
#72 = DIRECTION ( 'NONE',  ( 0.000000000000000000, 0.000000000000000000, 1.000000000000000000 ) ) ;
#73 = DIMENSIONAL_EXPONENTS ( 1.000000000000000000, 0.000000000000000000, 0.000000000000000000, 0.000000000000000000, 0.000000000000000000, 0.000000000000000000, 0.000000000000000000 ) ;
#74 = DIRECTION ( 'NONE',  ( -2.445468806185136877E-29, 3.491481338843145188E-15, 1.000000000000000000 ) ) ;
#75 = AXIS2_PLACEMENT_3D ( 'NONE', #356, #118, #89 ) ;
#76 = DIRECTION ( 'NONE',  ( -2.445468806185136877E-29, 3.491481338843145188E-15, 1.000000000000000000 ) ) ;
#77 =( CONVERSION_BASED_UNIT ( 'INCH', #107 ) LENGTH_UNIT ( ) NAMED_UNIT ( #73 ) );
#78 = FACE_OUTER_BOUND ( 'NONE', #121, .T. ) ;
#79 = PRODUCT_RELATED_PRODUCT_CATEGORY ( 'detail', '', ( #84 ) ) ;
#80 = SECURITY_CLASSIFICATION_LEVEL ( 'unclassified' ) ;
#81 = PERSON_AND_ORGANIZATION_ROLE ( 'classification_officer' ) ;
#82 = DESIGN_CONTEXT ( 'detailed design', #68, 'design' ) ;
#83 = AXIS2_PLACEMENT_3D ( 'NONE', #159, #350, #226 ) ;
#84 = PRODUCT ( '49442', '49442', '', ( #245 ) ) ;
#85 = PERSON_AND_ORGANIZATION ( #145, #309 ) ;
#86 = CARTESIAN_POINT ( 'NONE',  ( 0.09809999999999979847, -7.765346469475324764E-16, 4.268512490105521927E-18 ) ) ;
#87 = DIRECTION ( 'NONE',  ( -2.445468806185136597E-29, 3.491481338843145583E-15, 1.000000000000000000 ) ) ;
#88 = APPROVAL_ROLE ( '' ) ;
#89 = DIRECTION ( 'NONE',  ( 1.000000000000000000, -6.982962677686266711E-15, 0.000000000000000000 ) ) ;
#90 = CIRCLE ( 'NONE', #141, 0.1170999999999999958 ) ;
#91 = VECTOR ( 'NONE', #348, 39.37007874015748143 ) ;
#92 = ORIENTED_EDGE ( 'NONE', *, *, #220, .F. ) ;
#93 = EDGE_CURVE ( 'NONE', #295, #325, #127, .T. ) ;
#94 = ORIENTED_EDGE ( 'NONE', *, *, #36, .F. ) ;
#95 = ORIENTED_EDGE ( 'NONE', *, *, #103, .T. ) ;
#96 = AXIS2_PLACEMENT_3D ( 'NONE', #196, #278, #110 ) ;
#97 = DIRECTION ( 'NONE',  ( -2.445468806185136597E-29, 3.491481338843145583E-15, 1.000000000000000000 ) ) ;
#98 = EDGE_CURVE ( 'NONE', #181, #32, #229, .T. ) ;
#99 = ORIENTED_EDGE ( 'NONE', *, *, #310, .T. ) ;
#100 = LINE ( 'NONE', #128, #341 ) ;
#101 = ORIENTED_EDGE ( 'NONE', *, *, #326, .T. ) ;
#102 = DIRECTION ( 'NONE',  ( -2.445468806185136597E-29, 3.491481338843145583E-15, 1.000000000000000000 ) ) ;
#103 = EDGE_CURVE ( 'NONE', #3, #239, #246, .T. ) ;
#104 = CONICAL_SURFACE ( 'NONE', #83, 0.1180999999999997607, 0.7853981633974465026 ) ;
#105 = APPROVAL_DATE_TIME ( #240, #333 ) ;
#106 = CARTESIAN_POINT ( 'NONE',  ( 4.813905344975441835E-29, -6.872981015512731707E-15, -1.968500000000000139 ) ) ;
#107 = LENGTH_MEASURE_WITH_UNIT ( LENGTH_MEASURE( 0.02539999999999999897 ), #329 );
#108 = CARTESIAN_POINT ( 'NONE',  ( 4.890937612370279289E-31, -6.982962677686299005E-17, -0.02000000000000002470 ) ) ;
#109 = DIRECTION ( 'NONE',  ( -0.7071067811865462405, 2.468850131082243256E-15, -0.7071067811865487940 ) ) ;
#110 = DIRECTION ( 'NONE',  ( -1.000000000000000000, 6.982962677686265922E-15, -4.876176775795935793E-29 ) ) ;
#111 = DIRECTION ( 'NONE',  ( -2.445468806185136597E-29, 3.491481338843145583E-15, 1.000000000000000000 ) ) ;
#112 = CC_DESIGN_PERSON_AND_ORGANIZATION_ASSIGNMENT ( #66, #186, ( #84 ) ) ;
#113 = CARTESIAN_POINT ( 'NONE',  ( 4.813905344975440714E-29, -6.872981015512730918E-15, -1.968499999999999694 ) ) ;
#114 = ADVANCED_FACE ( 'NONE', ( #298 ), #276, .T. ) ;
#115 = SHAPE_DEFINITION_REPRESENTATION ( #366, #260 ) ;
#116 = AXIS2_PLACEMENT_3D ( 'NONE', #108, #227, #335 ) ;
#117 = DIRECTION ( 'NONE',  ( 1.000000000000000000, -6.982962677686264344E-15, 0.000000000000000000 ) ) ;
#118 = DIRECTION ( 'NONE',  ( -2.445468806185136597E-29, 3.491481338843145583E-15, 1.000000000000000000 ) ) ;
#119 = CIRCLE ( 'NONE', #177, 0.1170999999999999958 ) ;
#120 = APPROVAL_PERSON_ORGANIZATION ( #275, #64, #297 ) ;
#121 = EDGE_LOOP ( 'NONE', ( #65, #176, #322, #153 ) ) ;
#122 = DIRECTION ( 'NONE',  ( 1.000000000000000000, -6.982962677686264344E-15, 0.000000000000000000 ) ) ;
#123 = EDGE_LOOP ( 'NONE', ( #154, #261 ) ) ;
#124 = EDGE_CURVE ( 'NONE', #365, #239, #242, .T. ) ;
#125 = CARTESIAN_POINT ( 'NONE',  ( -0.1170999999999999958, -6.035637017589432116E-15, -1.968500000000000139 ) ) ;
#126 = ORIENTED_EDGE ( 'NONE', *, *, #98, .F. ) ;
#127 = CIRCLE ( 'NONE', #314, 0.1180999999999999966 ) ;
#128 = CARTESIAN_POINT ( 'NONE',  ( -0.1170999999999999958, -6.040935471937655307E-15, -1.968500000000000139 ) ) ;
#129 = ORIENTED_EDGE ( 'NONE', *, *, #362, .T. ) ;
#130 = ORIENTED_EDGE ( 'NONE', *, *, #270, .F. ) ;
#131 = LINE ( 'NONE', #238, #91 ) ;
#132 = DIRECTION ( 'NONE',  ( 1.000000000000000000, -6.982962677686273021E-15, 0.000000000000000000 ) ) ;
#133 = ADVANCED_FACE ( 'NONE', ( #78 ), #187, .T. ) ;
#134 = AXIS2_PLACEMENT_3D ( 'NONE', #351, #49, #296 ) ;
#135 = DIRECTION ( 'NONE',  ( -1.000000000000000000, 6.982962677686266711E-15, 0.000000000000000000 ) ) ;
#136 = DIRECTION ( 'NONE',  ( 1.000000000000000000, -6.982962677686264344E-15, 0.000000000000000000 ) ) ;
#137 = ORIENTED_EDGE ( 'NONE', *, *, #13, .T. ) ;
#138 = CC_DESIGN_DATE_AND_TIME_ASSIGNMENT ( #165, #188, ( #25 ) ) ;
#139 = APPROVAL_STATUS ( 'not_yet_approved' ) ;
#140 = CARTESIAN_POINT ( 'NONE',  ( 0.1170999999999999958, -7.690685945069793956E-15, -1.968500000000000139 ) ) ;
#141 = AXIS2_PLACEMENT_3D ( 'NONE', #1, #97, #122 ) ;
#142 = APPROVAL_PERSON_ORGANIZATION ( #144, #147, #88 ) ;
#143 = CARTESIAN_POINT ( 'NONE',  ( 7.220980290903470182E-29, -1.030964609733603853E-14, -2.952799999999999869 ) ) ;
#144 = PERSON_AND_ORGANIZATION ( #145, #309 ) ;
#145 = PERSON ( 'UNSPECIFIED', 'UNSPECIFIED', 'UNSPECIFIED', ('UNSPECIFIED'), ('UNSPECIFIED'), ('UNSPECIFIED') ) ;
#146 = AXIS2_PLACEMENT_3D ( 'NONE', #247, #334, #163 ) ;
#147 = APPROVAL ( #358, 'UNSPECIFIED' ) ;
#148 = AXIS2_PLACEMENT_3D ( 'NONE', #352, #102, #46 ) ;
#149 = VERTEX_POINT ( 'NONE', #299 ) ;
#150 = LINE ( 'NONE', #182, #35 ) ;
#151 = ORIENTED_EDGE ( 'NONE', *, *, #326, .F. ) ;
#152 = CARTESIAN_POINT ( 'NONE',  ( -1.043851414335219820E-46, 1.490343170380447200E-32, 4.268512490100411279E-18 ) ) ;
#153 = ORIENTED_EDGE ( 'NONE', *, *, #42, .F. ) ;
#154 = ORIENTED_EDGE ( 'NONE', *, *, #209, .T. ) ;
#155 = VECTOR ( 'NONE', #284, 39.37007874015748143 ) ;
#156 = LOCAL_TIME ( 16, 15, 14.00000000000000000, #218 ) ;
#157 = APPLICATION_PROTOCOL_DEFINITION ( 'international standard', 'config_control_design', 1994, #231 ) ;
#158 = EDGE_LOOP ( 'NONE', ( #292, #2, #189, #130 ) ) ;
#159 = CARTESIAN_POINT ( 'NONE',  ( 4.890937612370279289E-31, -6.982962677686299005E-17, -0.02000000000000002470 ) ) ;
#160 = CYLINDRICAL_SURFACE ( 'NONE', #230, 0.1180999999999999966 ) ;
#161 = DIRECTION ( 'NONE',  ( 1.000000000000000000, 0.000000000000000000, 0.000000000000000000 ) ) ;
#162 = DIRECTION ( 'NONE',  ( 1.000000000000000000, -6.982962677686266711E-15, 4.876176775795935232E-29 ) ) ;
#163 = DIRECTION ( 'NONE',  ( 1.000000000000000000, -6.982962677686265133E-15, 0.000000000000000000 ) ) ;
#164 = ORIENTED_EDGE ( 'NONE', *, *, #357, .T. ) ;
#165 = DATE_AND_TIME ( #70, #156 ) ;
#166 = CARTESIAN_POINT ( 'NONE',  ( -1.043851414335219820E-46, 1.490343170380447200E-32, 4.268512490100411279E-18 ) ) ;
#167 = FACE_OUTER_BOUND ( 'NONE', #123, .T. ) ;
#168 = CONICAL_SURFACE ( 'NONE', #364, 0.1180999999999997607, 0.7853981633974465026 ) ;
#169 = COORDINATED_UNIVERSAL_TIME_OFFSET ( 5, 0, .BEHIND. ) ;
#170 = CC_DESIGN_APPROVAL ( #147, ( #266 ) ) ;
#171 = CARTESIAN_POINT ( 'NONE',  ( -0.1180999999999997607, 7.548582654578833867E-16, -0.02000000000000002470 ) ) ;
#172 = CALENDAR_DATE ( 2024, 28, 2 ) ;
#173 = CARTESIAN_POINT ( 'NONE',  ( 4.811459876169255671E-29, -6.869489534173887122E-15, -1.967499999999999805 ) ) ;
#174 = CIRCLE ( 'NONE', #134, 0.1180999999999999966 ) ;
#175 = ADVANCED_FACE ( 'NONE', ( #26 ), #249, .T. ) ;
#176 = ORIENTED_EDGE ( 'NONE', *, *, #93, .T. ) ;
#177 = AXIS2_PLACEMENT_3D ( 'NONE', #106, #248, #48 ) ;
#178 = ORIENTED_EDGE ( 'NONE', *, *, #98, .T. ) ;
#179 = LOCAL_TIME ( 16, 15, 14.00000000000000000, #311 ) ;
#180 = VERTEX_POINT ( 'NONE', #204 ) ;
#181 = VERTEX_POINT ( 'NONE', #86 ) ;
#182 = CARTESIAN_POINT ( 'NONE',  ( 0.1170999999999999958, -7.690685945069793956E-15, -1.968500000000000139 ) ) ;
#183 = EDGE_LOOP ( 'NONE', ( #257, #7, #101, #232 ) ) ;
#184 = CIRCLE ( 'NONE', #17, 0.09809999999999979847 ) ;
#185 = CC_DESIGN_DATE_AND_TIME_ASSIGNMENT ( #337, #283, ( #266 ) ) ;
#186 = PERSON_AND_ORGANIZATION_ROLE ( 'design_owner' ) ;
#187 = CYLINDRICAL_SURFACE ( 'NONE', #308, 0.1180999999999999966 ) ;
#188 = DATE_TIME_ROLE ( 'creation_date' ) ;
#189 = ORIENTED_EDGE ( 'NONE', *, *, #262, .F. ) ;
#190 = LINE ( 'NONE', #39, #279 ) ;
#191 = DIRECTION ( 'NONE',  ( -1.000000000000000000, 6.982962677686265922E-15, -4.876176775795935793E-29 ) ) ;
#192 = ADVANCED_FACE ( 'NONE', ( #355 ), #313, .F. ) ;
#193 = AXIS2_PLACEMENT_3D ( 'NONE', #113, #21, #363 ) ;
#194 = PERSON_AND_ORGANIZATION ( #145, #309 ) ;
#195 = CARTESIAN_POINT ( 'NONE',  ( 0.1180999999999998856, -8.246878922347472765E-16, 5.758764772214994135E-30 ) ) ;
#196 = CARTESIAN_POINT ( 'NONE',  ( 8.246878922347960873E-16, 0.1180999999999931133, -1.968500000000000361 ) ) ;
#197 = AXIS2_PLACEMENT_3D ( 'NONE', #16, #111, #162 ) ;
#198 = ADVANCED_FACE ( 'NONE', ( #251 ), #27, .F. ) ;
#199 = LOCAL_TIME ( 16, 15, 14.00000000000000000, #10 ) ;
#200 = DIRECTION ( 'NONE',  ( -1.000000000000000000, 6.982962677686265922E-15, -4.876176775795935793E-29 ) ) ;
#201 = APPROVAL_DATE_TIME ( #55, #64 ) ;
#202 = CARTESIAN_POINT ( 'NONE',  ( 6.850286386810212718E-16, 0.09809999999999979847, -3.403800630954616551E-16 ) ) ;
#203 = CALENDAR_DATE ( 2024, 28, 2 ) ;
#204 = CARTESIAN_POINT ( 'NONE',  ( 0.1180999999999999966, -7.694177426408635385E-15, -1.967499999999999805 ) ) ;
#205 = CC_DESIGN_PERSON_AND_ORGANIZATION_ASSIGNMENT ( #15, #243, ( #25 ) ) ;
#206 = AXIS2_PLACEMENT_3D ( 'NONE', #173, #23, #287 ) ;
#207 = FACE_OUTER_BOUND ( 'NONE', #323, .T. ) ;
#208 = ORIENTED_EDGE ( 'NONE', *, *, #93, .F. ) ;
#209 = EDGE_CURVE ( 'NONE', #149, #215, #44, .T. ) ;
#210 = ORIENTED_EDGE ( 'NONE', *, *, #289, .F. ) ;
#211 = DIRECTION ( 'NONE',  ( -0.7071067811864267805, 7.493145998869918709E-15, 0.7071067811866682540 ) ) ;
#212 = CLOSED_SHELL ( 'NONE', ( #6, #58, #28, #133 ) ) ;
#213 = ORIENTED_EDGE ( 'NONE', *, *, #285, .T. ) ;
#214 = EDGE_LOOP ( 'NONE', ( #38, #208 ) ) ;
#215 = VERTEX_POINT ( 'NONE', #57 ) ;
#216 = CARTESIAN_POINT ( 'NONE',  ( 0.1180999999999999966, -1.113433398957078679E-14, -2.952799999999999869 ) ) ;
#217 = FACE_OUTER_BOUND ( 'NONE', #342, .T. ) ;
#218 = COORDINATED_UNIVERSAL_TIME_OFFSET ( 5, 0, .BEHIND. ) ;
#219 = DIRECTION ( 'NONE',  ( -2.445468806185136597E-29, 3.491481338843145583E-15, 1.000000000000000000 ) ) ;
#220 = EDGE_CURVE ( 'NONE', #239, #365, #324, .T. ) ;
#221 = CARTESIAN_POINT ( 'NONE',  ( 0.1180999999999997607, -8.800544403136791611E-16, -0.02000000000000002470 ) ) ;
#222 = MANIFOLD_SOLID_BREP ( 'Body-Move/Copy2[2]', #300 ) ;
#223 = DIRECTION ( 'NONE',  ( -2.445468806185136597E-29, 3.491481338843145583E-15, 1.000000000000000000 ) ) ;
#224 = DIRECTION ( 'NONE',  ( -2.445468806185136597E-29, 3.491481338843145583E-15, 1.000000000000000000 ) ) ;
#225 = MANIFOLD_SOLID_BREP ( 'Body-Move/Copy2[1]', #212 ) ;
#226 = DIRECTION ( 'NONE',  ( -1.000000000000000000, 6.982962677686266711E-15, 0.000000000000000000 ) ) ;
#227 = DIRECTION ( 'NONE',  ( -2.445468806185136597E-29, 3.491481338843145583E-15, 1.000000000000000000 ) ) ;
#228 = LINE ( 'NONE', #282, #155 ) ;
#229 = CIRCLE ( 'NONE', #264, 0.09809999999999979847 ) ;
#230 = AXIS2_PLACEMENT_3D ( 'NONE', #346, #12, #41 ) ;
#231 = APPLICATION_CONTEXT ( 'configuration controlled 3d designs of mechanical parts and assemblies' ) ;
#232 = ORIENTED_EDGE ( 'NONE', *, *, #220, .T. ) ;
#233 = EDGE_LOOP ( 'NONE', ( #210, #213, #343, #34 ) ) ;
#234 = FACE_OUTER_BOUND ( 'NONE', #293, .T. ) ;
#235 = DIRECTION ( 'NONE',  ( -2.445468806185136597E-29, 3.491481338843145583E-15, 1.000000000000000000 ) ) ;
#236 = ADVANCED_FACE ( 'NONE', ( #207 ), #250, .T. ) ;
#237 = ORIENTED_EDGE ( 'NONE', *, *, #103, .F. ) ;
#238 = CARTESIAN_POINT ( 'NONE',  ( 0.1180999999999997607, -8.800544403136791611E-16, -0.02000000000000002470 ) ) ;
#239 = VERTEX_POINT ( 'NONE', #171 ) ;
#240 = DATE_AND_TIME ( #47, #319 ) ;
#241 = DIRECTION ( 'NONE',  ( 1.000000000000000000, -6.982962677686267499E-15, 4.876195163481342132E-29 ) ) ;
#242 = CIRCLE ( 'NONE', #116, 0.1180999999999997607 ) ;
#243 = PERSON_AND_ORGANIZATION_ROLE ( 'creator' ) ;
#244 = CARTESIAN_POINT ( 'NONE',  ( 0.000000000000000000, 0.000000000000000000, 0.000000000000000000 ) ) ;
#245 = MECHANICAL_CONTEXT ( 'NONE', #231, 'mechanical' ) ;
#246 = LINE ( 'NONE', #67, #318 ) ;
#247 = CARTESIAN_POINT ( 'NONE',  ( 4.811459876169255671E-29, -6.869489534173887122E-15, -1.967499999999999805 ) ) ;
#248 = DIRECTION ( 'NONE',  ( -2.445468806185136597E-29, 3.491481338843145583E-15, 1.000000000000000000 ) ) ;
#249 = CONICAL_SURFACE ( 'NONE', #359, 0.1170999999999999958, 0.7853981633972775267 ) ;
#250 = CYLINDRICAL_SURFACE ( 'NONE', #294, 0.1180999999999998856 ) ;
#251 = FACE_OUTER_BOUND ( 'NONE', #317, .T. ) ;
#252 = EDGE_CURVE ( 'NONE', #295, #215, #228, .T. ) ;
#253 = CC_DESIGN_APPROVAL ( #333, ( #25 ) ) ;
#254 = DIRECTION ( 'NONE',  ( 1.000000000000000000, -6.982962677686265922E-15, 4.876176775795935793E-29 ) ) ;
#255 = DIRECTION ( 'NONE',  ( 1.000000000000000000, -6.982962677686267499E-15, 4.876195163481342132E-29 ) ) ;
#256 = CIRCLE ( 'NONE', #146, 0.1180999999999999966 ) ;
#257 = ORIENTED_EDGE ( 'NONE', *, *, #362, .F. ) ;
#258 = DIRECTION ( 'NONE',  ( 0.7071067811864267805, -2.468850131080992517E-15, 0.7071067811866682540 ) ) ;
#259 = ORIENTED_EDGE ( 'NONE', *, *, #54, .F. ) ;
#260 = ADVANCED_BREP_SHAPE_REPRESENTATION ( '49442', ( #225, #222, #4 ), #37 ) ;
#261 = ORIENTED_EDGE ( 'NONE', *, *, #42, .T. ) ;
#262 = EDGE_CURVE ( 'NONE', #180, #3, #353, .T. ) ;
#263 = AXIS2_PLACEMENT_3D ( 'NONE', #307, #312, #254 ) ;
#264 = AXIS2_PLACEMENT_3D ( 'NONE', #166, #224, #241 ) ;
#265 = ORIENTED_EDGE ( 'NONE', *, *, #262, .T. ) ;
#266 = SECURITY_CLASSIFICATION ( '', '', #80 ) ;
#267 = ORIENTED_EDGE ( 'NONE', *, *, #209, .F. ) ;
#268 = APPROVAL_STATUS ( 'not_yet_approved' ) ;
#269 = LINE ( 'NONE', #306, #60 ) ;
#270 = EDGE_CURVE ( 'NONE', #33, #180, #150, .T. ) ;
#271 = COORDINATED_UNIVERSAL_TIME_OFFSET ( 5, 0, .BEHIND. ) ;
#272 = FACE_OUTER_BOUND ( 'NONE', #158, .T. ) ;
#273 =( NAMED_UNIT ( * ) SI_UNIT ( $, .STERADIAN. ) SOLID_ANGLE_UNIT ( ) );
#274 = DIRECTION ( 'NONE',  ( -2.445468806185136877E-29, 3.491481338843145188E-15, 1.000000000000000000 ) ) ;
#275 = PERSON_AND_ORGANIZATION ( #145, #309 ) ;
#276 = CYLINDRICAL_SURFACE ( 'NONE', #197, 0.1180999999999998856 ) ;
#277 = CC_DESIGN_PERSON_AND_ORGANIZATION_ASSIGNMENT ( #336, #81, ( #266 ) ) ;
#278 = DIRECTION ( 'NONE',  ( 2.438088387897960049E-29, -3.491481338843145188E-15, -1.000000000000000000 ) ) ;
#279 = VECTOR ( 'NONE', #109, 39.37007874015748143 ) ;
#280 = APPROVAL_PERSON_ORGANIZATION ( #194, #333, #8 ) ;
#281 = APPROVAL_DATE_TIME ( #286, #147 ) ;
#282 = CARTESIAN_POINT ( 'NONE',  ( -0.1180999999999999966, 8.391509709326782957E-16, -5.809262341591043784E-30 ) ) ;
#283 = DATE_TIME_ROLE ( 'classification_date' ) ;
#284 = DIRECTION ( 'NONE',  ( -2.445468806185136877E-29, 3.491481338843145188E-15, 1.000000000000000000 ) ) ;
#285 = EDGE_CURVE ( 'NONE', #316, #33, #90, .T. ) ;
#286 = DATE_AND_TIME ( #172, #31 ) ;
#287 = DIRECTION ( 'NONE',  ( 1.000000000000000000, -6.982962677686265133E-15, 0.000000000000000000 ) ) ;
#288 = VECTOR ( 'NONE', #74, 39.37007874015748143 ) ;
#289 = EDGE_CURVE ( 'NONE', #316, #3, #100, .T. ) ;
#290 = ORIENTED_EDGE ( 'NONE', *, *, #124, .F. ) ;
#291 = ORIENTED_EDGE ( 'NONE', *, *, #285, .F. ) ;
#292 = ORIENTED_EDGE ( 'NONE', *, *, #36, .T. ) ;
#293 = EDGE_LOOP ( 'NONE', ( #126, #129, #321, #151 ) ) ;
#294 = AXIS2_PLACEMENT_3D ( 'NONE', #53, #51, #315 ) ;
#295 = VERTEX_POINT ( 'NONE', #61 ) ;
#296 = DIRECTION ( 'NONE',  ( 1.000000000000000000, -6.982962677686265133E-15, 0.000000000000000000 ) ) ;
#297 = APPROVAL_ROLE ( '' ) ;
#298 = FACE_OUTER_BOUND ( 'NONE', #29, .T. ) ;
#299 = CARTESIAN_POINT ( 'NONE',  ( 0.1180999999999999966, -7.697668907747478392E-15, -1.968499999999999694 ) ) ;
#300 = CLOSED_SHELL ( 'NONE', ( #69, #236, #320, #347, #114, #175, #198, #192 ) ) ;
#301 = CC_DESIGN_SECURITY_CLASSIFICATION ( #266, ( #45 ) ) ;
#302 = CARTESIAN_POINT ( 'NONE',  ( 0.000000000000000000, 0.000000000000000000, 0.000000000000000000 ) ) ;
#303 = LINE ( 'NONE', #195, #288 ) ;
#304 = CC_DESIGN_PERSON_AND_ORGANIZATION_ASSIGNMENT ( #85, #52, ( #45 ) ) ;
#305 = PERSON_AND_ORGANIZATION ( #145, #309 ) ;
#306 = CARTESIAN_POINT ( 'NONE',  ( 0.1180999999999999966, -8.246878922347480654E-16, 5.758764772215000440E-30 ) ) ;
#307 = CARTESIAN_POINT ( 'NONE',  ( 4.813905344975441835E-29, -6.872981015512731707E-15, -1.968500000000000139 ) ) ;
#308 = AXIS2_PLACEMENT_3D ( 'NONE', #244, #223, #330 ) ;
#309 = ORGANIZATION ( 'UNSPECIFIED', 'UNSPECIFIED', '' ) ;
#310 = EDGE_CURVE ( 'NONE', #32, #181, #184, .T. ) ;
#311 = COORDINATED_UNIVERSAL_TIME_OFFSET ( 5, 0, .BEHIND. ) ;
#312 = DIRECTION ( 'NONE',  ( -2.438088387897960049E-29, 3.491481338843145188E-15, 1.000000000000000000 ) ) ;
#313 = PLANE ( 'NONE',  #56 ) ;
#314 = AXIS2_PLACEMENT_3D ( 'NONE', #143, #328, #132 ) ;
#315 = DIRECTION ( 'NONE',  ( 1.000000000000000000, -6.982962677686266711E-15, 4.876176775795935232E-29 ) ) ;
#316 = VERTEX_POINT ( 'NONE', #125 ) ;
#317 = EDGE_LOOP ( 'NONE', ( #94, #291 ) ) ;
#318 = VECTOR ( 'NONE', #76, 39.37007874015748143 ) ;
#319 = LOCAL_TIME ( 16, 15, 14.00000000000000000, #271 ) ;
#320 = ADVANCED_FACE ( 'NONE', ( #234 ), #168, .T. ) ;
#321 = ORIENTED_EDGE ( 'NONE', *, *, #124, .T. ) ;
#322 = ORIENTED_EDGE ( 'NONE', *, *, #20, .T. ) ;
#323 = EDGE_LOOP ( 'NONE', ( #265, #95, #290, #259 ) ) ;
#324 = CIRCLE ( 'NONE', #75, 0.1180999999999997607 ) ;
#325 = VERTEX_POINT ( 'NONE', #216 ) ;
#326 = EDGE_CURVE ( 'NONE', #32, #239, #190, .T. ) ;
#327 = FACE_OUTER_BOUND ( 'NONE', #183, .T. ) ;
#328 = DIRECTION ( 'NONE',  ( -2.445468806185136597E-29, 3.491481338843145583E-15, 1.000000000000000000 ) ) ;
#329 =( LENGTH_UNIT ( ) NAMED_UNIT ( * ) SI_UNIT ( $, .METRE. ) );
#330 = DIRECTION ( 'NONE',  ( 1.000000000000000000, -6.982962677686266711E-15, 4.876176775795936353E-29 ) ) ;
#331 = APPLICATION_PROTOCOL_DEFINITION ( 'international standard', 'config_control_design', 1994, #68 ) ;
#332 = CARTESIAN_POINT ( 'NONE',  ( -0.1181000000000000105, -2.630508609542693069E-15, -1.967499999999999805 ) ) ;
#333 = APPROVAL ( #268, 'UNSPECIFIED' ) ;
#334 = DIRECTION ( 'NONE',  ( -2.445468806185136597E-29, 3.491481338843145583E-15, 1.000000000000000000 ) ) ;
#335 = DIRECTION ( 'NONE',  ( 1.000000000000000000, -6.982962677686266711E-15, 0.000000000000000000 ) ) ;
#336 = PERSON_AND_ORGANIZATION ( #145, #309 ) ;
#337 = DATE_AND_TIME ( #203, #179 ) ;
#338 = UNCERTAINTY_MEASURE_WITH_UNIT (LENGTH_MEASURE( 1.000000000000000082E-05 ), #77, 'distance_accuracy_value', 'NONE');
#339 = DIRECTION ( 'NONE',  ( 2.438088387897960049E-29, -3.491481338843145188E-15, -1.000000000000000000 ) ) ;
#340 = CC_DESIGN_PERSON_AND_ORGANIZATION_ASSIGNMENT ( #305, #22, ( #45 ) ) ;
#341 = VECTOR ( 'NONE', #211, 39.37007874015748143 ) ;
#342 = EDGE_LOOP ( 'NONE', ( #137, #62, #267, #59 ) ) ;
#343 = ORIENTED_EDGE ( 'NONE', *, *, #270, .T. ) ;
#344 = DIRECTION ( 'NONE',  ( 2.445468806185136597E-29, -3.491481338843145583E-15, -1.000000000000000000 ) ) ;
#345 = EDGE_LOOP ( 'NONE', ( #99, #178 ) ) ;
#346 = CARTESIAN_POINT ( 'NONE',  ( 0.000000000000000000, 0.000000000000000000, 0.000000000000000000 ) ) ;
#347 = ADVANCED_FACE ( 'NONE', ( #327 ), #104, .T. ) ;
#348 = DIRECTION ( 'NONE',  ( 0.7071067811865462405, -7.319954787623251312E-15, -0.7071067811865487940 ) ) ;
#349 = CARTESIAN_POINT ( 'NONE',  ( 8.246878922348201475E-16, 0.1180999999999896855, -2.952800000000000313 ) ) ;
#350 = DIRECTION ( 'NONE',  ( 2.445468806185136597E-29, -3.491481338843145583E-15, -1.000000000000000000 ) ) ;
#351 = CARTESIAN_POINT ( 'NONE',  ( 4.813905344975440714E-29, -6.872981015512730918E-15, -1.968499999999999694 ) ) ;
#352 = CARTESIAN_POINT ( 'NONE',  ( 7.220980290903470182E-29, -1.030964609733603853E-14, -2.952799999999999869 ) ) ;
#353 = CIRCLE ( 'NONE', #206, 0.1180999999999999966 ) ;
#354 = FACE_OUTER_BOUND ( 'NONE', #214, .T. ) ;
#355 = FACE_OUTER_BOUND ( 'NONE', #345, .T. ) ;
#356 = CARTESIAN_POINT ( 'NONE',  ( 4.890937612370279289E-31, -6.982962677686299005E-17, -0.02000000000000002470 ) ) ;
#357 = EDGE_CURVE ( 'NONE', #3, #180, #256, .T. ) ;
#358 = APPROVAL_STATUS ( 'not_yet_approved' ) ;
#359 = AXIS2_PLACEMENT_3D ( 'NONE', #19, #87, #117 ) ;
#360 = CC_DESIGN_APPROVAL ( #64, ( #45 ) ) ;
#361 = CALENDAR_DATE ( 2024, 28, 2 ) ;
#362 = EDGE_CURVE ( 'NONE', #181, #365, #131, .T. ) ;
#363 = DIRECTION ( 'NONE',  ( 1.000000000000000000, -6.982962677686265133E-15, 0.000000000000000000 ) ) ;
#364 = AXIS2_PLACEMENT_3D ( 'NONE', #63, #344, #135 ) ;
#365 = VERTEX_POINT ( 'NONE', #221 ) ;
#366 = PRODUCT_DEFINITION_SHAPE ( 'NONE', 'NONE',  #25 ) ;
ENDSEC;
END-ISO-10303-21;
