ISO-10303-21;
HEADER;
FILE_DESCRIPTION (( 'STEP AP203' ),
    '1' );
FILE_NAME ('49492.STEP',
    '2024-02-29T00:02:16',
    ( '' ),
    ( '' ),
    'SwSTEP 2.0',
    'SolidWorks 2023',
    '' );
FILE_SCHEMA (( 'CONFIG_CONTROL_DESIGN' ));
ENDSEC;

DATA;
#1 = AXIS2_PLACEMENT_3D ( 'NONE', #201, #197, #306 ) ;
#2 = CARTESIAN_POINT ( 'NONE',  ( 0.000000000000000000, 0.000000000000000000, 0.000000000000000000 ) ) ;
#3 = CC_DESIGN_PERSON_AND_ORGANIZATION_ASSIGNMENT ( #344, #284, ( #249 ) ) ;
#4 = DIRECTION ( 'NONE',  ( -1.000000000000000000, 6.982962677686265922E-15, -4.876176775795935793E-29 ) ) ;
#5 = EDGE_CURVE ( 'NONE', #158, #218, #215, .T. ) ;
#6 = PERSON_AND_ORGANIZATION ( #230, #290 ) ;
#7 = DIRECTION ( 'NONE',  ( -2.445468806185136597E-29, 3.491481338843145583E-15, 1.000000000000000000 ) ) ;
#8 = AXIS2_PLACEMENT_3D ( 'NONE', #271, #305, #60 ) ;
#9 = EDGE_LOOP ( 'NONE', ( #83, #154, #259, #164 ) ) ;
#10 = EDGE_CURVE ( 'NONE', #295, #194, #91, .T. ) ;
#11 = ORIENTED_EDGE ( 'NONE', *, *, #353, .T. ) ;
#12 = DATE_AND_TIME ( #44, #331 ) ;
#13 = ORIENTED_EDGE ( 'NONE', *, *, #15, .F. ) ;
#14 = VECTOR ( 'NONE', #322, 39.37007874015748854 ) ;
#15 = EDGE_CURVE ( 'NONE', #356, #193, #265, .T. ) ;
#16 = ORIENTED_EDGE ( 'NONE', *, *, #353, .F. ) ;
#17 = LINE ( 'NONE', #328, #103 ) ;
#18 = AXIS2_PLACEMENT_3D ( 'NONE', #358, #199, #362 ) ;
#19 = LOCAL_TIME ( 19, 2, 16.00000000000000000, #281 ) ;
#20 = EDGE_CURVE ( 'NONE', #292, #257, #100, .T. ) ;
#21 = ORIENTED_EDGE ( 'NONE', *, *, #33, .T. ) ;
#22 = CARTESIAN_POINT ( 'NONE',  ( 0.000000000000000000, 0.000000000000000000, 0.000000000000000000 ) ) ;
#23 = CARTESIAN_POINT ( 'NONE',  ( 4.813905344975440714E-29, -6.872981015512730918E-15, -1.968499999999999694 ) ) ;
#24 = DIRECTION ( 'NONE',  ( -2.445468806185136597E-29, 3.491481338843145583E-15, 1.000000000000000000 ) ) ;
#25 = DIRECTION ( 'NONE',  ( 2.438088387897960049E-29, -3.491481338843145188E-15, -1.000000000000000000 ) ) ;
#26 = DIMENSIONAL_EXPONENTS ( 1.000000000000000000, 0.000000000000000000, 0.000000000000000000, 0.000000000000000000, 0.000000000000000000, 0.000000000000000000, 0.000000000000000000 ) ;
#27 = VECTOR ( 'NONE', #131, 39.37007874015748143 ) ;
#28 = CC_DESIGN_SECURITY_CLASSIFICATION ( #269, ( #249 ) ) ;
#29 = DIRECTION ( 'NONE',  ( 1.000000000000000000, -6.982962677686270655E-15, 0.000000000000000000 ) ) ;
#30 = DIRECTION ( 'NONE',  ( -1.000000000000000000, 6.982962677686265922E-15, 0.000000000000000000 ) ) ;
#31 = DIRECTION ( 'NONE',  ( -2.445468806185136597E-29, 3.491481338843145583E-15, 1.000000000000000000 ) ) ;
#32 = PERSON_AND_ORGANIZATION ( #230, #290 ) ;
#33 = EDGE_CURVE ( 'NONE', #160, #295, #337, .T. ) ;
#34 = LOCAL_TIME ( 19, 2, 16.00000000000000000, #35 ) ;
#35 = COORDINATED_UNIVERSAL_TIME_OFFSET ( 5, 0, .BEHIND. ) ;
#36 = DIRECTION ( 'NONE',  ( 0.000000000000000000, 0.000000000000000000, 1.000000000000000000 ) ) ;
#37 = PLANE ( 'NONE',  #165 ) ;
#38 = DIRECTION ( 'NONE',  ( 1.000000000000000000, -6.982962677686265922E-15, 0.000000000000000000 ) ) ;
#39 = CIRCLE ( 'NONE', #319, 0.05904999999999974158 ) ;
#40 = SHAPE_DEFINITION_REPRESENTATION ( #89, #266 ) ;
#41 = EDGE_LOOP ( 'NONE', ( #243, #352, #55, #16 ) ) ;
#42 = AXIS2_PLACEMENT_3D ( 'NONE', #2, #36, #176 ) ;
#43 = CARTESIAN_POINT ( 'NONE',  ( -0.05904999999999974158, 3.425143193405090089E-16, -0.02000000000000007674 ) ) ;
#44 = CALENDAR_DATE ( 2024, 28, 2 ) ;
#45 = ORIENTED_EDGE ( 'NONE', *, *, #10, .F. ) ;
#46 = ORIENTED_EDGE ( 'NONE', *, *, #191, .F. ) ;
#47 = LINE ( 'NONE', #293, #27 ) ;
#48 = DATE_TIME_ROLE ( 'classification_date' ) ;
#49 = ADVANCED_FACE ( 'NONE', ( #333 ), #282, .T. ) ;
#50 = AXIS2_PLACEMENT_3D ( 'NONE', #226, #58, #92 ) ;
#51 = EDGE_LOOP ( 'NONE', ( #13, #113 ) ) ;
#52 = CARTESIAN_POINT ( 'NONE',  ( 0.05805000000000001131, -7.278341998952419824E-15, -1.968499999999999694 ) ) ;
#53 = APPROVAL ( #78, 'UNSPECIFIED' ) ;
#54 = ADVANCED_FACE ( 'NONE', ( #61 ), #125, .F. ) ;
#55 = ORIENTED_EDGE ( 'NONE', *, *, #128, .T. ) ;
#56 = CIRCLE ( 'NONE', #174, 0.05904999999999994975 ) ;
#57 = DIRECTION ( 'NONE',  ( 1.000000000000000000, -6.982962677686270655E-15, 0.000000000000000000 ) ) ;
#58 = DIRECTION ( 'NONE',  ( -2.445468806185136597E-29, 3.491481338843145583E-15, 1.000000000000000000 ) ) ;
#59 = FACE_OUTER_BOUND ( 'NONE', #99, .T. ) ;
#60 = DIRECTION ( 'NONE',  ( 1.000000000000000000, -6.982962677686270655E-15, 0.000000000000000000 ) ) ;
#61 = FACE_OUTER_BOUND ( 'NONE', #354, .T. ) ;
#62 = CYLINDRICAL_SURFACE ( 'NONE', #260, 0.05904999999999984567 ) ;
#63 = ADVANCED_FACE ( 'NONE', ( #251 ), #204, .T. ) ;
#64 = CARTESIAN_POINT ( 'NONE',  ( 4.811459876169255671E-29, -6.869489534173887122E-15, -1.967499999999999805 ) ) ;
#65 =( CONVERSION_BASED_UNIT ( 'INCH', #122 ) LENGTH_UNIT ( ) NAMED_UNIT ( #26 ) );
#66 = CC_DESIGN_PERSON_AND_ORGANIZATION_ASSIGNMENT ( #150, #233, ( #363 ) ) ;
#67 = FACE_OUTER_BOUND ( 'NONE', #41, .T. ) ;
#68 = EDGE_CURVE ( 'NONE', #295, #160, #135, .T. ) ;
#69 = CIRCLE ( 'NONE', #159, 0.05904999999999974158 ) ;
#70 = CC_DESIGN_APPROVAL ( #231, ( #249 ) ) ;
#71 = COORDINATED_UNIVERSAL_TIME_OFFSET ( 5, 0, .BEHIND. ) ;
#72 = CARTESIAN_POINT ( 'NONE',  ( 4.811459876169255671E-29, -6.869489534173887122E-15, -1.967499999999999805 ) ) ;
#73 = CC_DESIGN_APPROVAL ( #53, ( #269 ) ) ;
#74 = ADVANCED_FACE ( 'NONE', ( #59 ), #275, .T. ) ;
#75 = APPROVAL_ROLE ( '' ) ;
#76 = ORIENTED_EDGE ( 'NONE', *, *, #105, .T. ) ;
#77 = UNCERTAINTY_MEASURE_WITH_UNIT (LENGTH_MEASURE( 1.000000000000000082E-05 ), #65, 'distance_accuracy_value', 'NONE');
#78 = APPROVAL_STATUS ( 'not_yet_approved' ) ;
#79 = ORIENTED_EDGE ( 'NONE', *, *, #250, .F. ) ;
#80 = ORIENTED_EDGE ( 'NONE', *, *, #195, .F. ) ;
#81 = ORIENTED_EDGE ( 'NONE', *, *, #133, .F. ) ;
#82 = DIRECTION ( 'NONE',  ( 1.000000000000000000, -6.982962677686270655E-15, 0.000000000000000000 ) ) ;
#83 = ORIENTED_EDGE ( 'NONE', *, *, #267, .T. ) ;
#84 = FACE_OUTER_BOUND ( 'NONE', #9, .T. ) ;
#85 = CARTESIAN_POINT ( 'NONE',  ( -0.05904999999999994975, -3.050084095009030195E-15, -1.967499999999999805 ) ) ;
#86 = AXIS2_PLACEMENT_3D ( 'NONE', #364, #304, #252 ) ;
#87 = DIRECTION ( 'NONE',  ( -2.445468806185136597E-29, 3.491481338843145583E-15, 1.000000000000000000 ) ) ;
#88 = CARTESIAN_POINT ( 'NONE',  ( 0.05905000000000001914, -1.072199004345341266E-14, -2.952799999999999869 ) ) ;
#89 = PRODUCT_DEFINITION_SHAPE ( 'NONE', 'NONE',  #363 ) ;
#90 = DESIGN_CONTEXT ( 'detailed design', #163, 'design' ) ;
#91 = LINE ( 'NONE', #117, #361 ) ;
#92 = DIRECTION ( 'NONE',  ( 1.000000000000000000, -6.982962677686270655E-15, 0.000000000000000000 ) ) ;
#93 = DIRECTION ( 'NONE',  ( 1.000000000000000000, -6.982962677686265922E-15, 4.873707401586894073E-29 ) ) ;
#94 = APPLICATION_PROTOCOL_DEFINITION ( 'international standard', 'config_control_design', 1994, #163 ) ;
#95 = AXIS2_PLACEMENT_3D ( 'NONE', #173, #277, #30 ) ;
#96 = LINE ( 'NONE', #227, #300 ) ;
#97 = DATE_AND_TIME ( #182, #192 ) ;
#98 = APPROVAL_ROLE ( '' ) ;
#99 = EDGE_LOOP ( 'NONE', ( #240, #189, #111, #261 ) ) ;
#100 = CIRCLE ( 'NONE', #276, 0.05905000000000001914 ) ;
#101 = CARTESIAN_POINT ( 'NONE',  ( 0.05904999999999974158, -4.749420335452702929E-16, -0.02000000000000007674 ) ) ;
#102 = APPROVAL ( #342, 'UNSPECIFIED' ) ;
#103 = VECTOR ( 'NONE', #248, 39.37007874015748143 ) ;
#104 = ORIENTED_EDGE ( 'NONE', *, *, #33, .F. ) ;
#105 = EDGE_CURVE ( 'NONE', #193, #158, #170, .T. ) ;
#106 = PERSON_AND_ORGANIZATION ( #230, #290 ) ;
#107 = VERTEX_POINT ( 'NONE', #278 ) ;
#108 = EDGE_LOOP ( 'NONE', ( #208, #76, #81, #79 ) ) ;
#109 = AXIS2_PLACEMENT_3D ( 'NONE', #258, #7, #329 ) ;
#110 = LOCAL_TIME ( 19, 2, 16.00000000000000000, #71 ) ;
#111 = ORIENTED_EDGE ( 'NONE', *, *, #206, .T. ) ;
#112 = DIRECTION ( 'NONE',  ( 1.000000000000000000, -6.982962677686265922E-15, 0.000000000000000000 ) ) ;
#113 = ORIENTED_EDGE ( 'NONE', *, *, #314, .F. ) ;
#114 = DIRECTION ( 'NONE',  ( -2.445468806185136597E-29, 3.491481338843145583E-15, 1.000000000000000000 ) ) ;
#115 = CARTESIAN_POINT ( 'NONE',  ( 4.890937612370292426E-31, -6.982962677686317493E-17, -0.02000000000000007674 ) ) ;
#116 = CIRCLE ( 'NONE', #296, 0.05904999999999994975 ) ;
#117 = CARTESIAN_POINT ( 'NONE',  ( 0.05904999999999974158, -4.749420335452702929E-16, -0.02000000000000007674 ) ) ;
#118 = CARTESIAN_POINT ( 'NONE',  ( -0.05905000000000001914, -8.171738070958045625E-15, -1.968499999999999694 ) ) ;
#119 = DIRECTION ( 'NONE',  ( -2.438088387897960049E-29, 3.491481338843145188E-15, 1.000000000000000000 ) ) ;
#120 = CARTESIAN_POINT ( 'NONE',  ( 7.220980290903470182E-29, -1.030964609733603853E-14, -2.952799999999999869 ) ) ;
#121 = ADVANCED_FACE ( 'NONE', ( #274 ), #37, .F. ) ;
#122 = LENGTH_MEASURE_WITH_UNIT ( LENGTH_MEASURE( 0.02539999999999999897 ), #123 );
#123 =( LENGTH_UNIT ( ) NAMED_UNIT ( * ) SI_UNIT ( $, .METRE. ) );
#124 = APPLICATION_PROTOCOL_DEFINITION ( 'international standard', 'config_control_design', 1994, #138 ) ;
#125 = PLANE ( 'NONE',  #348 ) ;
#126 = CLOSED_SHELL ( 'NONE', ( #217, #321, #341, #49, #74, #177, #121, #357 ) ) ;
#127 = DIRECTION ( 'NONE',  ( 1.000000000000000000, -6.982962677686270655E-15, 0.000000000000000000 ) ) ;
#128 = EDGE_CURVE ( 'NONE', #285, #292, #96, .T. ) ;
#129 = AXIS2_PLACEMENT_3D ( 'NONE', #272, #172, #93 ) ;
#130 = ORIENTED_EDGE ( 'NONE', *, *, #105, .F. ) ;
#131 = DIRECTION ( 'NONE',  ( -2.445468806185136877E-29, 3.491481338843145188E-15, 1.000000000000000000 ) ) ;
#132 = EDGE_LOOP ( 'NONE', ( #185, #288, #350, #80 ) ) ;
#133 = EDGE_CURVE ( 'NONE', #234, #158, #116, .T. ) ;
#134 = ORIENTED_EDGE ( 'NONE', *, *, #5, .T. ) ;
#135 = CIRCLE ( 'NONE', #129, 0.03904999999999975158 ) ;
#136 =( GEOMETRIC_REPRESENTATION_CONTEXT ( 3 ) GLOBAL_UNCERTAINTY_ASSIGNED_CONTEXT ( ( #77 ) ) GLOBAL_UNIT_ASSIGNED_CONTEXT ( ( #65, #180, #151 ) ) REPRESENTATION_CONTEXT ( 'NONE', 'WORKASPACE' ) );
#137 = ORIENTED_EDGE ( 'NONE', *, *, #133, .T. ) ;
#138 = APPLICATION_CONTEXT ( 'configuration controlled 3d designs of mechanical parts and assemblies' ) ;
#139 = CARTESIAN_POINT ( 'NONE',  ( 4.813905344975440714E-29, -6.872981015512730918E-15, -1.968499999999999694 ) ) ;
#140 = PRODUCT_RELATED_PRODUCT_CATEGORY ( 'detail', '', ( #359 ) ) ;
#141 = EDGE_CURVE ( 'NONE', #107, #285, #203, .T. ) ;
#142 = DIRECTION ( 'NONE',  ( -2.445468806185136877E-29, 3.491481338843145188E-15, 1.000000000000000000 ) ) ;
#143 = FACE_OUTER_BOUND ( 'NONE', #156, .T. ) ;
#144 = DIRECTION ( 'NONE',  ( -2.445468806185136877E-29, 3.491481338843145188E-15, 1.000000000000000000 ) ) ;
#145 = CARTESIAN_POINT ( 'NONE',  ( 4.813905344975440714E-29, -6.872981015512730918E-15, -1.968499999999999694 ) ) ;
#146 = DIRECTION ( 'NONE',  ( -1.000000000000000000, 6.982962677686265922E-15, -4.876176775795935793E-29 ) ) ;
#147 = APPROVAL_ROLE ( '' ) ;
#148 = DIRECTION ( 'NONE',  ( 2.438088387897960049E-29, -3.491481338843145188E-15, -1.000000000000000000 ) ) ;
#149 = CC_DESIGN_APPROVAL ( #102, ( #363 ) ) ;
#150 = PERSON_AND_ORGANIZATION ( #230, #290 ) ;
#151 =( NAMED_UNIT ( * ) SI_UNIT ( $, .STERADIAN. ) SOLID_ANGLE_UNIT ( ) );
#152 = CARTESIAN_POINT ( 'NONE',  ( 4.123439461174222518E-16, 0.05904999999999314270, -1.968500000000000139 ) ) ;
#153 = CONICAL_SURFACE ( 'NONE', #95, 0.05904999999999974158, 0.7853981633974476129 ) ;
#154 = ORIENTED_EDGE ( 'NONE', *, *, #232, .T. ) ;
#155 = ADVANCED_FACE ( 'NONE', ( #67 ), #178, .T. ) ;
#156 = EDGE_LOOP ( 'NONE', ( #137, #134, #298, #161 ) ) ;
#157 = FACE_OUTER_BOUND ( 'NONE', #108, .T. ) ;
#158 = VERTEX_POINT ( 'NONE', #85 ) ;
#159 = AXIS2_PLACEMENT_3D ( 'NONE', #115, #223, #112 ) ;
#160 = VERTEX_POINT ( 'NONE', #168 ) ;
#161 = ORIENTED_EDGE ( 'NONE', *, *, #206, .F. ) ;
#162 = FACE_OUTER_BOUND ( 'NONE', #294, .T. ) ;
#163 = APPLICATION_CONTEXT ( 'configuration controlled 3d designs of mechanical parts and assemblies' ) ;
#164 = ORIENTED_EDGE ( 'NONE', *, *, #128, .F. ) ;
#165 = AXIS2_PLACEMENT_3D ( 'NONE', #23, #119, #229 ) ;
#166 = LINE ( 'NONE', #360, #222 ) ;
#167 = AXIS2_PLACEMENT_3D ( 'NONE', #145, #327, #82 ) ;
#168 = CARTESIAN_POINT ( 'NONE',  ( -0.03904999999999975158, 3.075995059520779021E-16, -5.549066237130737733E-17 ) ) ;
#169 = CYLINDRICAL_SURFACE ( 'NONE', #241, 0.05905000000000001914 ) ;
#170 = LINE ( 'NONE', #301, #289 ) ;
#171 = CARTESIAN_POINT ( 'NONE',  ( 0.05905000000000001914, -7.285324961630105839E-15, -1.968499999999999694 ) ) ;
#172 = DIRECTION ( 'NONE',  ( -2.445468806185136597E-29, 3.491481338843145583E-15, 1.000000000000000000 ) ) ;
#173 = CARTESIAN_POINT ( 'NONE',  ( 4.890937612370292426E-31, -6.982962677686317493E-17, -0.02000000000000007674 ) ) ;
#174 = AXIS2_PLACEMENT_3D ( 'NONE', #72, #346, #212 ) ;
#175 = DIRECTION ( 'NONE',  ( -2.445468806185136597E-29, 3.491481338843145583E-15, 1.000000000000000000 ) ) ;
#176 = DIRECTION ( 'NONE',  ( 1.000000000000000000, 0.000000000000000000, 0.000000000000000000 ) ) ;
#177 = ADVANCED_FACE ( 'NONE', ( #332 ), #330, .T. ) ;
#178 = CYLINDRICAL_SURFACE ( 'NONE', #109, 0.05905000000000001914 ) ;
#179 = DATE_AND_TIME ( #256, #110 ) ;
#180 =( NAMED_UNIT ( * ) PLANE_ANGLE_UNIT ( ) SI_UNIT ( $, .RADIAN. ) );
#181 = AXIS2_PLACEMENT_3D ( 'NONE', #139, #114, #127 ) ;
#182 = CALENDAR_DATE ( 2024, 28, 2 ) ;
#183 = APPROVAL_DATE_TIME ( #179, #231 ) ;
#184 = ORIENTED_EDGE ( 'NONE', *, *, #250, .T. ) ;
#185 = ORIENTED_EDGE ( 'NONE', *, *, #68, .F. ) ;
#186 = CARTESIAN_POINT ( 'NONE',  ( -0.05805000000000001131, -6.455212503055771609E-15, -1.968499999999999694 ) ) ;
#187 = AXIS2_PLACEMENT_3D ( 'NONE', #196, #87, #57 ) ;
#188 = ORIENTED_EDGE ( 'NONE', *, *, #195, .T. ) ;
#189 = ORIENTED_EDGE ( 'NONE', *, *, #191, .T. ) ;
#190 = AXIS2_PLACEMENT_3D ( 'NONE', #335, #175, #365 ) ;
#191 = EDGE_CURVE ( 'NONE', #158, #234, #56, .T. ) ;
#192 = LOCAL_TIME ( 19, 2, 16.00000000000000000, #207 ) ;
#193 = VERTEX_POINT ( 'NONE', #186 ) ;
#194 = VERTEX_POINT ( 'NONE', #101 ) ;
#195 = EDGE_CURVE ( 'NONE', #160, #218, #349, .T. ) ;
#196 = CARTESIAN_POINT ( 'NONE',  ( 4.813905344975440714E-29, -6.872981015512730918E-15, -1.968499999999999694 ) ) ;
#197 = DIRECTION ( 'NONE',  ( 2.445468806185136597E-29, -3.491481338843145583E-15, -1.000000000000000000 ) ) ;
#198 = CARTESIAN_POINT ( 'NONE',  ( 0.03904999999999975158, -3.714222401791235589E-16, -5.549066237130309406E-17 ) ) ;
#199 = DIRECTION ( 'NONE',  ( -2.445468806185136597E-29, 3.491481338843145583E-15, 1.000000000000000000 ) ) ;
#200 = DIRECTION ( 'NONE',  ( -2.445468806185136597E-29, 3.491481338843145583E-15, 1.000000000000000000 ) ) ;
#201 = CARTESIAN_POINT ( 'NONE',  ( 4.890937612370292426E-31, -6.982962677686317493E-17, -0.02000000000000007674 ) ) ;
#202 = PERSON_AND_ORGANIZATION_ROLE ( 'design_supplier' ) ;
#203 = CIRCLE ( 'NONE', #326, 0.05905000000000001914 ) ;
#204 = PLANE ( 'NONE',  #86 ) ;
#205 = APPROVAL_STATUS ( 'not_yet_approved' ) ;
#206 = EDGE_CURVE ( 'NONE', #234, #194, #47, .T. ) ;
#207 = COORDINATED_UNIVERSAL_TIME_OFFSET ( 5, 0, .BEHIND. ) ;
#208 = ORIENTED_EDGE ( 'NONE', *, *, #15, .T. ) ;
#209 = CIRCLE ( 'NONE', #50, 0.05905000000000001914 ) ;
#210 = EDGE_LOOP ( 'NONE', ( #299, #297 ) ) ;
#211 = CARTESIAN_POINT ( 'NONE',  ( -0.05904999999999974158, 3.425143193405090089E-16, -0.02000000000000007674 ) ) ;
#212 = DIRECTION ( 'NONE',  ( 1.000000000000000000, -6.982962677686261977E-15, 0.000000000000000000 ) ) ;
#213 = VECTOR ( 'NONE', #144, 39.37007874015748143 ) ;
#214 = DATE_AND_TIME ( #347, #19 ) ;
#215 = LINE ( 'NONE', #221, #213 ) ;
#216 = DIRECTION ( 'NONE',  ( 1.000000000000000000, -6.982962677686270655E-15, 0.000000000000000000 ) ) ;
#217 = ADVANCED_FACE ( 'NONE', ( #157 ), #268, .T. ) ;
#218 = VERTEX_POINT ( 'NONE', #211 ) ;
#219 = DIRECTION ( 'NONE',  ( 1.000000000000000000, -6.982962677686265922E-15, 4.876176775795935793E-29 ) ) ;
#220 = EDGE_CURVE ( 'NONE', #194, #218, #39, .T. ) ;
#221 = CARTESIAN_POINT ( 'NONE',  ( -0.05904999999999984567, 4.195754854663380632E-16, -2.904631170795514185E-30 ) ) ;
#222 = VECTOR ( 'NONE', #244, 39.37007874015748143 ) ;
#223 = DIRECTION ( 'NONE',  ( -2.445468806185136597E-29, 3.491481338843145583E-15, 1.000000000000000000 ) ) ;
#224 = AXIS2_PLACEMENT_3D ( 'NONE', #253, #148, #4 ) ;
#225 = DIRECTION ( 'NONE',  ( -2.445468806185136597E-29, 3.491481338843145583E-15, 1.000000000000000000 ) ) ;
#226 = CARTESIAN_POINT ( 'NONE',  ( 7.220980290903470182E-29, -1.030964609733603853E-14, -2.952799999999999869 ) ) ;
#227 = CARTESIAN_POINT ( 'NONE',  ( 0.05905000000000001914, -4.123439461173741806E-16, 2.879382386107500921E-30 ) ) ;
#228 = PERSON_AND_ORGANIZATION ( #230, #290 ) ;
#229 = DIRECTION ( 'NONE',  ( 1.000000000000000000, -6.982962677686265922E-15, 4.876176775795935793E-29 ) ) ;
#230 = PERSON ( 'UNSPECIFIED', 'UNSPECIFIED', 'UNSPECIFIED', ('UNSPECIFIED'), ('UNSPECIFIED'), ('UNSPECIFIED') ) ;
#231 = APPROVAL ( #205, 'UNSPECIFIED' ) ;
#232 = EDGE_CURVE ( 'NONE', #107, #257, #166, .T. ) ;
#233 = PERSON_AND_ORGANIZATION_ROLE ( 'creator' ) ;
#234 = VERTEX_POINT ( 'NONE', #302 ) ;
#235 = COORDINATED_UNIVERSAL_TIME_OFFSET ( 5, 0, .BEHIND. ) ;
#236 = APPROVAL_PERSON_ORGANIZATION ( #106, #53, #75 ) ;
#237 = CARTESIAN_POINT ( 'NONE',  ( 4.813905344975440714E-29, -6.872981015512730918E-15, -1.968499999999999694 ) ) ;
#238 = MANIFOLD_SOLID_BREP ( 'Body-Move/Copy2[1]', #355 ) ;
#239 = MANIFOLD_SOLID_BREP ( 'Body-Move/Copy2[2]', #126 ) ;
#240 = ORIENTED_EDGE ( 'NONE', *, *, #5, .F. ) ;
#241 = AXIS2_PLACEMENT_3D ( 'NONE', #273, #24, #334 ) ;
#242 = APPROVAL_PERSON_ORGANIZATION ( #6, #102, #98 ) ;
#243 = ORIENTED_EDGE ( 'NONE', *, *, #232, .F. ) ;
#244 = DIRECTION ( 'NONE',  ( -2.445468806185136877E-29, 3.491481338843145188E-15, 1.000000000000000000 ) ) ;
#245 = DIRECTION ( 'NONE',  ( 0.7071067811865469066, -7.319954787623252890E-15, -0.7071067811865479058 ) ) ;
#246 = CARTESIAN_POINT ( 'NONE',  ( 4.813905344975440714E-29, -6.872981015512730918E-15, -1.968499999999999694 ) ) ;
#247 = CIRCLE ( 'NONE', #8, 0.05805000000000001131 ) ;
#248 = DIRECTION ( 'NONE',  ( 0.7071067811864992780, -2.468850131081751401E-15, 0.7071067811865957564 ) ) ;
#249 = PRODUCT_DEFINITION_FORMATION_WITH_SPECIFIED_SOURCE ( 'ANY', '', #359, .NOT_KNOWN. ) ;
#250 = EDGE_CURVE ( 'NONE', #356, #234, #17, .T. ) ;
#251 = FACE_OUTER_BOUND ( 'NONE', #210, .T. ) ;
#252 = DIRECTION ( 'NONE',  ( -1.000000000000000000, 6.982962677686265922E-15, -4.876176775795935793E-29 ) ) ;
#253 = CARTESIAN_POINT ( 'NONE',  ( 2.726846925636469433E-16, 0.03904999999999975158, -1.640876774674766395E-16 ) ) ;
#254 = MECHANICAL_CONTEXT ( 'NONE', #138, 'mechanical' ) ;
#255 = DATE_AND_TIME ( #315, #34 ) ;
#256 = CALENDAR_DATE ( 2024, 28, 2 ) ;
#257 = VERTEX_POINT ( 'NONE', #118 ) ;
#258 = CARTESIAN_POINT ( 'NONE',  ( 0.000000000000000000, 0.000000000000000000, 0.000000000000000000 ) ) ;
#259 = ORIENTED_EDGE ( 'NONE', *, *, #20, .F. ) ;
#260 = AXIS2_PLACEMENT_3D ( 'NONE', #22, #200, #219 ) ;
#261 = ORIENTED_EDGE ( 'NONE', *, *, #264, .F. ) ;
#262 = APPROVAL_DATE_TIME ( #12, #53 ) ;
#263 = ORIENTED_EDGE ( 'NONE', *, *, #20, .T. ) ;
#264 = EDGE_CURVE ( 'NONE', #218, #194, #69, .T. ) ;
#265 = CIRCLE ( 'NONE', #187, 0.05805000000000001131 ) ;
#266 = ADVANCED_BREP_SHAPE_REPRESENTATION ( '49492', ( #238, #239, #42 ), #136 ) ;
#267 = EDGE_CURVE ( 'NONE', #285, #107, #209, .T. ) ;
#268 = CONICAL_SURFACE ( 'NONE', #325, 0.05805000000000001131, 0.7853981633973801113 ) ;
#269 = SECURITY_CLASSIFICATION ( '', '', #310 ) ;
#270 = ORIENTED_EDGE ( 'NONE', *, *, #264, .T. ) ;
#271 = CARTESIAN_POINT ( 'NONE',  ( 4.813905344975440714E-29, -6.872981015512730918E-15, -1.968499999999999694 ) ) ;
#272 = CARTESIAN_POINT ( 'NONE',  ( 1.357006838635785746E-45, -1.937446121494581442E-31, -5.549066237130534971E-17 ) ) ;
#273 = CARTESIAN_POINT ( 'NONE',  ( 0.000000000000000000, 0.000000000000000000, 0.000000000000000000 ) ) ;
#274 = FACE_OUTER_BOUND ( 'NONE', #51, .T. ) ;
#275 = CYLINDRICAL_SURFACE ( 'NONE', #190, 0.05904999999999984567 ) ;
#276 = AXIS2_PLACEMENT_3D ( 'NONE', #246, #225, #29 ) ;
#277 = DIRECTION ( 'NONE',  ( 2.445468806185136597E-29, -3.491481338843145583E-15, -1.000000000000000000 ) ) ;
#278 = CARTESIAN_POINT ( 'NONE',  ( -0.05905000000000001914, -8.171738070958045625E-15, -2.952799999999999869 ) ) ;
#279 = PLANE ( 'NONE',  #224 ) ;
#280 = DIRECTION ( 'NONE',  ( -0.7071067811864992780, 7.493145998870180611E-15, 0.7071067811865957564 ) ) ;
#281 = COORDINATED_UNIVERSAL_TIME_OFFSET ( 5, 0, .BEHIND. ) ;
#282 = CONICAL_SURFACE ( 'NONE', #1, 0.05904999999999974158, 0.7853981633974476129 ) ;
#283 = PERSON_AND_ORGANIZATION ( #230, #290 ) ;
#284 = PERSON_AND_ORGANIZATION_ROLE ( 'creator' ) ;
#285 = VERTEX_POINT ( 'NONE', #88 ) ;
#286 = ADVANCED_FACE ( 'NONE', ( #84 ), #169, .T. ) ;
#287 = DIRECTION ( 'NONE',  ( -2.445468806185136597E-29, 3.491481338843145583E-15, 1.000000000000000000 ) ) ;
#288 = ORIENTED_EDGE ( 'NONE', *, *, #10, .T. ) ;
#289 = VECTOR ( 'NONE', #280, 39.37007874015748143 ) ;
#290 = ORGANIZATION ( 'UNSPECIFIED', 'UNSPECIFIED', '' ) ;
#291 = CC_DESIGN_DATE_AND_TIME_ASSIGNMENT ( #97, #313, ( #363 ) ) ;
#292 = VERTEX_POINT ( 'NONE', #171 ) ;
#293 = CARTESIAN_POINT ( 'NONE',  ( 0.05904999999999984567, -4.123439461173729480E-16, 2.879382386107492513E-30 ) ) ;
#294 = EDGE_LOOP ( 'NONE', ( #21, #316 ) ) ;
#295 = VERTEX_POINT ( 'NONE', #198 ) ;
#296 = AXIS2_PLACEMENT_3D ( 'NONE', #64, #31, #309 ) ;
#297 = ORIENTED_EDGE ( 'NONE', *, *, #141, .F. ) ;
#298 = ORIENTED_EDGE ( 'NONE', *, *, #220, .F. ) ;
#299 = ORIENTED_EDGE ( 'NONE', *, *, #267, .F. ) ;
#300 = VECTOR ( 'NONE', #142, 39.37007874015748143 ) ;
#301 = CARTESIAN_POINT ( 'NONE',  ( -0.05805000000000001131, -6.460510957403993222E-15, -1.968499999999999694 ) ) ;
#302 = CARTESIAN_POINT ( 'NONE',  ( 0.05904999999999994975, -7.281833480291261254E-15, -1.967499999999999805 ) ) ;
#303 = CC_DESIGN_DATE_AND_TIME_ASSIGNMENT ( #214, #48, ( #269 ) ) ;
#304 = DIRECTION ( 'NONE',  ( 2.438088387897960049E-29, -3.491481338843145188E-15, -1.000000000000000000 ) ) ;
#305 = DIRECTION ( 'NONE',  ( -2.445468806185136597E-29, 3.491481338843145583E-15, 1.000000000000000000 ) ) ;
#306 = DIRECTION ( 'NONE',  ( -1.000000000000000000, 6.982962677686265922E-15, 0.000000000000000000 ) ) ;
#307 = FACE_OUTER_BOUND ( 'NONE', #132, .T. ) ;
#308 = CIRCLE ( 'NONE', #167, 0.05905000000000001914 ) ;
#309 = DIRECTION ( 'NONE',  ( 1.000000000000000000, -6.982962677686261977E-15, 0.000000000000000000 ) ) ;
#310 = SECURITY_CLASSIFICATION_LEVEL ( 'unclassified' ) ;
#311 = DIRECTION ( 'NONE',  ( 1.000000000000000000, -6.982962677686270655E-15, 0.000000000000000000 ) ) ;
#312 = PERSON_AND_ORGANIZATION_ROLE ( 'classification_officer' ) ;
#313 = DATE_TIME_ROLE ( 'creation_date' ) ;
#314 = EDGE_CURVE ( 'NONE', #193, #356, #247, .T. ) ;
#315 = CALENDAR_DATE ( 2024, 28, 2 ) ;
#316 = ORIENTED_EDGE ( 'NONE', *, *, #68, .T. ) ;
#317 = CARTESIAN_POINT ( 'NONE',  ( 4.890937612370292426E-31, -6.982962677686317493E-17, -0.02000000000000007674 ) ) ;
#318 = ORIENTED_EDGE ( 'NONE', *, *, #314, .T. ) ;
#319 = AXIS2_PLACEMENT_3D ( 'NONE', #317, #287, #38 ) ;
#320 = CC_DESIGN_PERSON_AND_ORGANIZATION_ASSIGNMENT ( #366, #312, ( #269 ) ) ;
#321 = ADVANCED_FACE ( 'NONE', ( #143 ), #62, .T. ) ;
#322 = DIRECTION ( 'NONE',  ( -0.7071067811865469066, 2.468850131082251144E-15, -0.7071067811865479058 ) ) ;
#323 = EDGE_LOOP ( 'NONE', ( #130, #318, #184, #46 ) ) ;
#324 = CC_DESIGN_PERSON_AND_ORGANIZATION_ASSIGNMENT ( #228, #336, ( #359 ) ) ;
#325 = AXIS2_PLACEMENT_3D ( 'NONE', #237, #351, #216 ) ;
#326 = AXIS2_PLACEMENT_3D ( 'NONE', #120, #338, #311 ) ;
#327 = DIRECTION ( 'NONE',  ( -2.445468806185136597E-29, 3.491481338843145583E-15, 1.000000000000000000 ) ) ;
#328 = CARTESIAN_POINT ( 'NONE',  ( 0.05805000000000001131, -7.278341998952419824E-15, -1.968499999999999694 ) ) ;
#329 = DIRECTION ( 'NONE',  ( 1.000000000000000000, -6.982962677686266711E-15, 4.876176775795935793E-29 ) ) ;
#330 = CONICAL_SURFACE ( 'NONE', #181, 0.05805000000000001131, 0.7853981633973801113 ) ;
#331 = LOCAL_TIME ( 19, 2, 16.00000000000000000, #235 ) ;
#332 = FACE_OUTER_BOUND ( 'NONE', #323, .T. ) ;
#333 = FACE_OUTER_BOUND ( 'NONE', #345, .T. ) ;
#334 = DIRECTION ( 'NONE',  ( 1.000000000000000000, -6.982962677686266711E-15, 4.876176775795935793E-29 ) ) ;
#335 = CARTESIAN_POINT ( 'NONE',  ( 0.000000000000000000, 0.000000000000000000, 0.000000000000000000 ) ) ;
#336 = PERSON_AND_ORGANIZATION_ROLE ( 'design_owner' ) ;
#337 = CIRCLE ( 'NONE', #18, 0.03904999999999975158 ) ;
#338 = DIRECTION ( 'NONE',  ( -2.445468806185136597E-29, 3.491481338843145583E-15, 1.000000000000000000 ) ) ;
#339 = APPROVAL_PERSON_ORGANIZATION ( #283, #231, #147 ) ;
#340 = APPROVAL_DATE_TIME ( #255, #102 ) ;
#341 = ADVANCED_FACE ( 'NONE', ( #307 ), #153, .T. ) ;
#342 = APPROVAL_STATUS ( 'not_yet_approved' ) ;
#343 = CC_DESIGN_PERSON_AND_ORGANIZATION_ASSIGNMENT ( #32, #202, ( #249 ) ) ;
#344 = PERSON_AND_ORGANIZATION ( #230, #290 ) ;
#345 = EDGE_LOOP ( 'NONE', ( #45, #104, #188, #270 ) ) ;
#346 = DIRECTION ( 'NONE',  ( -2.445468806185136597E-29, 3.491481338843145583E-15, 1.000000000000000000 ) ) ;
#347 = CALENDAR_DATE ( 2024, 28, 2 ) ;
#348 = AXIS2_PLACEMENT_3D ( 'NONE', #152, #25, #146 ) ;
#349 = LINE ( 'NONE', #43, #14 ) ;
#350 = ORIENTED_EDGE ( 'NONE', *, *, #220, .T. ) ;
#351 = DIRECTION ( 'NONE',  ( -2.445468806185136597E-29, 3.491481338843145583E-15, 1.000000000000000000 ) ) ;
#352 = ORIENTED_EDGE ( 'NONE', *, *, #141, .T. ) ;
#353 = EDGE_CURVE ( 'NONE', #257, #292, #308, .T. ) ;
#354 = EDGE_LOOP ( 'NONE', ( #263, #11 ) ) ;
#355 = CLOSED_SHELL ( 'NONE', ( #286, #63, #54, #155 ) ) ;
#356 = VERTEX_POINT ( 'NONE', #52 ) ;
#357 = ADVANCED_FACE ( 'NONE', ( #162 ), #279, .F. ) ;
#358 = CARTESIAN_POINT ( 'NONE',  ( 1.357006838635785746E-45, -1.937446121494581442E-31, -5.549066237130534971E-17 ) ) ;
#359 = PRODUCT ( '49492', '49492', '', ( #254 ) ) ;
#360 = CARTESIAN_POINT ( 'NONE',  ( -0.05905000000000001914, 4.195754854663392958E-16, -2.904631170795522943E-30 ) ) ;
#361 = VECTOR ( 'NONE', #245, 39.37007874015748854 ) ;
#362 = DIRECTION ( 'NONE',  ( 1.000000000000000000, -6.982962677686265922E-15, 4.873707401586894073E-29 ) ) ;
#363 = PRODUCT_DEFINITION ( 'UNKNOWN', '', #249, #90 ) ;
#364 = CARTESIAN_POINT ( 'NONE',  ( 4.123439461174463121E-16, 0.05904999999998970101, -2.952799999999999869 ) ) ;
#365 = DIRECTION ( 'NONE',  ( 1.000000000000000000, -6.982962677686265922E-15, 4.876176775795935793E-29 ) ) ;
#366 = PERSON_AND_ORGANIZATION ( #230, #290 ) ;
ENDSEC;
END-ISO-10303-21;
