ISO-10303-21;
HEADER;
FILE_DESCRIPTION (( 'STEP AP203' ),
    '1' );
FILE_NAME ('49519.STEP',
    '2024-04-10T12:13:09',
    ( '' ),
    ( '' ),
    'SwSTEP 2.0',
    'SolidWorks 2023',
    '' );
FILE_SCHEMA (( 'CONFIG_CONTROL_DESIGN' ));
ENDSEC;

DATA;
#1 = VERTEX_POINT ( 'NONE', #250 ) ;
#2 = COORDINATED_UNIVERSAL_TIME_OFFSET ( 5, 0, .BEHIND. ) ;
#3 = CIRCLE ( 'NONE', #213, 0.07875000000000019484 ) ;
#4 = ORIENTED_EDGE ( 'NONE', *, *, #28, .T. ) ;
#5 = PERSON_AND_ORGANIZATION ( #399, #378 ) ;
#6 = CARTESIAN_POINT ( 'NONE',  ( -5.499083108677465071E-16, -0.07875000000000705047, -1.967499999999999361 ) ) ;
#7 = ORIENTED_EDGE ( 'NONE', *, *, #49, .T. ) ;
#8 = SECURITY_CLASSIFICATION ( '', '', #110 ) ;
#9 = ORIENTED_EDGE ( 'NONE', *, *, #39, .F. ) ;
#10 = CARTESIAN_POINT ( 'NONE',  ( 4.827955387920569283E-29, -6.852860554336525173E-15, -1.968499999999999694 ) ) ;
#11 = ORIENTED_EDGE ( 'NONE', *, *, #140, .F. ) ;
#12 = ORIENTED_EDGE ( 'NONE', *, *, #384, .F. ) ;
#13 = CARTESIAN_POINT ( 'NONE',  ( -9.274804227332096755E-46, 1.316477368405282982E-31, 3.781611604610710344E-17 ) ) ;
#14 = CIRCLE ( 'NONE', #214, 0.07875000000000000056 ) ;
#15 = VERTEX_POINT ( 'NONE', #52 ) ;
#16 =( NAMED_UNIT ( * ) PLANE_ANGLE_UNIT ( ) SI_UNIT ( $, .RADIAN. ) );
#17 = CARTESIAN_POINT ( 'NONE',  ( -5.499083108677941345E-16, -0.07875000000000009770, 2.741492347747026245E-16 ) ) ;
#18 = CC_DESIGN_PERSON_AND_ORGANIZATION_ASSIGNMENT ( #341, #185, ( #230 ) ) ;
#19 = CARTESIAN_POINT ( 'NONE',  ( 6.697279844502505818E-29, -1.050887431004219452E-14, -2.874049999999999994 ) ) ;
#20 = PLANE ( 'NONE',  #403 ) ;
#21 = PERSON_AND_ORGANIZATION_ROLE ( 'creator' ) ;
#22 = DIRECTION ( 'NONE',  ( 1.000000000000000000, -6.982962677686264344E-15, 0.000000000000000000 ) ) ;
#23 = CONICAL_SURFACE ( 'NONE', #290, 0.07875000000000000056, 0.7853981633974471688 ) ;
#24 = AXIS2_PLACEMENT_3D ( 'NONE', #81, #410, #26 ) ;
#25 = CARTESIAN_POINT ( 'NONE',  ( 4.827955387920569283E-29, -6.852860554336525173E-15, -1.968499999999999694 ) ) ;
#26 = DIRECTION ( 'NONE',  ( 6.982962677686264344E-15, 1.000000000000000000, -3.469013325287953293E-15 ) ) ;
#27 = CARTESIAN_POINT ( 'NONE',  ( 7.028399622416392066E-29, -1.003469194190214264E-14, -2.874049999999999994 ) ) ;
#28 = EDGE_CURVE ( 'NONE', #15, #1, #158, .T. ) ;
#29 = CYLINDRICAL_SURFACE ( 'NONE', #50, 0.07875000000000009770 ) ;
#30 = AXIS2_PLACEMENT_3D ( 'NONE', #13, #397, #220 ) ;
#31 = FACE_OUTER_BOUND ( 'NONE', #41, .T. ) ;
#32 = DIRECTION ( 'NONE',  ( -6.982962677686265922E-15, -1.000000000000000000, 3.469013325287944616E-15 ) ) ;
#33 = EDGE_CURVE ( 'NONE', #211, #98, #347, .T. ) ;
#34 = ORIENTED_EDGE ( 'NONE', *, *, #233, .F. ) ;
#35 = COORDINATED_UNIVERSAL_TIME_OFFSET ( 5, 0, .BEHIND. ) ;
#36 = DIRECTION ( 'NONE',  ( 2.452606242276133797E-29, -3.481260124123203654E-15, -1.000000000000000000 ) ) ;
#37 = AXIS2_PLACEMENT_3D ( 'NONE', #391, #306, #116 ) ;
#38 = AXIS2_PLACEMENT_3D ( 'NONE', #25, #362, #364 ) ;
#39 = EDGE_CURVE ( 'NONE', #136, #349, #96, .T. ) ;
#40 = DIRECTION ( 'NONE',  ( -2.445468806185136877E-29, 3.491481338843145188E-15, 1.000000000000000000 ) ) ;
#41 = EDGE_LOOP ( 'NONE', ( #179, #267, #323, #99 ) ) ;
#42 = PERSON_AND_ORGANIZATION ( #399, #378 ) ;
#43 = ORIENTED_EDGE ( 'NONE', *, *, #408, .F. ) ;
#44 = APPROVAL_DATE_TIME ( #212, #78 ) ;
#45 = ORIENTED_EDGE ( 'NONE', *, *, #170, .F. ) ;
#46 = ADVANCED_FACE ( 'NONE', ( #346 ), #60, .T. ) ;
#47 = LENGTH_MEASURE_WITH_UNIT ( LENGTH_MEASURE( 0.02539999999999999897 ), #371 );
#48 = DIRECTION ( 'NONE',  ( -6.982962677686265922E-15, -1.000000000000000000, 3.469013325287944616E-15 ) ) ;
#49 = EDGE_CURVE ( 'NONE', #98, #211, #3, .T. ) ;
#50 = AXIS2_PLACEMENT_3D ( 'NONE', #125, #402, #263 ) ;
#51 = CARTESIAN_POINT ( 'NONE',  ( -5.402642173245075938E-16, -0.07875000000000006994, -0.01999999999999974368 ) ) ;
#52 = CARTESIAN_POINT ( 'NONE',  ( 6.893227730253229354E-29, -1.077900641870445043E-14, -2.952800000000000313 ) ) ;
#53 = COORDINATED_UNIVERSAL_TIME_OFFSET ( 5, 0, .BEHIND. ) ;
#54 = DIRECTION ( 'NONE',  ( -2.445468806185136877E-29, 3.491481338843145188E-15, 1.000000000000000000 ) ) ;
#55 = CALENDAR_DATE ( 2024, 10, 4 ) ;
#56 = DIRECTION ( 'NONE',  ( 1.000000000000000000, -6.982962677686261977E-15, 0.000000000000000000 ) ) ;
#57 = CIRCLE ( 'NONE', #281, 0.05874999999999998973 ) ;
#58 = DIRECTION ( 'NONE',  ( -2.452606242276133797E-29, 3.481260124123203654E-15, 1.000000000000000000 ) ) ;
#59 = DIRECTION ( 'NONE',  ( 6.982962677686265922E-15, 1.000000000000000000, -3.481260124123204048E-15 ) ) ;
#60 = CYLINDRICAL_SURFACE ( 'NONE', #149, 0.07874999999999997280 ) ;
#61 = CC_DESIGN_PERSON_AND_ORGANIZATION_ASSIGNMENT ( #86, #21, ( #355 ) ) ;
#62 = CARTESIAN_POINT ( 'NONE',  ( 0.07874999999999997280, -9.003744789575230521E-15, -2.874049999999999994 ) ) ;
#63 = ORIENTED_EDGE ( 'NONE', *, *, #39, .T. ) ;
#64 = ORIENTED_EDGE ( 'NONE', *, *, #74, .F. ) ;
#65 = CARTESIAN_POINT ( 'NONE',  ( 0.07874999999999997280, -5.499083108677933457E-16, 3.839989210939298316E-30 ) ) ;
#66 = ORIENTED_EDGE ( 'NONE', *, *, #163, .F. ) ;
#67 = DATE_AND_TIME ( #103, #331 ) ;
#68 =( GEOMETRIC_REPRESENTATION_CONTEXT ( 3 ) GLOBAL_UNCERTAINTY_ASSIGNED_CONTEXT ( ( #319 ) ) GLOBAL_UNIT_ASSIGNED_CONTEXT ( ( #313, #16, #400 ) ) REPRESENTATION_CONTEXT ( 'NONE', 'WORKASPACE' ) );
#69 = VERTEX_POINT ( 'NONE', #167 ) ;
#70 = CARTESIAN_POINT ( 'NONE',  ( 4.825502781678292621E-29, -6.849379294212400691E-15, -1.967499999999999805 ) ) ;
#71 = VERTEX_POINT ( 'NONE', #295 ) ;
#72 = APPROVAL_ROLE ( '' ) ;
#73 = DIRECTION ( 'NONE',  ( -4.937700262164926695E-15, -0.7071067811865993091, 0.7071067811864956143 ) ) ;
#74 = EDGE_CURVE ( 'NONE', #356, #136, #411, .T. ) ;
#75 = CIRCLE ( 'NONE', #385, 0.07875000000000000056 ) ;
#76 = FACE_OUTER_BOUND ( 'NONE', #237, .T. ) ;
#77 = DIRECTION ( 'NONE',  ( 6.982962677686265133E-15, 1.000000000000000000, 0.000000000000000000 ) ) ;
#78 = APPROVAL ( #358, 'UNSPECIFIED' ) ;
#79 = DIRECTION ( 'NONE',  ( -2.452606242276134078E-29, 3.481260124123204048E-15, 1.000000000000000000 ) ) ;
#80 = AXIS2_PLACEMENT_3D ( 'NONE', #274, #334, #48 ) ;
#81 = CARTESIAN_POINT ( 'NONE',  ( 4.905212484552271764E-31, -6.962520248246412533E-17, -0.02000000000000001776 ) ) ;
#82 = AXIS2_PLACEMENT_3D ( 'NONE', #27, #224, #122 ) ;
#83 = ORIENTED_EDGE ( 'NONE', *, *, #233, .T. ) ;
#84 = CARTESIAN_POINT ( 'NONE',  ( 0.000000000000000000, 0.000000000000000000, 0.000000000000000000 ) ) ;
#85 = FACE_OUTER_BOUND ( 'NONE', #278, .T. ) ;
#86 = PERSON_AND_ORGANIZATION ( #399, #378 ) ;
#87 = LINE ( 'NONE', #256, #118 ) ;
#88 = ADVANCED_FACE ( 'NONE', ( #126 ), #23, .T. ) ;
#89 = CARTESIAN_POINT ( 'NONE',  ( 4.905212484552271764E-31, -6.962520248246412533E-17, -0.02000000000000001776 ) ) ;
#90 = VECTOR ( 'NONE', #54, 39.37007874015748143 ) ;
#91 = AXIS2_PLACEMENT_3D ( 'NONE', #19, #248, #148 ) ;
#92 = CARTESIAN_POINT ( 'NONE',  ( 4.102490573140680312E-16, 0.05874999999999998973, -1.856159742691845961E-16 ) ) ;
#93 = EDGE_CURVE ( 'NONE', #383, #211, #301, .T. ) ;
#94 = DIRECTION ( 'NONE',  ( -6.982962677686266711E-15, -1.000000000000000000, 3.513630860018346248E-15 ) ) ;
#95 = ORIENTED_EDGE ( 'NONE', *, *, #363, .F. ) ;
#96 = CIRCLE ( 'NONE', #377, 0.07875000000000000056 ) ;
#97 = CONICAL_SURFACE ( 'NONE', #206, 0.07774999999999997191, 0.7853981633975251064 ) ;
#98 = VERTEX_POINT ( 'NONE', #6 ) ;
#99 = ORIENTED_EDGE ( 'NONE', *, *, #207, .F. ) ;
#100 = EDGE_CURVE ( 'NONE', #98, #238, #382, .T. ) ;
#101 = DIMENSIONAL_EXPONENTS ( 1.000000000000000000, 0.000000000000000000, 0.000000000000000000, 0.000000000000000000, 0.000000000000000000, 0.000000000000000000, 0.000000000000000000 ) ;
#102 = EDGE_LOOP ( 'NONE', ( #63, #380 ) ) ;
#103 = CALENDAR_DATE ( 2024, 10, 4 ) ;
#104 = VECTOR ( 'NONE', #277, 39.37007874015748143 ) ;
#105 = CIRCLE ( 'NONE', #82, 0.07874999999999997280 ) ;
#106 = DIRECTION ( 'NONE',  ( -2.445468806185136597E-29, 3.491481338843145583E-15, 1.000000000000000000 ) ) ;
#107 = ORIENTED_EDGE ( 'NONE', *, *, #200, .T. ) ;
#108 = APPROVAL_DATE_TIME ( #67, #401 ) ;
#109 = LINE ( 'NONE', #365, #104 ) ;
#110 = SECURITY_CLASSIFICATION_LEVEL ( 'unclassified' ) ;
#111 = LINE ( 'NONE', #357, #392 ) ;
#112 = DATE_AND_TIME ( #55, #229 ) ;
#113 = APPLICATION_CONTEXT ( 'configuration controlled 3d designs of mechanical parts and assemblies' ) ;
#114 = AXIS2_PLACEMENT_3D ( 'NONE', #222, #190, #369 ) ;
#115 = ADVANCED_FACE ( 'NONE', ( #76 ), #142, .T. ) ;
#116 = DIRECTION ( 'NONE',  ( -6.982962677686265922E-15, -1.000000000000000000, 3.481260124123204048E-15 ) ) ;
#117 = DIRECTION ( 'NONE',  ( 1.000000000000000000, 0.000000000000000000, 0.000000000000000000 ) ) ;
#118 = VECTOR ( 'NONE', #120, 39.37007874015748143 ) ;
#119 = APPLICATION_PROTOCOL_DEFINITION ( 'international standard', 'config_control_design', 1994, #304 ) ;
#120 = DIRECTION ( 'NONE',  ( 4.937700262164541731E-15, 0.7071067811865442421, -0.7071067811865507924 ) ) ;
#121 = EDGE_CURVE ( 'NONE', #211, #348, #109, .T. ) ;
#122 = DIRECTION ( 'NONE',  ( 1.000000000000000000, -6.982962677686264344E-15, 0.000000000000000000 ) ) ;
#123 = FACE_OUTER_BOUND ( 'NONE', #132, .T. ) ;
#124 = EDGE_CURVE ( 'NONE', #71, #238, #217, .T. ) ;
#125 = CARTESIAN_POINT ( 'NONE',  ( 0.000000000000000000, 0.000000000000000000, 0.000000000000000000 ) ) ;
#126 = FACE_OUTER_BOUND ( 'NONE', #216, .T. ) ;
#127 = ORIENTED_EDGE ( 'NONE', *, *, #124, .F. ) ;
#128 = DATE_TIME_ROLE ( 'classification_date' ) ;
#129 = VECTOR ( 'NONE', #40, 39.37007874015748143 ) ;
#130 = CC_DESIGN_APPROVAL ( #78, ( #8 ) ) ;
#131 = DIRECTION ( 'NONE',  ( 5.024295867788447354E-15, 0.7071067811866040831, 0.7071067811864907293 ) ) ;
#132 = EDGE_LOOP ( 'NONE', ( #175, #242 ) ) ;
#133 = MANIFOLD_SOLID_BREP ( 'Body-Move/Copy2[1]', #352 ) ;
#134 = ORIENTED_EDGE ( 'NONE', *, *, #252, .T. ) ;
#135 = MANIFOLD_SOLID_BREP ( 'Body-Move/Copy2[2]', #254 ) ;
#136 = VERTEX_POINT ( 'NONE', #178 ) ;
#137 = CALENDAR_DATE ( 2024, 10, 4 ) ;
#138 = AXIS2_PLACEMENT_3D ( 'NONE', #193, #195, #22 ) ;
#139 = DIRECTION ( 'NONE',  ( -2.452606242276133797E-29, 3.481260124123203654E-15, 1.000000000000000000 ) ) ;
#140 = EDGE_CURVE ( 'NONE', #272, #98, #111, .T. ) ;
#141 = CONICAL_SURFACE ( 'NONE', #38, 0.07774999999999997191, 0.7853981633975251064 ) ;
#142 = CYLINDRICAL_SURFACE ( 'NONE', #227, 0.07874999999999997280 ) ;
#143 = DIRECTION ( 'NONE',  ( 1.000000000000000000, -6.982962677686265922E-15, 4.883557194083112340E-29 ) ) ;
#144 = APPROVAL_ROLE ( '' ) ;
#145 = DIRECTION ( 'NONE',  ( -6.982962677686266711E-15, -1.000000000000000000, 3.513630860018346248E-15 ) ) ;
#146 = CARTESIAN_POINT ( 'NONE',  ( 4.827955387920569283E-29, -6.852860554336525173E-15, -1.968499999999999694 ) ) ;
#147 = ORIENTED_EDGE ( 'NONE', *, *, #318, .T. ) ;
#148 = DIRECTION ( 'NONE',  ( 6.982962677686265922E-15, 1.000000000000000000, -6.938026650575894754E-15 ) ) ;
#149 = AXIS2_PLACEMENT_3D ( 'NONE', #322, #106, #236 ) ;
#150 = CARTESIAN_POINT ( 'NONE',  ( 0.000000000000000000, 0.000000000000000000, 0.000000000000000000 ) ) ;
#151 = CC_DESIGN_PERSON_AND_ORGANIZATION_ASSIGNMENT ( #42, #329, ( #8 ) ) ;
#152 = CARTESIAN_POINT ( 'NONE',  ( -9.274804227332096755E-46, 1.316477368405282982E-31, 3.781611604610710344E-17 ) ) ;
#153 = DIRECTION ( 'NONE',  ( -2.445468806185136597E-29, 3.491481338843145583E-15, 1.000000000000000000 ) ) ;
#154 = EDGE_LOOP ( 'NONE', ( #134, #328, #296, #11 ) ) ;
#155 = DIRECTION ( 'NONE',  ( -1.000000000000000000, 6.982962677686265922E-15, -4.876176775795935793E-29 ) ) ;
#156 = CARTESIAN_POINT ( 'NONE',  ( 5.559996907323272070E-16, 0.07774999999999313016, -1.968500000000000139 ) ) ;
#157 = ADVANCED_FACE ( 'NONE', ( #245 ), #182, .F. ) ;
#158 = CIRCLE ( 'NONE', #186, 0.07875000000000013933 ) ;
#159 = CARTESIAN_POINT ( 'NONE',  ( 6.697279844502505818E-29, -1.050887431004219452E-14, -2.874049999999999994 ) ) ;
#160 = CARTESIAN_POINT ( 'NONE',  ( 7.028399622416392066E-29, -1.003469194190214264E-14, -2.874049999999999994 ) ) ;
#161 = PRODUCT_DEFINITION_SHAPE ( 'NONE', 'NONE',  #355 ) ;
#162 = DIRECTION ( 'NONE',  ( 2.438088387897960049E-29, -3.491481338843145188E-15, -1.000000000000000000 ) ) ;
#163 = EDGE_CURVE ( 'NONE', #71, #69, #336, .T. ) ;
#164 = CARTESIAN_POINT ( 'NONE',  ( -0.07874999999999997280, 5.595524044110787031E-16, -3.873661383575737091E-30 ) ) ;
#165 = PRODUCT_DEFINITION_FORMATION_WITH_SPECIFIED_SOURCE ( 'ANY', '', #230, .NOT_KNOWN. ) ;
#166 = CARTESIAN_POINT ( 'NONE',  ( -0.07875000000000000056, -7.894284074296357585E-15, -1.968499999999999694 ) ) ;
#167 = CARTESIAN_POINT ( 'NONE',  ( 4.800786840909309350E-16, 0.05874999999999998973, -1.667079162461311122E-16 ) ) ;
#168 = FACE_OUTER_BOUND ( 'NONE', #154, .T. ) ;
#169 = ORIENTED_EDGE ( 'NONE', *, *, #74, .T. ) ;
#170 = EDGE_CURVE ( 'NONE', #349, #136, #280, .T. ) ;
#171 = DIRECTION ( 'NONE',  ( 6.982962677686264344E-15, 1.000000000000000000, -3.469013325287953293E-15 ) ) ;
#172 = EDGE_LOOP ( 'NONE', ( #223, #394, #218, #43 ) ) ;
#173 = VECTOR ( 'NONE', #131, 39.37007874015748854 ) ;
#174 = CARTESIAN_POINT ( 'NONE',  ( 4.905212484552271764E-31, -6.962520248246412533E-17, -0.02000000000000001776 ) ) ;
#175 = ORIENTED_EDGE ( 'NONE', *, *, #384, .T. ) ;
#176 = EDGE_CURVE ( 'NONE', #356, #1, #205, .T. ) ;
#177 = ORIENTED_EDGE ( 'NONE', *, *, #140, .T. ) ;
#178 = CARTESIAN_POINT ( 'NONE',  ( 0.07875000000000000056, -7.422889326380523475E-15, -1.968499999999999694 ) ) ;
#179 = ORIENTED_EDGE ( 'NONE', *, *, #121, .F. ) ;
#180 = COORDINATED_UNIVERSAL_TIME_OFFSET ( 5, 0, .BEHIND. ) ;
#181 = CIRCLE ( 'NONE', #114, 0.07774999999999997191 ) ;
#182 = PLANE ( 'NONE',  #37 ) ;
#183 = EDGE_CURVE ( 'NONE', #376, #349, #342, .T. ) ;
#184 = DIRECTION ( 'NONE',  ( 1.000000000000000000, -6.982962677686267499E-15, 4.876176775795935793E-29 ) ) ;
#185 = PERSON_AND_ORGANIZATION_ROLE ( 'design_owner' ) ;
#186 = AXIS2_PLACEMENT_3D ( 'NONE', #361, #143, #77 ) ;
#187 = CIRCLE ( 'NONE', #241, 0.07874999999999997280 ) ;
#188 = CARTESIAN_POINT ( 'NONE',  ( 4.813905344975440714E-29, -6.872981015512730918E-15, -1.968499999999999694 ) ) ;
#189 = APPROVAL_ROLE ( '' ) ;
#190 = DIRECTION ( 'NONE',  ( -2.452606242276133797E-29, 3.481260124123203654E-15, 1.000000000000000000 ) ) ;
#191 = ADVANCED_FACE ( 'NONE', ( #404 ), #29, .T. ) ;
#192 = CALENDAR_DATE ( 2024, 10, 4 ) ;
#193 = CARTESIAN_POINT ( 'NONE',  ( 7.028399622416392066E-29, -1.003469194190214264E-14, -2.874049999999999994 ) ) ;
#194 = CARTESIAN_POINT ( 'NONE',  ( 7.028399622416392066E-29, -1.003469194190214264E-14, -2.874049999999999994 ) ) ;
#195 = DIRECTION ( 'NONE',  ( -2.445468806185136597E-29, 3.491481338843145583E-15, 1.000000000000000000 ) ) ;
#196 = LOCAL_TIME ( 8, 13, 9.000000000000000000, #180 ) ;
#197 = FACE_OUTER_BOUND ( 'NONE', #102, .T. ) ;
#198 = CIRCLE ( 'NONE', #409, 0.07774999999999997191 ) ;
#199 = EDGE_LOOP ( 'NONE', ( #7, #235, #340, #269 ) ) ;
#200 = EDGE_CURVE ( 'NONE', #376, #321, #105, .T. ) ;
#201 = EDGE_LOOP ( 'NONE', ( #350, #239, #177, #387 ) ) ;
#202 = DATE_TIME_ROLE ( 'creation_date' ) ;
#203 = ORIENTED_EDGE ( 'NONE', *, *, #124, .T. ) ;
#204 = PERSON_AND_ORGANIZATION_ROLE ( 'creator' ) ;
#205 = CIRCLE ( 'NONE', #138, 0.07874999999999997280 ) ;
#206 = AXIS2_PLACEMENT_3D ( 'NONE', #10, #139, #145 ) ;
#207 = EDGE_CURVE ( 'NONE', #348, #238, #75, .T. ) ;
#208 = ORIENTED_EDGE ( 'NONE', *, *, #300, .F. ) ;
#209 = DIRECTION ( 'NONE',  ( -4.851104656540957964E-15, -0.7071067811865491270, -0.7071067811865459074 ) ) ;
#210 = ORIENTED_EDGE ( 'NONE', *, *, #307, .T. ) ;
#211 = VERTEX_POINT ( 'NONE', #232 ) ;
#212 = DATE_AND_TIME ( #137, #315 ) ;
#213 = AXIS2_PLACEMENT_3D ( 'NONE', #70, #386, #32 ) ;
#214 = AXIS2_PLACEMENT_3D ( 'NONE', #226, #58, #258 ) ;
#215 = CARTESIAN_POINT ( 'NONE',  ( -5.402642173245075938E-16, -0.07875000000000006994, -0.01999999999999974368 ) ) ;
#216 = EDGE_LOOP ( 'NONE', ( #66, #203, #147, #354 ) ) ;
#217 = LINE ( 'NONE', #215, #297 ) ;
#218 = ORIENTED_EDGE ( 'NONE', *, *, #200, .F. ) ;
#219 = SPHERICAL_SURFACE ( 'NONE', #91, 0.07875000000000013933 ) ;
#220 = DIRECTION ( 'NONE',  ( -6.982962677686265922E-15, -1.000000000000000000, 3.481260124123203654E-15 ) ) ;
#221 = AXIS2_PLACEMENT_3D ( 'NONE', #92, #345, #59 ) ;
#222 = CARTESIAN_POINT ( 'NONE',  ( 4.827955387920569283E-29, -6.852860554336525173E-15, -1.968499999999999694 ) ) ;
#223 = ORIENTED_EDGE ( 'NONE', *, *, #28, .F. ) ;
#224 = DIRECTION ( 'NONE',  ( -2.445468806185136597E-29, 3.491481338843145583E-15, 1.000000000000000000 ) ) ;
#225 = COORDINATED_UNIVERSAL_TIME_OFFSET ( 5, 0, .BEHIND. ) ;
#226 = CARTESIAN_POINT ( 'NONE',  ( 4.905212484552271764E-31, -6.962520248246412533E-17, -0.02000000000000001776 ) ) ;
#227 = AXIS2_PLACEMENT_3D ( 'NONE', #150, #153, #184 ) ;
#228 = FACE_OUTER_BOUND ( 'NONE', #366, .T. ) ;
#229 = LOCAL_TIME ( 8, 13, 9.000000000000000000, #225 ) ;
#230 = PRODUCT ( '49519', '49519', '', ( #368 ) ) ;
#231 = CC_DESIGN_PERSON_AND_ORGANIZATION_ASSIGNMENT ( #270, #351, ( #165 ) ) ;
#232 = CARTESIAN_POINT ( 'NONE',  ( 5.595524044111042425E-16, 0.07874999999999335309, -1.967500000000000027 ) ) ;
#233 = EDGE_CURVE ( 'NONE', #321, #356, #187, .T. ) ;
#234 = AXIS2_PLACEMENT_3D ( 'NONE', #159, #289, #312 ) ;
#235 = ORIENTED_EDGE ( 'NONE', *, *, #121, .T. ) ;
#236 = DIRECTION ( 'NONE',  ( 1.000000000000000000, -6.982962677686267499E-15, 4.876176775795935793E-29 ) ) ;
#237 = EDGE_LOOP ( 'NONE', ( #330, #107, #83, #169, #45 ) ) ;
#238 = VERTEX_POINT ( 'NONE', #51 ) ;
#239 = ORIENTED_EDGE ( 'NONE', *, *, #363, .T. ) ;
#240 = PERSON_AND_ORGANIZATION ( #399, #378 ) ;
#241 = AXIS2_PLACEMENT_3D ( 'NONE', #160, #372, #292 ) ;
#242 = ORIENTED_EDGE ( 'NONE', *, *, #163, .T. ) ;
#243 = SHAPE_DEFINITION_REPRESENTATION ( #161, #327 ) ;
#244 = DATE_AND_TIME ( #303, #196 ) ;
#245 = FACE_OUTER_BOUND ( 'NONE', #326, .T. ) ;
#246 = ADVANCED_FACE ( 'NONE', ( #85 ), #261, .T. ) ;
#247 = VECTOR ( 'NONE', #79, 39.37007874015748143 ) ;
#248 = DIRECTION ( 'NONE',  ( -1.000000000000000000, 6.982962677686265922E-15, -4.883557194083112901E-29 ) ) ;
#249 = AXIS2_PLACEMENT_3D ( 'NONE', #332, #360, #396 ) ;
#250 = CARTESIAN_POINT ( 'NONE',  ( 5.499083108678623710E-16, 0.07874999999998978650, -2.874050000000000438 ) ) ;
#251 = DIRECTION ( 'NONE',  ( 0.000000000000000000, 0.000000000000000000, 1.000000000000000000 ) ) ;
#252 = EDGE_CURVE ( 'NONE', #272, #383, #181, .T. ) ;
#253 = ORIENTED_EDGE ( 'NONE', *, *, #176, .F. ) ;
#254 = CLOSED_SHELL ( 'NONE', ( #370, #191, #88, #246, #374, #379, #157, #324 ) ) ;
#255 = APPROVAL_PERSON_ORGANIZATION ( #5, #78, #72 ) ;
#256 = CARTESIAN_POINT ( 'NONE',  ( 5.499083108677938387E-16, 0.07874999999999993117, -0.02000000000000029185 ) ) ;
#257 = DATE_AND_TIME ( #192, #367 ) ;
#258 = DIRECTION ( 'NONE',  ( -6.982962677686264344E-15, -1.000000000000000000, 3.469013325287953293E-15 ) ) ;
#259 = ADVANCED_FACE ( 'NONE', ( #197 ), #20, .F. ) ;
#260 = PLANE ( 'NONE',  #221 ) ;
#261 = CONICAL_SURFACE ( 'NONE', #24, 0.07875000000000000056, 0.7853981633974471688 ) ;
#262 = DIRECTION ( 'NONE',  ( 1.000000000000000000, -6.982962677686261977E-15, 0.000000000000000000 ) ) ;
#263 = DIRECTION ( 'NONE',  ( -6.982962677686265922E-15, -1.000000000000000000, 3.481260124123203654E-15 ) ) ;
#264 = CC_DESIGN_DATE_AND_TIME_ASSIGNMENT ( #112, #202, ( #355 ) ) ;
#265 = ORIENTED_EDGE ( 'NONE', *, *, #408, .T. ) ;
#266 = CC_DESIGN_APPROVAL ( #412, ( #355 ) ) ;
#267 = ORIENTED_EDGE ( 'NONE', *, *, #33, .T. ) ;
#268 = ORIENTED_EDGE ( 'NONE', *, *, #252, .F. ) ;
#269 = ORIENTED_EDGE ( 'NONE', *, *, #100, .F. ) ;
#270 = PERSON_AND_ORGANIZATION ( #399, #378 ) ;
#271 = AXIS2_PLACEMENT_3D ( 'NONE', #188, #284, #56 ) ;
#272 = VERTEX_POINT ( 'NONE', #375 ) ;
#273 = AXIS2_PLACEMENT_3D ( 'NONE', #405, #373, #344 ) ;
#274 = CARTESIAN_POINT ( 'NONE',  ( 4.825502781678292621E-29, -6.849379294212400691E-15, -1.967499999999999805 ) ) ;
#275 = CYLINDRICAL_SURFACE ( 'NONE', #249, 0.07875000000000009770 ) ;
#276 = DIRECTION ( 'NONE',  ( -2.445468806185136597E-29, 3.491481338843145583E-15, 1.000000000000000000 ) ) ;
#277 = DIRECTION ( 'NONE',  ( -2.452606242276134078E-29, 3.481260124123204048E-15, 1.000000000000000000 ) ) ;
#278 = EDGE_LOOP ( 'NONE', ( #127, #12, #210, #302 ) ) ;
#279 = DESIGN_CONTEXT ( 'detailed design', #113, 'design' ) ;
#280 = CIRCLE ( 'NONE', #271, 0.07875000000000000056 ) ;
#281 = AXIS2_PLACEMENT_3D ( 'NONE', #152, #285, #335 ) ;
#282 = ADVANCED_FACE ( 'NONE', ( #228 ), #287, .T. ) ;
#283 = PERSON_AND_ORGANIZATION ( #399, #378 ) ;
#284 = DIRECTION ( 'NONE',  ( -2.445468806185136597E-29, 3.491481338843145583E-15, 1.000000000000000000 ) ) ;
#285 = DIRECTION ( 'NONE',  ( -2.452606242276133797E-29, 3.481260124123203654E-15, 1.000000000000000000 ) ) ;
#286 = AXIS2_PLACEMENT_3D ( 'NONE', #194, #276, #398 ) ;
#287 = SPHERICAL_SURFACE ( 'NONE', #234, 0.07875000000000013933 ) ;
#288 = CARTESIAN_POINT ( 'NONE',  ( 5.499083108678415648E-16, 0.07874999999999311717, -1.968500000000000139 ) ) ;
#289 = DIRECTION ( 'NONE',  ( -1.000000000000000000, 6.982962677686265922E-15, -4.883557194083112901E-29 ) ) ;
#290 = AXIS2_PLACEMENT_3D ( 'NONE', #174, #36, #171 ) ;
#291 = CIRCLE ( 'NONE', #286, 0.07874999999999997280 ) ;
#292 = DIRECTION ( 'NONE',  ( 1.000000000000000000, -6.982962677686264344E-15, 0.000000000000000000 ) ) ;
#293 = PRODUCT_RELATED_PRODUCT_CATEGORY ( 'detail', '', ( #230 ) ) ;
#294 = DIRECTION ( 'NONE',  ( -2.452606242276133797E-29, 3.481260124123203654E-15, 1.000000000000000000 ) ) ;
#295 = CARTESIAN_POINT ( 'NONE',  ( -4.716592373467924596E-16, -0.05874999999999998973, 2.423401483383452944E-16 ) ) ;
#296 = ORIENTED_EDGE ( 'NONE', *, *, #49, .F. ) ;
#297 = VECTOR ( 'NONE', #209, 39.37007874015748143 ) ;
#298 = CARTESIAN_POINT ( 'NONE',  ( 5.524469770535259141E-16, 0.07774999999999313016, -1.968500000000000139 ) ) ;
#299 = ORIENTED_EDGE ( 'NONE', *, *, #176, .T. ) ;
#300 = EDGE_CURVE ( 'NONE', #15, #321, #353, .T. ) ;
#301 = LINE ( 'NONE', #298, #173 ) ;
#302 = ORIENTED_EDGE ( 'NONE', *, *, #207, .T. ) ;
#303 = CALENDAR_DATE ( 2024, 10, 4 ) ;
#304 = APPLICATION_CONTEXT ( 'configuration controlled 3d designs of mechanical parts and assemblies' ) ;
#305 = EDGE_LOOP ( 'NONE', ( #265, #381, #9, #64, #299 ) ) ;
#306 = DIRECTION ( 'NONE',  ( -2.452606242276133237E-29, 3.481260124123204048E-15, 1.000000000000000000 ) ) ;
#307 = EDGE_CURVE ( 'NONE', #69, #348, #87, .T. ) ;
#308 = CARTESIAN_POINT ( 'NONE',  ( 4.813905344975440714E-29, -6.872981015512730918E-15, -1.968499999999999694 ) ) ;
#309 = FACE_OUTER_BOUND ( 'NONE', #201, .T. ) ;
#310 = CARTESIAN_POINT ( 'NONE',  ( -0.07874999999999997280, -7.894284074296357585E-15, -2.874049999999999994 ) ) ;
#311 = APPROVAL_DATE_TIME ( #257, #412 ) ;
#312 = DIRECTION ( 'NONE',  ( 6.982962677686265922E-15, 1.000000000000000000, -6.938026650575894754E-15 ) ) ;
#313 =( CONVERSION_BASED_UNIT ( 'INCH', #47 ) LENGTH_UNIT ( ) NAMED_UNIT ( #101 ) );
#314 = CC_DESIGN_DATE_AND_TIME_ASSIGNMENT ( #244, #128, ( #8 ) ) ;
#315 = LOCAL_TIME ( 8, 13, 9.000000000000000000, #2 ) ;
#316 = DIRECTION ( 'NONE',  ( -2.452606242276133797E-29, 3.481260124123203654E-15, 1.000000000000000000 ) ) ;
#317 = CARTESIAN_POINT ( 'NONE',  ( 5.499083108677938387E-16, 0.07874999999999993117, -0.02000000000000029185 ) ) ;
#318 = EDGE_CURVE ( 'NONE', #238, #348, #14, .T. ) ;
#319 = UNCERTAINTY_MEASURE_WITH_UNIT (LENGTH_MEASURE( 1.000000000000000082E-05 ), #313, 'distance_accuracy_value', 'NONE');
#320 = AXIS2_PLACEMENT_3D ( 'NONE', #84, #251, #117 ) ;
#321 = VERTEX_POINT ( 'NONE', #406 ) ;
#322 = CARTESIAN_POINT ( 'NONE',  ( 0.000000000000000000, 0.000000000000000000, 0.000000000000000000 ) ) ;
#323 = ORIENTED_EDGE ( 'NONE', *, *, #100, .T. ) ;
#324 = ADVANCED_FACE ( 'NONE', ( #123 ), #260, .F. ) ;
#325 = CC_DESIGN_APPROVAL ( #401, ( #165 ) ) ;
#326 = EDGE_LOOP ( 'NONE', ( #268, #95 ) ) ;
#327 = ADVANCED_BREP_SHAPE_REPRESENTATION ( '49519', ( #133, #135, #320 ), #68 ) ;
#328 = ORIENTED_EDGE ( 'NONE', *, *, #93, .T. ) ;
#329 = PERSON_AND_ORGANIZATION_ROLE ( 'classification_officer' ) ;
#330 = ORIENTED_EDGE ( 'NONE', *, *, #183, .F. ) ;
#331 = LOCAL_TIME ( 8, 13, 9.000000000000000000, #35 ) ;
#332 = CARTESIAN_POINT ( 'NONE',  ( 0.000000000000000000, 0.000000000000000000, 0.000000000000000000 ) ) ;
#333 = FACE_OUTER_BOUND ( 'NONE', #172, .T. ) ;
#334 = DIRECTION ( 'NONE',  ( -2.452606242276133797E-29, 3.481260124123203654E-15, 1.000000000000000000 ) ) ;
#335 = DIRECTION ( 'NONE',  ( -6.982962677686265922E-15, -1.000000000000000000, 3.481260124123203654E-15 ) ) ;
#336 = CIRCLE ( 'NONE', #30, 0.05874999999999998973 ) ;
#337 = APPROVAL_PERSON_ORGANIZATION ( #283, #412, #189 ) ;
#338 = APPROVAL_STATUS ( 'not_yet_approved' ) ;
#339 = DIRECTION ( 'NONE',  ( -6.982962677686264344E-15, -1.000000000000000000, 3.469013325287953293E-15 ) ) ;
#340 = ORIENTED_EDGE ( 'NONE', *, *, #318, .F. ) ;
#341 = PERSON_AND_ORGANIZATION ( #399, #378 ) ;
#342 = LINE ( 'NONE', #164, #90 ) ;
#343 = CC_DESIGN_PERSON_AND_ORGANIZATION_ASSIGNMENT ( #240, #204, ( #165 ) ) ;
#344 = DIRECTION ( 'NONE',  ( -7.105427357600999492E-15, -1.000000000000000000, 0.000000000000000000 ) ) ;
#345 = DIRECTION ( 'NONE',  ( 2.452606242276133237E-29, -3.481260124123204048E-15, -1.000000000000000000 ) ) ;
#346 = FACE_OUTER_BOUND ( 'NONE', #305, .T. ) ;
#347 = CIRCLE ( 'NONE', #80, 0.07875000000000019484 ) ;
#348 = VERTEX_POINT ( 'NONE', #317 ) ;
#349 = VERTEX_POINT ( 'NONE', #166 ) ;
#350 = ORIENTED_EDGE ( 'NONE', *, *, #93, .F. ) ;
#351 = PERSON_AND_ORGANIZATION_ROLE ( 'design_supplier' ) ;
#352 = CLOSED_SHELL ( 'NONE', ( #46, #393, #282, #259, #115 ) ) ;
#353 = CIRCLE ( 'NONE', #273, 0.07875000000000013933 ) ;
#354 = ORIENTED_EDGE ( 'NONE', *, *, #307, .F. ) ;
#355 = PRODUCT_DEFINITION ( 'UNKNOWN', '', #165, #279 ) ;
#356 = VERTEX_POINT ( 'NONE', #62 ) ;
#357 = CARTESIAN_POINT ( 'NONE',  ( -5.429253481900587179E-16, -0.07775000000000682754, -1.968499999999999472 ) ) ;
#358 = APPROVAL_STATUS ( 'not_yet_approved' ) ;
#359 = CC_DESIGN_SECURITY_CLASSIFICATION ( #8, ( #165 ) ) ;
#360 = DIRECTION ( 'NONE',  ( -2.452606242276133797E-29, 3.481260124123203654E-15, 1.000000000000000000 ) ) ;
#361 = CARTESIAN_POINT ( 'NONE',  ( 6.697279844502505818E-29, -1.050887431004219452E-14, -2.874049999999999994 ) ) ;
#362 = DIRECTION ( 'NONE',  ( -2.452606242276133797E-29, 3.481260124123203654E-15, 1.000000000000000000 ) ) ;
#363 = EDGE_CURVE ( 'NONE', #383, #272, #198, .T. ) ;
#364 = DIRECTION ( 'NONE',  ( -6.982962677686266711E-15, -1.000000000000000000, 3.513630860018346248E-15 ) ) ;
#365 = CARTESIAN_POINT ( 'NONE',  ( 5.595524044110794920E-16, 0.07875000000000009770, -2.741492347747026245E-16 ) ) ;
#366 = EDGE_LOOP ( 'NONE', ( #208, #4, #253, #34 ) ) ;
#367 = LOCAL_TIME ( 8, 13, 9.000000000000000000, #53 ) ;
#368 = MECHANICAL_CONTEXT ( 'NONE', #304, 'mechanical' ) ;
#369 = DIRECTION ( 'NONE',  ( -6.982962677686266711E-15, -1.000000000000000000, 3.513630860018346248E-15 ) ) ;
#370 = ADVANCED_FACE ( 'NONE', ( #168 ), #97, .T. ) ;
#371 =( LENGTH_UNIT ( ) NAMED_UNIT ( * ) SI_UNIT ( $, .METRE. ) );
#372 = DIRECTION ( 'NONE',  ( -2.445468806185136597E-29, 3.491481338843145583E-15, 1.000000000000000000 ) ) ;
#373 = DIRECTION ( 'NONE',  ( -1.000000000000000000, 7.105427357601001070E-15, -4.926315508542082329E-29 ) ) ;
#374 = ADVANCED_FACE ( 'NONE', ( #31 ), #275, .T. ) ;
#375 = CARTESIAN_POINT ( 'NONE',  ( -5.429253481900587179E-16, -0.07775000000000682754, -1.968499999999999472 ) ) ;
#376 = VERTEX_POINT ( 'NONE', #310 ) ;
#377 = AXIS2_PLACEMENT_3D ( 'NONE', #308, #407, #262 ) ;
#378 = ORGANIZATION ( 'UNSPECIFIED', 'UNSPECIFIED', '' ) ;
#379 = ADVANCED_FACE ( 'NONE', ( #309 ), #141, .T. ) ;
#380 = ORIENTED_EDGE ( 'NONE', *, *, #170, .T. ) ;
#381 = ORIENTED_EDGE ( 'NONE', *, *, #183, .T. ) ;
#382 = LINE ( 'NONE', #17, #247 ) ;
#383 = VERTEX_POINT ( 'NONE', #156 ) ;
#384 = EDGE_CURVE ( 'NONE', #69, #71, #57, .T. ) ;
#385 = AXIS2_PLACEMENT_3D ( 'NONE', #89, #316, #339 ) ;
#386 = DIRECTION ( 'NONE',  ( -2.452606242276133797E-29, 3.481260124123203654E-15, 1.000000000000000000 ) ) ;
#387 = ORIENTED_EDGE ( 'NONE', *, *, #33, .F. ) ;
#388 = APPROVAL_STATUS ( 'not_yet_approved' ) ;
#389 = PERSON_AND_ORGANIZATION ( #399, #378 ) ;
#390 = APPLICATION_PROTOCOL_DEFINITION ( 'international standard', 'config_control_design', 1994, #113 ) ;
#391 = CARTESIAN_POINT ( 'NONE',  ( 4.827955387920569283E-29, -6.852860554336525173E-15, -1.968499999999999694 ) ) ;
#392 = VECTOR ( 'NONE', #73, 39.37007874015748854 ) ;
#393 = ADVANCED_FACE ( 'NONE', ( #333 ), #219, .T. ) ;
#394 = ORIENTED_EDGE ( 'NONE', *, *, #300, .T. ) ;
#395 = APPROVAL_PERSON_ORGANIZATION ( #389, #401, #144 ) ;
#396 = DIRECTION ( 'NONE',  ( -6.982962677686265922E-15, -1.000000000000000000, 3.481260124123203654E-15 ) ) ;
#397 = DIRECTION ( 'NONE',  ( -2.452606242276133797E-29, 3.481260124123203654E-15, 1.000000000000000000 ) ) ;
#398 = DIRECTION ( 'NONE',  ( 1.000000000000000000, -6.982962677686264344E-15, 0.000000000000000000 ) ) ;
#399 = PERSON ( 'UNSPECIFIED', 'UNSPECIFIED', 'UNSPECIFIED', ('UNSPECIFIED'), ('UNSPECIFIED'), ('UNSPECIFIED') ) ;
#400 =( NAMED_UNIT ( * ) SI_UNIT ( $, .STERADIAN. ) SOLID_ANGLE_UNIT ( ) );
#401 = APPROVAL ( #388, 'UNSPECIFIED' ) ;
#402 = DIRECTION ( 'NONE',  ( -2.452606242276133797E-29, 3.481260124123203654E-15, 1.000000000000000000 ) ) ;
#403 = AXIS2_PLACEMENT_3D ( 'NONE', #288, #162, #155 ) ;
#404 = FACE_OUTER_BOUND ( 'NONE', #199, .T. ) ;
#405 = CARTESIAN_POINT ( 'NONE',  ( 6.697279844502505818E-29, -1.050887431004219452E-14, -2.874049999999999994 ) ) ;
#406 = CARTESIAN_POINT ( 'NONE',  ( -5.595524044110105652E-16, -0.07875000000001032563, -2.874049999999999550 ) ) ;
#407 = DIRECTION ( 'NONE',  ( -2.445468806185136597E-29, 3.491481338843145583E-15, 1.000000000000000000 ) ) ;
#408 = EDGE_CURVE ( 'NONE', #1, #376, #291, .T. ) ;
#409 = AXIS2_PLACEMENT_3D ( 'NONE', #146, #294, #94 ) ;
#410 = DIRECTION ( 'NONE',  ( 2.452606242276133797E-29, -3.481260124123203654E-15, -1.000000000000000000 ) ) ;
#411 = LINE ( 'NONE', #65, #129 ) ;
#412 = APPROVAL ( #338, 'UNSPECIFIED' ) ;
ENDSEC;
END-ISO-10303-21;
