ISO-10303-21;
HEADER;
FILE_DESCRIPTION (( 'STEP AP203' ),
    '1' );
FILE_NAME ('49566.STEP',
    '2024-04-10T12:25:58',
    ( '' ),
    ( '' ),
    'SwSTEP 2.0',
    'SolidWorks 2023',
    '' );
FILE_SCHEMA (( 'CONFIG_CONTROL_DESIGN' ));
ENDSEC;

DATA;
#1 = AXIS2_PLACEMENT_3D ( 'NONE', #364, #89, #44 ) ;
#2 = DATE_AND_TIME ( #385, #52 ) ;
#3 = ORIENTED_EDGE ( 'NONE', *, *, #88, .F. ) ;
#4 = DATE_AND_TIME ( #81, #110 ) ;
#5 = VERTEX_POINT ( 'NONE', #102 ) ;
#6 = EDGE_CURVE ( 'NONE', #247, #279, #192, .T. ) ;
#7 = ORIENTED_EDGE ( 'NONE', *, *, #375, .F. ) ;
#8 = VECTOR ( 'NONE', #294, 39.37007874015748143 ) ;
#9 = DIRECTION ( 'NONE',  ( 2.438088387897960049E-29, -3.491481338843145188E-15, -1.000000000000000000 ) ) ;
#10 = DIRECTION ( 'NONE',  ( 1.000000000000000000, -6.982962677686267499E-15, 4.876176775795936353E-29 ) ) ;
#11 = ADVANCED_FACE ( 'NONE', ( #38 ), #236, .T. ) ;
#12 = ORIENTED_EDGE ( 'NONE', *, *, #100, .F. ) ;
#13 = APPROVAL_STATUS ( 'not_yet_approved' ) ;
#14 = CARTESIAN_POINT ( 'NONE',  ( -0.2949500000000001010, 2.094539655171996501E-15, 4.268512490085885145E-18 ) ) ;
#15 = AXIS2_PLACEMENT_3D ( 'NONE', #227, #137, #357 ) ;
#16 = DIRECTION ( 'NONE',  ( 0.000000000000000000, 0.000000000000000000, 1.000000000000000000 ) ) ;
#17 = SPHERICAL_SURFACE ( 'NONE', #20, 0.3149500000000003963 ) ;
#18 = CARTESIAN_POINT ( 'NONE',  ( 4.890937612370290675E-31, -6.982962677686316261E-17, -0.02000000000000007327 ) ) ;
#19 = LINE ( 'NONE', #331, #207 ) ;
#20 = AXIS2_PLACEMENT_3D ( 'NONE', #176, #327, #369 ) ;
#21 = CC_DESIGN_DATE_AND_TIME_ASSIGNMENT ( #267, #171, ( #151 ) ) ;
#22 = APPROVAL_PERSON_ORGANIZATION ( #295, #159, #79 ) ;
#23 = CARTESIAN_POINT ( 'NONE',  ( 0.000000000000000000, 0.000000000000000000, 0.000000000000000000 ) ) ;
#24 = LINE ( 'NONE', #351, #226 ) ;
#25 = CARTESIAN_POINT ( 'NONE',  ( 2.199284095337425555E-15, 0.3149499999999804678, -5.590550000000000352 ) ) ;
#26 = AXIS2_PLACEMENT_3D ( 'NONE', #334, #233, #204 ) ;
#27 = AXIS2_PLACEMENT_3D ( 'NONE', #95, #344, #211 ) ;
#28 = DIRECTION ( 'NONE',  ( -2.445468806185136597E-29, 3.491481338843145583E-15, 1.000000000000000000 ) ) ;
#29 = FACE_OUTER_BOUND ( 'NONE', #36, .T. ) ;
#30 = DIRECTION ( 'NONE',  ( 1.000000000000000000, -6.982962677686267499E-15, 4.876053491004732665E-29 ) ) ;
#31 = ORIENTED_EDGE ( 'NONE', *, *, #88, .T. ) ;
#32 = CIRCLE ( 'NONE', #360, 0.3149500000000003963 ) ;
#33 = ORIENTED_EDGE ( 'NONE', *, *, #410, .T. ) ;
#34 = ADVANCED_FACE ( 'NONE', ( #358 ), #139, .T. ) ;
#35 = ORIENTED_EDGE ( 'NONE', *, *, #53, .T. ) ;
#36 = EDGE_LOOP ( 'NONE', ( #356, #340, #129, #342 ) ) ;
#37 =( GEOMETRIC_REPRESENTATION_CONTEXT ( 3 ) GLOBAL_UNCERTAINTY_ASSIGNED_CONTEXT ( ( #163 ) ) GLOBAL_UNIT_ASSIGNED_CONTEXT ( ( #283, #98, #167 ) ) REPRESENTATION_CONTEXT ( 'NONE', 'WORKASPACE' ) );
#38 = FACE_OUTER_BOUND ( 'NONE', #141, .T. ) ;
#39 = PERSON_AND_ORGANIZATION ( #196, #71 ) ;
#40 = LINE ( 'NONE', #229, #8 ) ;
#41 = PERSON_AND_ORGANIZATION_ROLE ( 'classification_officer' ) ;
#42 = CARTESIAN_POINT ( 'NONE',  ( 0.3149500000000000077, -1.250858104453944331E-14, -2.952700000000000102 ) ) ;
#43 = PERSON_AND_ORGANIZATION ( #196, #71 ) ;
#44 = DIRECTION ( 'NONE',  ( 1.000000000000000000, -6.982962677686263555E-15, 0.000000000000000000 ) ) ;
#45 = AXIS2_PLACEMENT_3D ( 'NONE', #372, #408, #30 ) ;
#46 = EDGE_CURVE ( 'NONE', #126, #263, #51, .T. ) ;
#47 = CARTESIAN_POINT ( 'NONE',  ( 7.220735744022853640E-29, -1.030929694920215659E-14, -2.952700000000000546 ) ) ;
#48 = DIRECTION ( 'NONE',  ( -2.445468806185136597E-29, 3.491481338843145583E-15, 1.000000000000000000 ) ) ;
#49 = MANIFOLD_SOLID_BREP ( 'Body-Move/Copy2[1]', #248 ) ;
#50 = CARTESIAN_POINT ( 'NONE',  ( 1.367151563441831346E-28, -1.951930099886954466E-14, -5.590549999999999464 ) ) ;
#51 = CIRCLE ( 'NONE', #402, 0.3149500000000003963 ) ;
#52 = LOCAL_TIME ( 8, 25, 58.00000000000000000, #205 ) ;
#53 = EDGE_CURVE ( 'NONE', #279, #75, #210, .T. ) ;
#54 = MANIFOLD_SOLID_BREP ( 'Body-Move/Copy2[2]', #346 ) ;
#55 = CARTESIAN_POINT ( 'NONE',  ( -0.3139500000000000624, -8.073249575935096849E-15, -2.952700000000000546 ) ) ;
#56 = EDGE_LOOP ( 'NONE', ( #195, #3 ) ) ;
#57 = APPROVAL ( #13, 'UNSPECIFIED' ) ;
#58 = CARTESIAN_POINT ( 'NONE',  ( 4.890937612370290675E-31, -6.982962677686316261E-17, -0.02000000000000007327 ) ) ;
#59 = EDGE_LOOP ( 'NONE', ( #35, #345, #289, #379, #411 ) ) ;
#60 = DIRECTION ( 'NONE',  ( -0.7071067811865474617, 7.493145998870352582E-15, 0.7071067811865474617 ) ) ;
#61 = ORIENTED_EDGE ( 'NONE', *, *, #302, .F. ) ;
#62 = VECTOR ( 'NONE', #80, 39.37007874015748143 ) ;
#63 = DIRECTION ( 'NONE',  ( -1.000000000000000000, 6.982962677686265922E-15, 0.000000000000000000 ) ) ;
#64 = ORIENTED_EDGE ( 'NONE', *, *, #53, .F. ) ;
#65 = DIRECTION ( 'NONE',  ( 1.000000000000000000, -6.982962677686265133E-15, 0.000000000000000000 ) ) ;
#66 = ORIENTED_EDGE ( 'NONE', *, *, #270, .T. ) ;
#67 = COORDINATED_UNIVERSAL_TIME_OFFSET ( 5, 0, .BEHIND. ) ;
#68 = ORIENTED_EDGE ( 'NONE', *, *, #201, .T. ) ;
#69 = ADVANCED_FACE ( 'NONE', ( #165 ), #325, .F. ) ;
#70 = AXIS2_PLACEMENT_3D ( 'NONE', #50, #115, #117 ) ;
#71 = ORGANIZATION ( 'UNSPECIFIED', 'UNSPECIFIED', '' ) ;
#72 = CARTESIAN_POINT ( 'NONE',  ( 7.220735744022853640E-29, -1.030929694920215659E-14, -2.952700000000000546 ) ) ;
#73 = DIRECTION ( 'NONE',  ( -2.445468806185136597E-29, 3.491481338843145583E-15, 1.000000000000000000 ) ) ;
#74 = ADVANCED_FACE ( 'NONE', ( #261 ), #107, .T. ) ;
#75 = VERTEX_POINT ( 'NONE', #108 ) ;
#76 = DIMENSIONAL_EXPONENTS ( 1.000000000000000000, 0.000000000000000000, 0.000000000000000000, 0.000000000000000000, 0.000000000000000000, 0.000000000000000000, 0.000000000000000000 ) ;
#77 = AXIS2_PLACEMENT_3D ( 'NONE', #23, #148, #111 ) ;
#78 = EDGE_LOOP ( 'NONE', ( #160, #314, #312, #222 ) ) ;
#79 = APPROVAL_ROLE ( '' ) ;
#80 = DIRECTION ( 'NONE',  ( -2.445468806185136877E-29, 3.491481338843145188E-15, 1.000000000000000000 ) ) ;
#81 = CALENDAR_DATE ( 2024, 10, 4 ) ;
#82 = DIRECTION ( 'NONE',  ( -2.445468806185136597E-29, 3.491481338843145583E-15, 1.000000000000000000 ) ) ;
#83 = EDGE_CURVE ( 'NONE', #75, #354, #40, .T. ) ;
#84 = FACE_OUTER_BOUND ( 'NONE', #59, .T. ) ;
#85 = LOCAL_TIME ( 8, 25, 58.00000000000000000, #269 ) ;
#86 = AXIS2_PLACEMENT_3D ( 'NONE', #223, #16, #264 ) ;
#87 = CYLINDRICAL_SURFACE ( 'NONE', #396, 0.3149500000000000077 ) ;
#88 = EDGE_CURVE ( 'NONE', #391, #228, #161, .T. ) ;
#89 = DIRECTION ( 'NONE',  ( -2.445468806185136597E-29, 3.491481338843145583E-15, 1.000000000000000000 ) ) ;
#90 = DIRECTION ( 'NONE',  ( -7.105427357601000281E-15, -1.000000000000000000, 0.000000000000000000 ) ) ;
#91 = VECTOR ( 'NONE', #121, 39.37007874015748143 ) ;
#92 = ORIENTED_EDGE ( 'NONE', *, *, #302, .T. ) ;
#93 = LINE ( 'NONE', #341, #91 ) ;
#94 = ORIENTED_EDGE ( 'NONE', *, *, #46, .F. ) ;
#95 = CARTESIAN_POINT ( 'NONE',  ( 4.890937612370290675E-31, -6.982962677686316261E-17, -0.02000000000000007327 ) ) ;
#96 = ORIENTED_EDGE ( 'NONE', *, *, #216, .F. ) ;
#97 = APPROVAL_PERSON_ORGANIZATION ( #231, #394, #103 ) ;
#98 =( NAMED_UNIT ( * ) PLANE_ANGLE_UNIT ( ) SI_UNIT ( $, .RADIAN. ) );
#99 = ORIENTED_EDGE ( 'NONE', *, *, #46, .T. ) ;
#100 = EDGE_CURVE ( 'NONE', #251, #5, #186, .T. ) ;
#101 = APPROVAL_DATE_TIME ( #4, #159 ) ;
#102 = CARTESIAN_POINT ( 'NONE',  ( -0.3149500000000001743, 2.129454468560427756E-15, -0.02000000000000007327 ) ) ;
#103 = APPROVAL_ROLE ( '' ) ;
#104 = CARTESIAN_POINT ( 'NONE',  ( 7.218290275216666916E-29, -1.030580546786331359E-14, -2.951700000000000212 ) ) ;
#105 = AXIS2_PLACEMENT_3D ( 'NONE', #153, #28, #125 ) ;
#106 = EDGE_LOOP ( 'NONE', ( #68, #316, #12, #387 ) ) ;
#107 = CYLINDRICAL_SURFACE ( 'NONE', #337, 0.3149500000000002853 ) ;
#108 = CARTESIAN_POINT ( 'NONE',  ( -0.3149500000000000077, -1.267644462775941464E-14, -5.590549999999999464 ) ) ;
#109 = MECHANICAL_CONTEXT ( 'NONE', #353, 'mechanical' ) ;
#110 = LOCAL_TIME ( 8, 25, 58.00000000000000000, #133 ) ;
#111 = DIRECTION ( 'NONE',  ( 1.000000000000000000, -6.982962677686266711E-15, 4.876176775795936353E-29 ) ) ;
#112 = DATE_AND_TIME ( #173, #323 ) ;
#113 = CYLINDRICAL_SURFACE ( 'NONE', #130, 0.3149500000000002853 ) ;
#114 = APPROVAL_DATE_TIME ( #333, #57 ) ;
#115 = DIRECTION ( 'NONE',  ( -2.445468806185136597E-29, 3.491481338843145583E-15, 1.000000000000000000 ) ) ;
#116 = AXIS2_PLACEMENT_3D ( 'NONE', #18, #371, #303 ) ;
#117 = DIRECTION ( 'NONE',  ( 1.000000000000000000, -6.982962677686263555E-15, 0.000000000000000000 ) ) ;
#118 = EDGE_CURVE ( 'NONE', #263, #251, #144, .T. ) ;
#119 = CC_DESIGN_PERSON_AND_ORGANIZATION_ASSIGNMENT ( #39, #324, ( #384 ) ) ;
#120 = DIRECTION ( 'NONE',  ( 1.000000000000000000, -6.982962677686265922E-15, 4.876176775795935793E-29 ) ) ;
#121 = DIRECTION ( 'NONE',  ( -2.445468806185136877E-29, 3.491481338843145188E-15, 1.000000000000000000 ) ) ;
#122 = CARTESIAN_POINT ( 'NONE',  ( -2.237854346276301484E-15, -0.3149500000000199362, -5.590549999999997688 ) ) ;
#123 = ORIENTED_EDGE ( 'NONE', *, *, #262, .F. ) ;
#124 = EDGE_CURVE ( 'NONE', #308, #279, #292, .T. ) ;
#125 = DIRECTION ( 'NONE',  ( 1.000000000000000000, -6.982962677686263555E-15, 0.000000000000000000 ) ) ;
#126 = VERTEX_POINT ( 'NONE', #206 ) ;
#127 = EDGE_CURVE ( 'NONE', #228, #391, #381, .T. ) ;
#128 = DIRECTION ( 'NONE',  ( -1.000000000000000000, 6.982962677686265133E-15, -4.883557194083112901E-29 ) ) ;
#129 = ORIENTED_EDGE ( 'NONE', *, *, #201, .F. ) ;
#130 = AXIS2_PLACEMENT_3D ( 'NONE', #300, #48, #238 ) ;
#131 = ADVANCED_FACE ( 'NONE', ( #232 ), #397, .F. ) ;
#132 = VECTOR ( 'NONE', #313, 39.37007874015748143 ) ;
#133 = COORDINATED_UNIVERSAL_TIME_OFFSET ( 5, 0, .BEHIND. ) ;
#134 = ORIENTED_EDGE ( 'NONE', *, *, #328, .F. ) ;
#135 = PERSON_AND_ORGANIZATION_ROLE ( 'design_supplier' ) ;
#136 = CC_DESIGN_PERSON_AND_ORGANIZATION_ASSIGNMENT ( #352, #41, ( #151 ) ) ;
#137 = DIRECTION ( 'NONE',  ( 2.445468806185136597E-29, -3.491481338843145583E-15, -1.000000000000000000 ) ) ;
#138 = ORIENTED_EDGE ( 'NONE', *, *, #309, .F. ) ;
#139 = CONICAL_SURFACE ( 'NONE', #15, 0.3149500000000001743, 0.7853981633974471688 ) ;
#140 = DIRECTION ( 'NONE',  ( -1.000000000000000000, 6.982962677686265922E-15, -4.876176775795935793E-29 ) ) ;
#141 = EDGE_LOOP ( 'NONE', ( #138, #31, #33, #94 ) ) ;
#142 = CARTESIAN_POINT ( 'NONE',  ( 1.334039585650443058E-28, -1.999348336700959654E-14, -5.590549999999999464 ) ) ;
#143 = CIRCLE ( 'NONE', #1, 0.3149500000000000077 ) ;
#144 = LINE ( 'NONE', #208, #62 ) ;
#145 = PERSON_AND_ORGANIZATION_ROLE ( 'creator' ) ;
#146 = PLANE ( 'NONE',  #230 ) ;
#147 = ADVANCED_FACE ( 'NONE', ( #237 ), #17, .T. ) ;
#148 = DIRECTION ( 'NONE',  ( -2.445468806185136597E-29, 3.491481338843145583E-15, 1.000000000000000000 ) ) ;
#149 = AXIS2_PLACEMENT_3D ( 'NONE', #291, #9, #140 ) ;
#150 = CARTESIAN_POINT ( 'NONE',  ( -1.043851414335219820E-46, 1.490343170380447200E-32, 4.268512490100411279E-18 ) ) ;
#151 = SECURITY_CLASSIFICATION ( '', '', #326 ) ;
#152 = DIRECTION ( 'NONE',  ( 1.000000000000000000, -6.982962677686267499E-15, 4.876053491004732665E-29 ) ) ;
#153 = CARTESIAN_POINT ( 'NONE',  ( 1.367151563441831346E-28, -1.951930099886954466E-14, -5.590549999999999464 ) ) ;
#154 = ADVANCED_FACE ( 'NONE', ( #177 ), #335, .T. ) ;
#155 = CARTESIAN_POINT ( 'NONE',  ( 0.3149500000000003963, -1.250508956320060661E-14, -2.951700000000000212 ) ) ;
#156 = CIRCLE ( 'NONE', #45, 0.2949500000000001010 ) ;
#157 = LINE ( 'NONE', #282, #193 ) ;
#158 = EDGE_LOOP ( 'NONE', ( #288, #319, #212, #64 ) ) ;
#159 = APPROVAL ( #362, 'UNSPECIFIED' ) ;
#160 = ORIENTED_EDGE ( 'NONE', *, *, #254, .F. ) ;
#161 = CIRCLE ( 'NONE', #241, 0.3139500000000000624 ) ;
#162 = ORIENTED_EDGE ( 'NONE', *, *, #276, .T. ) ;
#163 = UNCERTAINTY_MEASURE_WITH_UNIT (LENGTH_MEASURE( 1.000000000000000082E-05 ), #283, 'distance_accuracy_value', 'NONE');
#164 = ORIENTED_EDGE ( 'NONE', *, *, #349, .T. ) ;
#165 = FACE_OUTER_BOUND ( 'NONE', #184, .T. ) ;
#166 = CARTESIAN_POINT ( 'NONE',  ( 0.000000000000000000, 0.000000000000000000, 0.000000000000000000 ) ) ;
#167 =( NAMED_UNIT ( * ) SI_UNIT ( $, .STERADIAN. ) SOLID_ANGLE_UNIT ( ) );
#168 = DIRECTION ( 'NONE',  ( 1.000000000000000000, -6.982962677686263555E-15, 0.000000000000000000 ) ) ;
#169 = ADVANCED_BREP_SHAPE_REPRESENTATION ( '49566', ( #49, #54, #86 ), #37 ) ;
#170 = ADVANCED_FACE ( 'NONE', ( #84 ), #87, .T. ) ;
#171 = DATE_TIME_ROLE ( 'classification_date' ) ;
#172 = FACE_OUTER_BOUND ( 'NONE', #189, .T. ) ;
#173 = CALENDAR_DATE ( 2024, 10, 4 ) ;
#174 = VECTOR ( 'NONE', #217, 39.37007874015748143 ) ;
#175 = CARTESIAN_POINT ( 'NONE',  ( 0.3139500000000000624, -1.250159808186176045E-14, -2.952700000000000546 ) ) ;
#176 = CARTESIAN_POINT ( 'NONE',  ( 1.334039585650443058E-28, -1.999348336700959654E-14, -5.590549999999999464 ) ) ;
#177 = FACE_OUTER_BOUND ( 'NONE', #215, .T. ) ;
#178 = CIRCLE ( 'NONE', #266, 0.2949500000000001010 ) ;
#179 = DIRECTION ( 'NONE',  ( -2.445468806185136877E-29, 3.491481338843145188E-15, 1.000000000000000000 ) ) ;
#180 = CC_DESIGN_APPROVAL ( #394, ( #370 ) ) ;
#181 = LENGTH_MEASURE_WITH_UNIT ( LENGTH_MEASURE( 0.02539999999999999897 ), #240 );
#182 = ORIENTED_EDGE ( 'NONE', *, *, #197, .T. ) ;
#183 = CARTESIAN_POINT ( 'NONE',  ( 1.334039585650443058E-28, -1.999348336700959654E-14, -5.590549999999999464 ) ) ;
#184 = EDGE_LOOP ( 'NONE', ( #321, #306 ) ) ;
#185 = FACE_OUTER_BOUND ( 'NONE', #158, .T. ) ;
#186 = CIRCLE ( 'NONE', #116, 0.3149500000000001743 ) ;
#187 = ADVANCED_FACE ( 'NONE', ( #296 ), #113, .T. ) ;
#188 = CARTESIAN_POINT ( 'NONE',  ( 7.220735744022852519E-29, -1.030929694920215502E-14, -2.952700000000000102 ) ) ;
#189 = EDGE_LOOP ( 'NONE', ( #322, #320 ) ) ;
#190 = APPROVAL_ROLE ( '' ) ;
#191 = VERTEX_POINT ( 'NONE', #14 ) ;
#192 = CIRCLE ( 'NONE', #332, 0.3149500000000003963 ) ;
#193 = VECTOR ( 'NONE', #409, 39.37007874015748854 ) ;
#194 = APPLICATION_PROTOCOL_DEFINITION ( 'international standard', 'config_control_design', 1994, #373 ) ;
#195 = ORIENTED_EDGE ( 'NONE', *, *, #127, .F. ) ;
#196 = PERSON ( 'UNSPECIFIED', 'UNSPECIFIED', 'UNSPECIFIED', ('UNSPECIFIED'), ('UNSPECIFIED'), ('UNSPECIFIED') ) ;
#197 = EDGE_CURVE ( 'NONE', #308, #220, #19, .T. ) ;
#198 = CARTESIAN_POINT ( 'NONE',  ( 1.367151563441831346E-28, -1.951930099886954466E-14, -5.590549999999999464 ) ) ;
#199 = DIRECTION ( 'NONE',  ( 1.000000000000000000, -6.982962677686267499E-15, 0.000000000000000000 ) ) ;
#200 = AXIS2_PLACEMENT_3D ( 'NONE', #47, #400, #120 ) ;
#201 = EDGE_CURVE ( 'NONE', #263, #126, #32, .T. ) ;
#202 = ORIENTED_EDGE ( 'NONE', *, *, #349, .F. ) ;
#203 = PERSON_AND_ORGANIZATION_ROLE ( 'creator' ) ;
#204 = DIRECTION ( 'NONE',  ( 1.000000000000000000, -6.982962677686265133E-15, 0.000000000000000000 ) ) ;
#205 = COORDINATED_UNIVERSAL_TIME_OFFSET ( 5, 0, .BEHIND. ) ;
#206 = CARTESIAN_POINT ( 'NONE',  ( -0.3149500000000003963, -2.949963201043648119E-15, -2.951700000000000212 ) ) ;
#207 = VECTOR ( 'NONE', #179, 39.37007874015748143 ) ;
#208 = CARTESIAN_POINT ( 'NONE',  ( 0.3149500000000002853, -2.199284095337291843E-15, 1.535751875536931531E-29 ) ) ;
#209 = DIRECTION ( 'NONE',  ( 2.438088387897960049E-29, -3.491481338843145188E-15, -1.000000000000000000 ) ) ;
#210 = CIRCLE ( 'NONE', #367, 0.3149500000000000077 ) ;
#211 = DIRECTION ( 'NONE',  ( 1.000000000000000000, -6.982962677686265922E-15, 0.000000000000000000 ) ) ;
#212 = ORIENTED_EDGE ( 'NONE', *, *, #276, .F. ) ;
#213 = DIRECTION ( 'NONE',  ( -1.000000000000000000, 7.105427357601001070E-15, -4.926315508542082329E-29 ) ) ;
#214 = CARTESIAN_POINT ( 'NONE',  ( 0.3149500000000000077, -1.711358306937313892E-14, -5.590549999999999464 ) ) ;
#215 = EDGE_LOOP ( 'NONE', ( #284, #162, #256, #182, #7 ) ) ;
#216 = EDGE_CURVE ( 'NONE', #191, #244, #178, .T. ) ;
#217 = DIRECTION ( 'NONE',  ( 0.7071067811865466846, -7.319954787623252890E-15, -0.7071067811865483499 ) ) ;
#218 = APPROVAL_PERSON_ORGANIZATION ( #329, #57, #190 ) ;
#219 = EDGE_LOOP ( 'NONE', ( #134, #92, #377, #202 ) ) ;
#220 = VERTEX_POINT ( 'NONE', #42 ) ;
#221 = APPLICATION_PROTOCOL_DEFINITION ( 'international standard', 'config_control_design', 1994, #353 ) ;
#222 = ORIENTED_EDGE ( 'NONE', *, *, #343, .F. ) ;
#223 = CARTESIAN_POINT ( 'NONE',  ( 0.000000000000000000, 0.000000000000000000, 0.000000000000000000 ) ) ;
#224 = EDGE_CURVE ( 'NONE', #220, #354, #143, .T. ) ;
#225 = DIRECTION ( 'NONE',  ( -2.445468806185136597E-29, 3.491481338843145583E-15, 1.000000000000000000 ) ) ;
#226 = VECTOR ( 'NONE', #60, 39.37007874015748854 ) ;
#227 = CARTESIAN_POINT ( 'NONE',  ( 4.890937612370290675E-31, -6.982962677686316261E-17, -0.02000000000000007327 ) ) ;
#228 = VERTEX_POINT ( 'NONE', #175 ) ;
#229 = CARTESIAN_POINT ( 'NONE',  ( -0.3149500000000000077, 2.237854346276435590E-15, -1.549218606675782676E-29 ) ) ;
#230 = AXIS2_PLACEMENT_3D ( 'NONE', #271, #209, #395 ) ;
#231 = PERSON_AND_ORGANIZATION ( #196, #71 ) ;
#232 = FACE_OUTER_BOUND ( 'NONE', #56, .T. ) ;
#233 = DIRECTION ( 'NONE',  ( -2.445468806185136597E-29, 3.491481338843145583E-15, 1.000000000000000000 ) ) ;
#234 = SHAPE_DEFINITION_REPRESENTATION ( #350, #169 ) ;
#235 = CARTESIAN_POINT ( 'NONE',  ( 1.412406298815129152E-28, -2.107384028920867473E-14, -5.905499999999999972 ) ) ;
#236 = CONICAL_SURFACE ( 'NONE', #273, 0.3139500000000000624, 0.7853981633974482790 ) ;
#237 = FACE_OUTER_BOUND ( 'NONE', #78, .T. ) ;
#238 = DIRECTION ( 'NONE',  ( 1.000000000000000000, -6.982962677686267499E-15, 4.876176775795936353E-29 ) ) ;
#239 = ADVANCED_FACE ( 'NONE', ( #172 ), #146, .F. ) ;
#240 =( LENGTH_UNIT ( ) NAMED_UNIT ( * ) SI_UNIT ( $, .METRE. ) );
#241 = AXIS2_PLACEMENT_3D ( 'NONE', #265, #82, #275 ) ;
#242 = FACE_OUTER_BOUND ( 'NONE', #383, .T. ) ;
#243 = CIRCLE ( 'NONE', #250, 0.3149500000000000077 ) ;
#244 = VERTEX_POINT ( 'NONE', #399 ) ;
#245 = DIRECTION ( 'NONE',  ( 1.000000000000000000, -6.982962677686263555E-15, 0.000000000000000000 ) ) ;
#246 = DIRECTION ( 'NONE',  ( -2.445468806185136597E-29, 3.491481338843145583E-15, 1.000000000000000000 ) ) ;
#247 = VERTEX_POINT ( 'NONE', #235 ) ;
#248 = CLOSED_SHELL ( 'NONE', ( #170, #389, #147, #69, #154 ) ) ;
#249 = CARTESIAN_POINT ( 'NONE',  ( 7.220735744022853640E-29, -1.030929694920215659E-14, -2.952700000000000546 ) ) ;
#250 = AXIS2_PLACEMENT_3D ( 'NONE', #188, #406, #245 ) ;
#251 = VERTEX_POINT ( 'NONE', #366 ) ;
#252 = PERSON_AND_ORGANIZATION ( #196, #71 ) ;
#253 = ORIENTED_EDGE ( 'NONE', *, *, #270, .F. ) ;
#254 = EDGE_CURVE ( 'NONE', #247, #380, #286, .T. ) ;
#255 = COORDINATED_UNIVERSAL_TIME_OFFSET ( 5, 0, .BEHIND. ) ;
#256 = ORIENTED_EDGE ( 'NONE', *, *, #343, .T. ) ;
#257 = CC_DESIGN_DATE_AND_TIME_ASSIGNMENT ( #112, #365, ( #370 ) ) ;
#258 = DIRECTION ( 'NONE',  ( 1.000000000000000000, -6.982962677686265922E-15, 4.883557194083112340E-29 ) ) ;
#259 = CONICAL_SURFACE ( 'NONE', #355, 0.3149500000000001743, 0.7853981633974471688 ) ;
#260 = AXIS2_PLACEMENT_3D ( 'NONE', #249, #246, #65 ) ;
#261 = FACE_OUTER_BOUND ( 'NONE', #106, .T. ) ;
#262 = EDGE_CURVE ( 'NONE', #126, #5, #93, .T. ) ;
#263 = VERTEX_POINT ( 'NONE', #155 ) ;
#264 = DIRECTION ( 'NONE',  ( 1.000000000000000000, 0.000000000000000000, 0.000000000000000000 ) ) ;
#265 = CARTESIAN_POINT ( 'NONE',  ( 7.220735744022853640E-29, -1.030929694920215659E-14, -2.952700000000000546 ) ) ;
#266 = AXIS2_PLACEMENT_3D ( 'NONE', #150, #404, #152 ) ;
#267 = DATE_AND_TIME ( #298, #338 ) ;
#268 = DIRECTION ( 'NONE',  ( -2.445468806185136597E-29, 3.491481338843145583E-15, 1.000000000000000000 ) ) ;
#269 = COORDINATED_UNIVERSAL_TIME_OFFSET ( 5, 0, .BEHIND. ) ;
#270 = EDGE_CURVE ( 'NONE', #5, #251, #318, .T. ) ;
#271 = CARTESIAN_POINT ( 'NONE',  ( 2.059624841783565247E-15, 0.2949500000000001010, -1.027678164646735960E-15 ) ) ;
#272 = DIRECTION ( 'NONE',  ( 1.000000000000000000, -6.982962677686267499E-15, 0.000000000000000000 ) ) ;
#273 = AXIS2_PLACEMENT_3D ( 'NONE', #72, #390, #359 ) ;
#274 = CC_DESIGN_SECURITY_CLASSIFICATION ( #151, ( #287 ) ) ;
#275 = DIRECTION ( 'NONE',  ( 1.000000000000000000, -6.982962677686265133E-15, 0.000000000000000000 ) ) ;
#276 = EDGE_CURVE ( 'NONE', #75, #380, #374, .T. ) ;
#277 = CARTESIAN_POINT ( 'NONE',  ( 1.334039585650443058E-28, -1.999348336700959654E-14, -5.590549999999999464 ) ) ;
#278 = LINE ( 'NONE', #339, #132 ) ;
#279 = VERTEX_POINT ( 'NONE', #25 ) ;
#280 = CIRCLE ( 'NONE', #105, 0.3149500000000000077 ) ;
#281 = CARTESIAN_POINT ( 'NONE',  ( 0.3149500000000001743, -2.230543471175008239E-15, -0.02000000000000007327 ) ) ;
#282 = CARTESIAN_POINT ( 'NONE',  ( 0.3139500000000000624, -1.250159808186176045E-14, -2.952700000000000546 ) ) ;
#283 =( CONVERSION_BASED_UNIT ( 'INCH', #181 ) LENGTH_UNIT ( ) NAMED_UNIT ( #76 ) );
#284 = ORIENTED_EDGE ( 'NONE', *, *, #83, .F. ) ;
#285 = APPROVAL_STATUS ( 'not_yet_approved' ) ;
#286 = CIRCLE ( 'NONE', #388, 0.3149500000000003963 ) ;
#287 = PRODUCT_DEFINITION_FORMATION_WITH_SPECIFIED_SOURCE ( 'ANY', '', #384, .NOT_KNOWN. ) ;
#288 = ORIENTED_EDGE ( 'NONE', *, *, #6, .F. ) ;
#289 = ORIENTED_EDGE ( 'NONE', *, *, #224, .F. ) ;
#290 = ADVANCED_FACE ( 'NONE', ( #242 ), #259, .T. ) ;
#291 = CARTESIAN_POINT ( 'NONE',  ( 2.199284095337361657E-15, 0.3149499999999896827, -2.952700000000000990 ) ) ;
#292 = CIRCLE ( 'NONE', #70, 0.3149500000000000077 ) ;
#293 = DIRECTION ( 'NONE',  ( -2.445468806185136597E-29, 3.491481338843145583E-15, 1.000000000000000000 ) ) ;
#294 = DIRECTION ( 'NONE',  ( -2.445468806185136877E-29, 3.491481338843145188E-15, 1.000000000000000000 ) ) ;
#295 = PERSON_AND_ORGANIZATION ( #196, #71 ) ;
#296 = FACE_OUTER_BOUND ( 'NONE', #407, .T. ) ;
#297 = AXIS2_PLACEMENT_3D ( 'NONE', #310, #307, #376 ) ;
#298 = CALENDAR_DATE ( 2024, 10, 4 ) ;
#299 = CARTESIAN_POINT ( 'NONE',  ( 7.218290275216666916E-29, -1.030580546786331359E-14, -2.951700000000000212 ) ) ;
#300 = CARTESIAN_POINT ( 'NONE',  ( 0.000000000000000000, 0.000000000000000000, 0.000000000000000000 ) ) ;
#301 = PRODUCT_RELATED_PRODUCT_CATEGORY ( 'detail', '', ( #384 ) ) ;
#302 = EDGE_CURVE ( 'NONE', #244, #251, #305, .T. ) ;
#303 = DIRECTION ( 'NONE',  ( 1.000000000000000000, -6.982962677686265922E-15, 0.000000000000000000 ) ) ;
#304 = DIRECTION ( 'NONE',  ( -2.445468806185136597E-29, 3.491481338843145583E-15, 1.000000000000000000 ) ) ;
#305 = LINE ( 'NONE', #281, #174 ) ;
#306 = ORIENTED_EDGE ( 'NONE', *, *, #375, .T. ) ;
#307 = DIRECTION ( 'NONE',  ( -2.445468806185136597E-29, 3.491481338843145583E-15, 1.000000000000000000 ) ) ;
#308 = VERTEX_POINT ( 'NONE', #214 ) ;
#309 = EDGE_CURVE ( 'NONE', #391, #126, #24, .T. ) ;
#310 = CARTESIAN_POINT ( 'NONE',  ( 1.367151563441831346E-28, -1.951930099886954466E-14, -5.590549999999999464 ) ) ;
#311 = CC_DESIGN_PERSON_AND_ORGANIZATION_ASSIGNMENT ( #252, #135, ( #287 ) ) ;
#312 = ORIENTED_EDGE ( 'NONE', *, *, #124, .F. ) ;
#313 = DIRECTION ( 'NONE',  ( -0.7071067811865466846, 2.468850131082247989E-15, -0.7071067811865483499 ) ) ;
#314 = ORIENTED_EDGE ( 'NONE', *, *, #6, .T. ) ;
#315 = DIRECTION ( 'NONE',  ( 2.445468806185136597E-29, -3.491481338843145583E-15, -1.000000000000000000 ) ) ;
#316 = ORIENTED_EDGE ( 'NONE', *, *, #262, .T. ) ;
#317 = CC_DESIGN_PERSON_AND_ORGANIZATION_ASSIGNMENT ( #386, #203, ( #287 ) ) ;
#318 = CIRCLE ( 'NONE', #27, 0.3149500000000001743 ) ;
#319 = ORIENTED_EDGE ( 'NONE', *, *, #254, .T. ) ;
#320 = ORIENTED_EDGE ( 'NONE', *, *, #328, .T. ) ;
#321 = ORIENTED_EDGE ( 'NONE', *, *, #224, .T. ) ;
#322 = ORIENTED_EDGE ( 'NONE', *, *, #216, .T. ) ;
#323 = LOCAL_TIME ( 8, 25, 58.00000000000000000, #255 ) ;
#324 = PERSON_AND_ORGANIZATION_ROLE ( 'design_owner' ) ;
#325 = PLANE ( 'NONE',  #149 ) ;
#326 = SECURITY_CLASSIFICATION_LEVEL ( 'unclassified' ) ;
#327 = DIRECTION ( 'NONE',  ( -1.000000000000000000, 6.982962677686265133E-15, -4.883557194083112901E-29 ) ) ;
#328 = EDGE_CURVE ( 'NONE', #244, #191, #156, .T. ) ;
#329 = PERSON_AND_ORGANIZATION ( #196, #71 ) ;
#330 = CC_DESIGN_PERSON_AND_ORGANIZATION_ASSIGNMENT ( #43, #145, ( #370 ) ) ;
#331 = CARTESIAN_POINT ( 'NONE',  ( 0.3149500000000000077, -2.199284095337289871E-15, 1.535751875536930130E-29 ) ) ;
#332 = AXIS2_PLACEMENT_3D ( 'NONE', #142, #258, #392 ) ;
#333 = DATE_AND_TIME ( #398, #85 ) ;
#334 = CARTESIAN_POINT ( 'NONE',  ( 7.220735744022853640E-29, -1.030929694920215659E-14, -2.952700000000000546 ) ) ;
#335 = CYLINDRICAL_SURFACE ( 'NONE', #77, 0.3149500000000000077 ) ;
#336 = DIRECTION ( 'NONE',  ( 1.000000000000000000, -6.982962677686266711E-15, 4.876176775795936353E-29 ) ) ;
#337 = AXIS2_PLACEMENT_3D ( 'NONE', #166, #293, #10 ) ;
#338 = LOCAL_TIME ( 8, 25, 58.00000000000000000, #67 ) ;
#339 = CARTESIAN_POINT ( 'NONE',  ( -0.3149500000000001743, 2.129454468560427756E-15, -0.02000000000000007327 ) ) ;
#340 = ORIENTED_EDGE ( 'NONE', *, *, #309, .T. ) ;
#341 = CARTESIAN_POINT ( 'NONE',  ( -0.3149500000000002853, 2.237854346276437562E-15, -1.549218606675783797E-29 ) ) ;
#342 = ORIENTED_EDGE ( 'NONE', *, *, #410, .F. ) ;
#343 = EDGE_CURVE ( 'NONE', #380, #308, #280, .T. ) ;
#344 = DIRECTION ( 'NONE',  ( -2.445468806185136597E-29, 3.491481338843145583E-15, 1.000000000000000000 ) ) ;
#345 = ORIENTED_EDGE ( 'NONE', *, *, #83, .T. ) ;
#346 = CLOSED_SHELL ( 'NONE', ( #412, #74, #34, #290, #187, #11, #131, #239 ) ) ;
#347 = SPHERICAL_SURFACE ( 'NONE', #403, 0.3149500000000003963 ) ;
#348 = ORIENTED_EDGE ( 'NONE', *, *, #118, .T. ) ;
#349 = EDGE_CURVE ( 'NONE', #191, #5, #278, .T. ) ;
#350 = PRODUCT_DEFINITION_SHAPE ( 'NONE', 'NONE',  #370 ) ;
#351 = CARTESIAN_POINT ( 'NONE',  ( -0.3139500000000000624, -8.078548030283322406E-15, -2.952700000000000546 ) ) ;
#352 = PERSON_AND_ORGANIZATION ( #196, #71 ) ;
#353 = APPLICATION_CONTEXT ( 'configuration controlled 3d designs of mechanical parts and assemblies' ) ;
#354 = VERTEX_POINT ( 'NONE', #378 ) ;
#355 = AXIS2_PLACEMENT_3D ( 'NONE', #58, #315, #63 ) ;
#356 = ORIENTED_EDGE ( 'NONE', *, *, #127, .T. ) ;
#357 = DIRECTION ( 'NONE',  ( -1.000000000000000000, 6.982962677686265922E-15, 0.000000000000000000 ) ) ;
#358 = FACE_OUTER_BOUND ( 'NONE', #219, .T. ) ;
#359 = DIRECTION ( 'NONE',  ( 1.000000000000000000, -6.982962677686265133E-15, 0.000000000000000000 ) ) ;
#360 = AXIS2_PLACEMENT_3D ( 'NONE', #299, #304, #272 ) ;
#361 = CC_DESIGN_APPROVAL ( #57, ( #151 ) ) ;
#362 = APPROVAL_STATUS ( 'not_yet_approved' ) ;
#363 = CARTESIAN_POINT ( 'NONE',  ( 0.000000000000000000, 0.000000000000000000, 0.000000000000000000 ) ) ;
#364 = CARTESIAN_POINT ( 'NONE',  ( 7.220735744022852519E-29, -1.030929694920215502E-14, -2.952700000000000102 ) ) ;
#365 = DATE_TIME_ROLE ( 'creation_date' ) ;
#366 = CARTESIAN_POINT ( 'NONE',  ( 0.3149500000000001743, -2.230543471175008239E-15, -0.02000000000000007327 ) ) ;
#367 = AXIS2_PLACEMENT_3D ( 'NONE', #198, #225, #168 ) ;
#368 = CC_DESIGN_APPROVAL ( #159, ( #287 ) ) ;
#369 = DIRECTION ( 'NONE',  ( 6.982962677686265133E-15, 1.000000000000000000, -3.469564049740288431E-15 ) ) ;
#370 = PRODUCT_DEFINITION ( 'UNKNOWN', '', #287, #401 ) ;
#371 = DIRECTION ( 'NONE',  ( -2.445468806185136597E-29, 3.491481338843145583E-15, 1.000000000000000000 ) ) ;
#372 = CARTESIAN_POINT ( 'NONE',  ( -1.043851414335219820E-46, 1.490343170380447200E-32, 4.268512490100411279E-18 ) ) ;
#373 = APPLICATION_CONTEXT ( 'configuration controlled 3d designs of mechanical parts and assemblies' ) ;
#374 = CIRCLE ( 'NONE', #297, 0.3149500000000000077 ) ;
#375 = EDGE_CURVE ( 'NONE', #354, #220, #243, .T. ) ;
#376 = DIRECTION ( 'NONE',  ( 1.000000000000000000, -6.982962677686263555E-15, 0.000000000000000000 ) ) ;
#377 = ORIENTED_EDGE ( 'NONE', *, *, #100, .T. ) ;
#378 = CARTESIAN_POINT ( 'NONE',  ( -0.3149500000000000077, -1.267644462775941464E-14, -2.952700000000000102 ) ) ;
#379 = ORIENTED_EDGE ( 'NONE', *, *, #197, .F. ) ;
#380 = VERTEX_POINT ( 'NONE', #122 ) ;
#381 = CIRCLE ( 'NONE', #26, 0.3139500000000000624 ) ;
#382 = CONICAL_SURFACE ( 'NONE', #260, 0.3139500000000000624, 0.7853981633974482790 ) ;
#383 = EDGE_LOOP ( 'NONE', ( #61, #96, #164, #66 ) ) ;
#384 = PRODUCT ( '49566', '49566', '', ( #109 ) ) ;
#385 = CALENDAR_DATE ( 2024, 10, 4 ) ;
#386 = PERSON_AND_ORGANIZATION ( #196, #71 ) ;
#387 = ORIENTED_EDGE ( 'NONE', *, *, #118, .F. ) ;
#388 = AXIS2_PLACEMENT_3D ( 'NONE', #183, #213, #90 ) ;
#389 = ADVANCED_FACE ( 'NONE', ( #185 ), #347, .T. ) ;
#390 = DIRECTION ( 'NONE',  ( -2.445468806185136597E-29, 3.491481338843145583E-15, 1.000000000000000000 ) ) ;
#391 = VERTEX_POINT ( 'NONE', #55 ) ;
#392 = DIRECTION ( 'NONE',  ( 6.982962677686265922E-15, 1.000000000000000000, 0.000000000000000000 ) ) ;
#393 = APPROVAL_DATE_TIME ( #2, #394 ) ;
#394 = APPROVAL ( #285, 'UNSPECIFIED' ) ;
#395 = DIRECTION ( 'NONE',  ( -1.000000000000000000, 6.982962677686265922E-15, -4.876176775795935793E-29 ) ) ;
#396 = AXIS2_PLACEMENT_3D ( 'NONE', #363, #268, #336 ) ;
#397 = PLANE ( 'NONE',  #200 ) ;
#398 = CALENDAR_DATE ( 2024, 10, 4 ) ;
#399 = CARTESIAN_POINT ( 'NONE',  ( 0.2949500000000001010, -2.127023677808861258E-15, 4.268512490115050658E-18 ) ) ;
#400 = DIRECTION ( 'NONE',  ( -2.438088387897960049E-29, 3.491481338843145188E-15, 1.000000000000000000 ) ) ;
#401 = DESIGN_CONTEXT ( 'detailed design', #373, 'design' ) ;
#402 = AXIS2_PLACEMENT_3D ( 'NONE', #104, #73, #199 ) ;
#403 = AXIS2_PLACEMENT_3D ( 'NONE', #277, #128, #405 ) ;
#404 = DIRECTION ( 'NONE',  ( -2.445468806185136597E-29, 3.491481338843145583E-15, 1.000000000000000000 ) ) ;
#405 = DIRECTION ( 'NONE',  ( 6.982962677686265133E-15, 1.000000000000000000, -3.469564049740288431E-15 ) ) ;
#406 = DIRECTION ( 'NONE',  ( -2.445468806185136597E-29, 3.491481338843145583E-15, 1.000000000000000000 ) ) ;
#407 = EDGE_LOOP ( 'NONE', ( #123, #99, #348, #253 ) ) ;
#408 = DIRECTION ( 'NONE',  ( -2.445468806185136597E-29, 3.491481338843145583E-15, 1.000000000000000000 ) ) ;
#409 = DIRECTION ( 'NONE',  ( 0.7071067811865474617, -2.468850131082256666E-15, 0.7071067811865474617 ) ) ;
#410 = EDGE_CURVE ( 'NONE', #228, #263, #157, .T. ) ;
#411 = ORIENTED_EDGE ( 'NONE', *, *, #124, .T. ) ;
#412 = ADVANCED_FACE ( 'NONE', ( #29 ), #382, .T. ) ;
ENDSEC;
END-ISO-10303-21;
