ISO-10303-21;
HEADER;
FILE_DESCRIPTION (( 'STEP AP203' ),
    '1' );
FILE_NAME ('49634.STEP',
    '2024-04-10T12:31:24',
    ( '' ),
    ( '' ),
    'SwSTEP 2.0',
    'SolidWorks 2023',
    '' );
FILE_SCHEMA (( 'CONFIG_CONTROL_DESIGN' ));
ENDSEC;

DATA;
#1 = ORIENTED_EDGE ( 'NONE', *, *, #355, .F. ) ;
#2 = CC_DESIGN_PERSON_AND_ORGANIZATION_ASSIGNMENT ( #272, #84, ( #394 ) ) ;
#3 = DIRECTION ( 'NONE',  ( 6.982962677686265922E-15, 1.000000000000000000, -3.505890868245046092E-15 ) ) ;
#4 = AXIS2_PLACEMENT_3D ( 'NONE', #316, #151, #283 ) ;
#5 = DIRECTION ( 'NONE',  ( -2.445468806185136597E-29, 3.491481338843145583E-15, 1.000000000000000000 ) ) ;
#6 = CARTESIAN_POINT ( 'NONE',  ( 6.850286386810230467E-16, 0.09810000000000003439, -3.639260471708327504E-16 ) ) ;
#7 = EDGE_CURVE ( 'NONE', #402, #148, #301, .T. ) ;
#8 = CARTESIAN_POINT ( 'NONE',  ( 7.413438685950242831E-29, -1.058442567870299660E-14, -3.031500000000000306 ) ) ;
#9 = DIRECTION ( 'NONE',  ( -6.982962677686265922E-15, -1.000000000000000000, 3.492891438329751887E-15 ) ) ;
#10 = MECHANICAL_CONTEXT ( 'NONE', #18, 'mechanical' ) ;
#11 = EDGE_CURVE ( 'NONE', #82, #28, #123, .T. ) ;
#12 = DATE_TIME_ROLE ( 'creation_date' ) ;
#13 = ORIENTED_EDGE ( 'NONE', *, *, #158, .F. ) ;
#14 = DATE_TIME_ROLE ( 'classification_date' ) ;
#15 = VECTOR ( 'NONE', #222, 39.37007874015748143 ) ;
#16 = ORIENTED_EDGE ( 'NONE', *, *, #126, .T. ) ;
#17 = EDGE_CURVE ( 'NONE', #65, #309, #98, .T. ) ;
#18 = APPLICATION_CONTEXT ( 'configuration controlled 3d designs of mechanical parts and assemblies' ) ;
#19 = ORIENTED_EDGE ( 'NONE', *, *, #83, .F. ) ;
#20 = FACE_OUTER_BOUND ( 'NONE', #199, .T. ) ;
#21 = AXIS2_PLACEMENT_3D ( 'NONE', #91, #122, #147 ) ;
#22 = ORIENTED_EDGE ( 'NONE', *, *, #299, .T. ) ;
#23 = DIRECTION ( 'NONE',  ( -6.982962677686265922E-15, -1.000000000000000000, 3.505890868245046092E-15 ) ) ;
#24 = ADVANCED_BREP_SHAPE_REPRESENTATION ( '49634', ( #106, #108, #330 ), #345 ) ;
#25 = EDGE_CURVE ( 'NONE', #82, #291, #221, .T. ) ;
#26 = DIRECTION ( 'NONE',  ( -6.982962677686265922E-15, -1.000000000000000000, 4.665837734695582242E-15 ) ) ;
#27 = ORGANIZATION ( 'UNSPECIFIED', 'UNSPECIFIED', '' ) ;
#28 = VERTEX_POINT ( 'NONE', #365 ) ;
#29 = CARTESIAN_POINT ( 'NONE',  ( 4.888968277952930497E-31, -6.985782876659524137E-17, -0.02000000000000006287 ) ) ;
#30 = AXIS2_PLACEMENT_3D ( 'NONE', #180, #315, #310 ) ;
#31 = DIRECTION ( 'NONE',  ( 1.000000000000000000, -6.982962677686274599E-15, 0.000000000000000000 ) ) ;
#32 = EDGE_LOOP ( 'NONE', ( #22, #70, #276, #109, #245 ) ) ;
#33 = DIRECTION ( 'NONE',  ( -1.000000000000000000, 7.105427357601001070E-15, -4.926315508542082329E-29 ) ) ;
#34 = DIRECTION ( 'NONE',  ( -2.444484138976457261E-29, 3.492891438329751493E-15, 1.000000000000000000 ) ) ;
#35 = CYLINDRICAL_SURFACE ( 'NONE', #52, 0.1181000000000001493 ) ;
#36 = CARTESIAN_POINT ( 'NONE',  ( 7.082318908036356584E-29, -1.105860804684304690E-14, -3.031500000000000306 ) ) ;
#37 = AXIS2_PLACEMENT_3D ( 'NONE', #409, #54, #252 ) ;
#38 = EDGE_CURVE ( 'NONE', #309, #273, #275, .T. ) ;
#39 = ORIENTED_EDGE ( 'NONE', *, *, #126, .F. ) ;
#40 = DIRECTION ( 'NONE',  ( 1.000000000000000000, -6.982962677686266711E-15, 4.876176775795935793E-29 ) ) ;
#41 = DIRECTION ( 'NONE',  ( -6.982962677686265922E-15, -1.000000000000000000, 4.626330217890357503E-15 ) ) ;
#42 = ORIENTED_EDGE ( 'NONE', *, *, #166, .F. ) ;
#43 = DIRECTION ( 'NONE',  ( -2.445468806185136597E-29, 3.491481338843145583E-15, 1.000000000000000000 ) ) ;
#44 = DIRECTION ( 'NONE',  ( 6.982962677686265922E-15, 1.000000000000000000, -3.492891438329751493E-15 ) ) ;
#45 = PERSON_AND_ORGANIZATION ( #248, #27 ) ;
#46 = AXIS2_PLACEMENT_3D ( 'NONE', #359, #43, #353 ) ;
#47 =( CONVERSION_BASED_UNIT ( 'INCH', #334 ) LENGTH_UNIT ( ) NAMED_UNIT ( #263 ) );
#48 = DATE_AND_TIME ( #297, #156 ) ;
#49 = EDGE_CURVE ( 'NONE', #273, #402, #116, .T. ) ;
#50 = PERSON_AND_ORGANIZATION_ROLE ( 'creator' ) ;
#51 = CC_DESIGN_DATE_AND_TIME_ASSIGNMENT ( #107, #14, ( #270 ) ) ;
#52 = AXIS2_PLACEMENT_3D ( 'NONE', #412, #360, #9 ) ;
#53 = FACE_OUTER_BOUND ( 'NONE', #187, .T. ) ;
#54 = DIRECTION ( 'NONE',  ( -2.444484138976457261E-29, 3.492891438329751493E-15, 1.000000000000000000 ) ) ;
#55 = CARTESIAN_POINT ( 'NONE',  ( -0.1181000000000000105, -8.920412241468625229E-15, -2.559000000000000163 ) ) ;
#56 = CARTESIAN_POINT ( 'NONE',  ( 6.257954675027765161E-29, -8.934700746099610252E-15, -2.559000000000000163 ) ) ;
#57 = ORIENTED_EDGE ( 'NONE', *, *, #146, .F. ) ;
#58 = PLANE ( 'NONE',  #195 ) ;
#59 = ORIENTED_EDGE ( 'NONE', *, *, #17, .T. ) ;
#60 = EDGE_CURVE ( 'NONE', #63, #239, #333, .T. ) ;
#61 = DIRECTION ( 'NONE',  ( -2.444484138976456981E-29, 3.492891438329751493E-15, 1.000000000000000000 ) ) ;
#62 = CARTESIAN_POINT ( 'NONE',  ( -8.391509709326064107E-16, -0.1181000000000109323, -3.031499999999999417 ) ) ;
#63 = VERTEX_POINT ( 'NONE', #382 ) ;
#64 = DIRECTION ( 'NONE',  ( 6.982962677686265922E-15, 1.000000000000000000, -4.626330217890359870E-15 ) ) ;
#65 = VERTEX_POINT ( 'NONE', #94 ) ;
#66 = ORIENTED_EDGE ( 'NONE', *, *, #11, .T. ) ;
#67 = FACE_OUTER_BOUND ( 'NONE', #74, .T. ) ;
#68 = CARTESIAN_POINT ( 'NONE',  ( 6.252990427501779153E-29, -8.934816299247507336E-15, -2.558000000000000274 ) ) ;
#69 = VECTOR ( 'NONE', #249, 39.37007874015748854 ) ;
#70 = ORIENTED_EDGE ( 'NONE', *, *, #234, .T. ) ;
#71 = CARTESIAN_POINT ( 'NONE',  ( -8.246878922346877175E-16, -0.1181000000000092393, -2.557999999999999829 ) ) ;
#72 = PRODUCT_DEFINITION_SHAPE ( 'NONE', 'NONE',  #230 ) ;
#73 = AXIS2_PLACEMENT_3D ( 'NONE', #157, #254, #331 ) ;
#74 = EDGE_LOOP ( 'NONE', ( #39, #220, #224, #372 ) ) ;
#75 =( LENGTH_UNIT ( ) NAMED_UNIT ( * ) SI_UNIT ( $, .METRE. ) );
#76 = DIRECTION ( 'NONE',  ( 6.982962677686265922E-15, 1.000000000000000000, 0.000000000000000000 ) ) ;
#77 = APPLICATION_PROTOCOL_DEFINITION ( 'international standard', 'config_control_design', 1994, #191 ) ;
#78 = DIRECTION ( 'NONE',  ( 1.000000000000000000, 0.000000000000000000, 0.000000000000000000 ) ) ;
#79 = PERSON_AND_ORGANIZATION_ROLE ( 'design_owner' ) ;
#80 = EDGE_CURVE ( 'NONE', #148, #402, #103, .T. ) ;
#81 = LOCAL_TIME ( 8, 31, 24.00000000000000000, #87 ) ;
#82 = VERTEX_POINT ( 'NONE', #376 ) ;
#83 = EDGE_CURVE ( 'NONE', #291, #82, #231, .T. ) ;
#84 = PERSON_AND_ORGANIZATION_ROLE ( 'design_supplier' ) ;
#85 = CIRCLE ( 'NONE', #319, 0.1170999999999999958 ) ;
#86 = EDGE_LOOP ( 'NONE', ( #178, #271 ) ) ;
#87 = COORDINATED_UNIVERSAL_TIME_OFFSET ( 5, 0, .BEHIND. ) ;
#88 = ADVANCED_FACE ( 'NONE', ( #53 ), #312, .T. ) ;
#89 = FACE_OUTER_BOUND ( 'NONE', #242, .T. ) ;
#90 = ORIENTED_EDGE ( 'NONE', *, *, #166, .T. ) ;
#91 = CARTESIAN_POINT ( 'NONE',  ( 6.255434911640756126E-29, -8.938309190685836494E-15, -2.559000000000000608 ) ) ;
#92 = AXIS2_PLACEMENT_3D ( 'NONE', #347, #113, #31 ) ;
#93 = LINE ( 'NONE', #150, #250 ) ;
#94 = CARTESIAN_POINT ( 'NONE',  ( -0.1180999999999999689, -8.920412241468626807E-15, -3.031500000000000306 ) ) ;
#95 = EDGE_CURVE ( 'NONE', #142, #371, #85, .T. ) ;
#96 = ORIENTED_EDGE ( 'NONE', *, *, #120, .T. ) ;
#97 = DIRECTION ( 'NONE',  ( 2.438088387897960049E-29, -3.491481338843145188E-15, -1.000000000000000000 ) ) ;
#98 = CIRCLE ( 'NONE', #215, 0.1180999999999999689 ) ;
#99 = CYLINDRICAL_SURFACE ( 'NONE', #176, 0.1180999999999999828 ) ;
#100 = EDGE_CURVE ( 'NONE', #28, #352, #367, .T. ) ;
#101 = CIRCLE ( 'NONE', #46, 0.1180999999999999689 ) ;
#102 = CARTESIAN_POINT ( 'NONE',  ( -0.1180999999999999828, 8.391509709326781971E-16, -5.809262341591043083E-30 ) ) ;
#103 = CIRCLE ( 'NONE', #340, 0.1180999999999999966 ) ;
#104 = ORIENTED_EDGE ( 'NONE', *, *, #60, .T. ) ;
#105 = AXIS2_PLACEMENT_3D ( 'NONE', #36, #33, #287 ) ;
#106 = MANIFOLD_SOLID_BREP ( 'Body-Move/Copy2[1]', #404 ) ;
#107 = DATE_AND_TIME ( #396, #141 ) ;
#108 = MANIFOLD_SOLID_BREP ( 'Body-Move/Copy2[2]', #311 ) ;
#109 = ORIENTED_EDGE ( 'NONE', *, *, #49, .F. ) ;
#110 = APPROVAL_STATUS ( 'not_yet_approved' ) ;
#111 = EDGE_CURVE ( 'NONE', #63, #28, #282, .T. ) ;
#112 = ORIENTED_EDGE ( 'NONE', *, *, #120, .F. ) ;
#113 = DIRECTION ( 'NONE',  ( -2.445468806185136597E-29, 3.491481338843145583E-15, 1.000000000000000000 ) ) ;
#114 = CIRCLE ( 'NONE', #370, 0.1181000000000002326 ) ;
#115 = ORIENTED_EDGE ( 'NONE', *, *, #100, .F. ) ;
#116 = LINE ( 'NONE', #406, #174 ) ;
#117 = DIRECTION ( 'NONE',  ( 4.937700262164540154E-15, 0.7071067811865440200, -0.7071067811865511255 ) ) ;
#118 = CIRCLE ( 'NONE', #92, 0.1180999999999999689 ) ;
#119 = DIRECTION ( 'NONE',  ( -2.444484138976457261E-29, 3.492891438329751493E-15, 1.000000000000000000 ) ) ;
#120 = EDGE_CURVE ( 'NONE', #371, #142, #203, .T. ) ;
#121 = APPROVAL ( #175, 'UNSPECIFIED' ) ;
#122 = DIRECTION ( 'NONE',  ( -2.444484138976457261E-29, 3.492891438329751493E-15, 1.000000000000000000 ) ) ;
#123 = LINE ( 'NONE', #253, #348 ) ;
#124 = FACE_OUTER_BOUND ( 'NONE', #32, .T. ) ;
#125 = ORIENTED_EDGE ( 'NONE', *, *, #38, .T. ) ;
#126 = EDGE_CURVE ( 'NONE', #239, #352, #346, .T. ) ;
#127 = AXIS2_PLACEMENT_3D ( 'NONE', #197, #163, #329 ) ;
#128 = DIRECTION ( 'NONE',  ( -6.982962677686265922E-15, -1.000000000000000000, 4.665837734695582242E-15 ) ) ;
#129 = ORIENTED_EDGE ( 'NONE', *, *, #25, .T. ) ;
#130 = CARTESIAN_POINT ( 'NONE',  ( 7.082318908036356584E-29, -1.105860804684304690E-14, -3.031500000000000306 ) ) ;
#131 = AXIS2_PLACEMENT_3D ( 'NONE', #393, #219, #200 ) ;
#132 = CARTESIAN_POINT ( 'NONE',  ( 0.000000000000000000, 0.000000000000000000, 0.000000000000000000 ) ) ;
#133 = CARTESIAN_POINT ( 'NONE',  ( 7.082318908036356584E-29, -1.105860804684304690E-14, -3.031500000000000306 ) ) ;
#134 = EDGE_CURVE ( 'NONE', #291, #352, #182, .T. ) ;
#135 = CALENDAR_DATE ( 2024, 10, 4 ) ;
#136 = DIRECTION ( 'NONE',  ( 1.000000000000000000, -6.982962677686265922E-15, 4.883557194083112340E-29 ) ) ;
#137 = DATE_AND_TIME ( #243, #357 ) ;
#138 = APPROVAL_DATE_TIME ( #170, #284 ) ;
#139 = AXIS2_PLACEMENT_3D ( 'NONE', #133, #390, #64 ) ;
#140 = COORDINATED_UNIVERSAL_TIME_OFFSET ( 5, 0, .BEHIND. ) ;
#141 = LOCAL_TIME ( 8, 31, 24.00000000000000000, #265 ) ;
#142 = VERTEX_POINT ( 'NONE', #247 ) ;
#143 = DIRECTION ( 'NONE',  ( -1.000000000000000000, 6.982962677686265922E-15, -4.876176775795935793E-29 ) ) ;
#144 = AXIS2_PLACEMENT_3D ( 'NONE', #29, #119, #23 ) ;
#145 = CARTESIAN_POINT ( 'NONE',  ( -8.177049295569991395E-16, -0.1171000000000089469, -2.559000000000000163 ) ) ;
#146 = EDGE_CURVE ( 'NONE', #273, #320, #118, .T. ) ;
#147 = DIRECTION ( 'NONE',  ( -6.982962677686265922E-15, -1.000000000000000000, 4.665837734695582242E-15 ) ) ;
#148 = VERTEX_POINT ( 'NONE', #55 ) ;
#149 = CC_DESIGN_DATE_AND_TIME_ASSIGNMENT ( #48, #12, ( #230 ) ) ;
#150 = CARTESIAN_POINT ( 'NONE',  ( 8.320455435751398047E-16, 0.1170999999999910446, -2.559000000000001496 ) ) ;
#151 = DIRECTION ( 'NONE',  ( -2.445468806185136597E-29, 3.491481338843145583E-15, 1.000000000000000000 ) ) ;
#152 = AXIS2_PLACEMENT_3D ( 'NONE', #186, #154, #179 ) ;
#153 = ORIENTED_EDGE ( 'NONE', *, *, #95, .F. ) ;
#154 = DIRECTION ( 'NONE',  ( -2.445468806185136597E-29, 3.491481338843145583E-15, 1.000000000000000000 ) ) ;
#155 = ORIENTED_EDGE ( 'NONE', *, *, #403, .F. ) ;
#156 = LOCAL_TIME ( 8, 31, 24.00000000000000000, #335 ) ;
#157 = CARTESIAN_POINT ( 'NONE',  ( 1.040049634428707326E-45, -1.486113329847629943E-31, -4.254679414136808258E-17 ) ) ;
#158 = EDGE_CURVE ( 'NONE', #371, #291, #218, .T. ) ;
#159 = DIRECTION ( 'NONE',  ( 2.444484138976457261E-29, -3.492891438329751493E-15, -1.000000000000000000 ) ) ;
#160 = FACE_OUTER_BOUND ( 'NONE', #268, .T. ) ;
#161 = EDGE_LOOP ( 'NONE', ( #293, #66, #356, #260 ) ) ;
#162 = CARTESIAN_POINT ( 'NONE',  ( -8.177049295569991395E-16, -0.1171000000000089469, -2.559000000000000163 ) ) ;
#163 = DIRECTION ( 'NONE',  ( -2.445468806185136597E-29, 3.491481338843145583E-15, 1.000000000000000000 ) ) ;
#164 = EDGE_LOOP ( 'NONE', ( #112, #153 ) ) ;
#165 = CARTESIAN_POINT ( 'NONE',  ( 4.888968277952930497E-31, -6.985782876659524137E-17, -0.02000000000000006287 ) ) ;
#166 = EDGE_CURVE ( 'NONE', #142, #82, #93, .T. ) ;
#167 =( NAMED_UNIT ( * ) SI_UNIT ( $, .STERADIAN. ) SOLID_ANGLE_UNIT ( ) );
#168 = SECURITY_CLASSIFICATION_LEVEL ( 'unclassified' ) ;
#169 =( NAMED_UNIT ( * ) PLANE_ANGLE_UNIT ( ) SI_UNIT ( $, .RADIAN. ) );
#170 = DATE_AND_TIME ( #135, #314 ) ;
#171 = CIRCLE ( 'NONE', #105, 0.1181000000000002326 ) ;
#172 = ADVANCED_FACE ( 'NONE', ( #20 ), #266, .T. ) ;
#173 = COORDINATED_UNIVERSAL_TIME_OFFSET ( 5, 0, .BEHIND. ) ;
#174 = VECTOR ( 'NONE', #408, 39.37007874015748143 ) ;
#175 = APPROVAL_STATUS ( 'not_yet_approved' ) ;
#176 = AXIS2_PLACEMENT_3D ( 'NONE', #132, #5, #40 ) ;
#177 = CONICAL_SURFACE ( 'NONE', #185, 0.1170999999999999958, 0.7853981633974311816 ) ;
#178 = ORIENTED_EDGE ( 'NONE', *, *, #7, .T. ) ;
#179 = DIRECTION ( 'NONE',  ( 1.000000000000000000, -6.982962677686266711E-15, 4.876176775795935793E-29 ) ) ;
#180 = CARTESIAN_POINT ( 'NONE',  ( 6.252990427501779153E-29, -8.934816299247507336E-15, -2.558000000000000274 ) ) ;
#181 = VECTOR ( 'NONE', #214, 39.37007874015748854 ) ;
#182 = LINE ( 'NONE', #383, #237 ) ;
#183 = ADVANCED_FACE ( 'NONE', ( #349 ), #58, .F. ) ;
#184 = CC_DESIGN_APPROVAL ( #350, ( #394 ) ) ;
#185 = AXIS2_PLACEMENT_3D ( 'NONE', #323, #262, #128 ) ;
#186 = CARTESIAN_POINT ( 'NONE',  ( 0.000000000000000000, 0.000000000000000000, 0.000000000000000000 ) ) ;
#187 = EDGE_LOOP ( 'NONE', ( #343, #59, #125, #306, #401 ) ) ;
#188 = DIRECTION ( 'NONE',  ( -2.444484138976457261E-29, 3.492891438329751493E-15, 1.000000000000000000 ) ) ;
#189 = CARTESIAN_POINT ( 'NONE',  ( 4.888968277952930497E-31, -6.985782876659524137E-17, -0.02000000000000006287 ) ) ;
#190 = SPHERICAL_SURFACE ( 'NONE', #139, 0.1181000000000002326 ) ;
#191 = APPLICATION_CONTEXT ( 'configuration controlled 3d designs of mechanical parts and assemblies' ) ;
#192 = EDGE_LOOP ( 'NONE', ( #42, #286, #208, #341 ) ) ;
#193 = CARTESIAN_POINT ( 'NONE',  ( 0.1180999999999999689, -1.058425110463605406E-14, -3.031500000000000306 ) ) ;
#194 = ADVANCED_FACE ( 'NONE', ( #274 ), #405, .T. ) ;
#195 = AXIS2_PLACEMENT_3D ( 'NONE', #281, #97, #143 ) ;
#196 = DIRECTION ( 'NONE',  ( 6.982962677686265922E-15, 1.000000000000000000, -3.505890868245046092E-15 ) ) ;
#197 = CARTESIAN_POINT ( 'NONE',  ( 7.413438685950242831E-29, -1.058442567870299660E-14, -3.031500000000000306 ) ) ;
#198 = ADVANCED_FACE ( 'NONE', ( #89 ), #190, .T. ) ;
#199 = EDGE_LOOP ( 'NONE', ( #96, #90, #19, #13 ) ) ;
#200 = DIRECTION ( 'NONE',  ( -6.982962677686265922E-15, -1.000000000000000000, 3.505890868245046092E-15 ) ) ;
#201 = PRODUCT ( '49634', '49634', '', ( #10 ) ) ;
#202 = CC_DESIGN_PERSON_AND_ORGANIZATION_ASSIGNMENT ( #45, #373, ( #270 ) ) ;
#203 = CIRCLE ( 'NONE', #21, 0.1170999999999999958 ) ;
#204 = APPROVAL_ROLE ( '' ) ;
#205 = CARTESIAN_POINT ( 'NONE',  ( 0.1180999999999999966, -9.759388638334360093E-15, -2.559000000000000163 ) ) ;
#206 = PERSON_AND_ORGANIZATION ( #248, #27 ) ;
#207 = AXIS2_PLACEMENT_3D ( 'NONE', #130, #258, #388 ) ;
#208 = ORIENTED_EDGE ( 'NONE', *, *, #158, .T. ) ;
#209 = PERSON_AND_ORGANIZATION ( #248, #27 ) ;
#210 = CC_DESIGN_PERSON_AND_ORGANIZATION_ASSIGNMENT ( #206, #338, ( #230 ) ) ;
#211 = ORIENTED_EDGE ( 'NONE', *, *, #38, .F. ) ;
#212 = APPROVAL_PERSON_ORGANIZATION ( #236, #121, #204 ) ;
#213 = DIRECTION ( 'NONE',  ( -2.444484138976457261E-29, 3.492891438329751493E-15, 1.000000000000000000 ) ) ;
#214 = DIRECTION ( 'NONE',  ( -4.851104656540955597E-15, -0.7071067811865487940, -0.7071067811865461294 ) ) ;
#215 = AXIS2_PLACEMENT_3D ( 'NONE', #8, #295, #229 ) ;
#216 = CARTESIAN_POINT ( 'NONE',  ( 6.255434911640756126E-29, -8.938309190685836494E-15, -2.559000000000000608 ) ) ;
#217 = AXIS2_PLACEMENT_3D ( 'NONE', #6, #395, #44 ) ;
#218 = LINE ( 'NONE', #145, #69 ) ;
#219 = DIRECTION ( 'NONE',  ( -2.444484138976457261E-29, 3.492891438329751493E-15, 1.000000000000000000 ) ) ;
#220 = ORIENTED_EDGE ( 'NONE', *, *, #60, .F. ) ;
#221 = CIRCLE ( 'NONE', #397, 0.1181000000000003020 ) ;
#222 = DIRECTION ( 'NONE',  ( -2.445468806185136877E-29, 3.491481338843145188E-15, 1.000000000000000000 ) ) ;
#223 = ORIENTED_EDGE ( 'NONE', *, *, #246, .T. ) ;
#224 = ORIENTED_EDGE ( 'NONE', *, *, #111, .T. ) ;
#225 = CIRCLE ( 'NONE', #131, 0.1180999999999999966 ) ;
#226 = FACE_OUTER_BOUND ( 'NONE', #255, .T. ) ;
#227 = ORIENTED_EDGE ( 'NONE', *, *, #403, .T. ) ;
#228 = FACE_OUTER_BOUND ( 'NONE', #164, .T. ) ;
#229 = DIRECTION ( 'NONE',  ( 1.000000000000000000, -6.982962677686274599E-15, 0.000000000000000000 ) ) ;
#230 = PRODUCT_DEFINITION ( 'UNKNOWN', '', #394, #377 ) ;
#231 = CIRCLE ( 'NONE', #30, 0.1181000000000003020 ) ;
#232 = CARTESIAN_POINT ( 'NONE',  ( -7.416198335591024051E-16, -0.09810000000000003439, 3.001058559587807221E-16 ) ) ;
#233 = DIRECTION ( 'NONE',  ( -2.444484138976457261E-29, 3.492891438329751493E-15, 1.000000000000000000 ) ) ;
#234 = EDGE_CURVE ( 'NONE', #65, #148, #294, .T. ) ;
#235 = PERSON_AND_ORGANIZATION ( #248, #27 ) ;
#236 = PERSON_AND_ORGANIZATION ( #248, #27 ) ;
#237 = VECTOR ( 'NONE', #280, 39.37007874015748143 ) ;
#238 = APPROVAL_ROLE ( '' ) ;
#239 = VERTEX_POINT ( 'NONE', #232 ) ;
#240 = ADVANCED_FACE ( 'NONE', ( #384 ), #177, .T. ) ;
#241 = PRODUCT_RELATED_PRODUCT_CATEGORY ( 'detail', '', ( #201 ) ) ;
#242 = EDGE_LOOP ( 'NONE', ( #1, #227, #57, #211 ) ) ;
#243 = CALENDAR_DATE ( 2024, 10, 4 ) ;
#244 = DIRECTION ( 'NONE',  ( -6.982962677686265922E-15, -1.000000000000000000, 4.665837734695582242E-15 ) ) ;
#245 = ORIENTED_EDGE ( 'NONE', *, *, #146, .T. ) ;
#246 = EDGE_CURVE ( 'NONE', #239, #63, #337, .T. ) ;
#247 = CARTESIAN_POINT ( 'NONE',  ( 8.355982572539418866E-16, 0.1170999999999910446, -2.559000000000001496 ) ) ;
#248 = PERSON ( 'UNSPECIFIED', 'UNSPECIFIED', 'UNSPECIFIED', ('UNSPECIFIED'), ('UNSPECIFIED'), ('UNSPECIFIED') ) ;
#249 = DIRECTION ( 'NONE',  ( -4.937700262164462845E-15, -0.7071067811865329178, 0.7071067811865620056 ) ) ;
#250 = VECTOR ( 'NONE', #307, 39.37007874015748854 ) ;
#251 = CARTESIAN_POINT ( 'NONE',  ( 8.246878922347484598E-16, 0.1180999999999999273, -0.02000000000000047920 ) ) ;
#252 = DIRECTION ( 'NONE',  ( -6.982962677686267499E-15, -1.000000000000000000, 3.492891438329751887E-15 ) ) ;
#253 = CARTESIAN_POINT ( 'NONE',  ( 8.391509709326792818E-16, 0.1181000000000001493, -4.125104788667442001E-16 ) ) ;
#254 = DIRECTION ( 'NONE',  ( -2.444484138976457261E-29, 3.492891438329751493E-15, 1.000000000000000000 ) ) ;
#255 = EDGE_LOOP ( 'NONE', ( #104, #223 ) ) ;
#256 = FACE_OUTER_BOUND ( 'NONE', #161, .T. ) ;
#257 = CONICAL_SURFACE ( 'NONE', #387, 0.1180999999999999966, 0.7853981633974467247 ) ;
#258 = DIRECTION ( 'NONE',  ( -1.000000000000000000, 6.982962677686265922E-15, -4.883557194083112901E-29 ) ) ;
#259 = ADVANCED_FACE ( 'NONE', ( #256 ), #35, .T. ) ;
#260 = ORIENTED_EDGE ( 'NONE', *, *, #134, .F. ) ;
#261 = CARTESIAN_POINT ( 'NONE',  ( 7.376178530984425849E-29, -1.146372045361145882E-14, -3.149600000000000399 ) ) ;
#262 = DIRECTION ( 'NONE',  ( -2.444484138976457261E-29, 3.492891438329751493E-15, 1.000000000000000000 ) ) ;
#263 = DIMENSIONAL_EXPONENTS ( 1.000000000000000000, 0.000000000000000000, 0.000000000000000000, 0.000000000000000000, 0.000000000000000000, 0.000000000000000000, 0.000000000000000000 ) ;
#264 = APPROVAL_DATE_TIME ( #137, #350 ) ;
#265 = COORDINATED_UNIVERSAL_TIME_OFFSET ( 5, 0, .BEHIND. ) ;
#266 = CONICAL_SURFACE ( 'NONE', #326, 0.1170999999999999958, 0.7853981633974311816 ) ;
#267 = CALENDAR_DATE ( 2024, 10, 4 ) ;
#268 = EDGE_LOOP ( 'NONE', ( #380, #16, #398, #339 ) ) ;
#269 = CC_DESIGN_PERSON_AND_ORGANIZATION_ASSIGNMENT ( #300, #50, ( #394 ) ) ;
#270 = SECURITY_CLASSIFICATION ( '', '', #168 ) ;
#271 = ORIENTED_EDGE ( 'NONE', *, *, #80, .T. ) ;
#272 = PERSON_AND_ORGANIZATION ( #248, #27 ) ;
#273 = VERTEX_POINT ( 'NONE', #193 ) ;
#274 = FACE_OUTER_BOUND ( 'NONE', #304, .T. ) ;
#275 = CIRCLE ( 'NONE', #127, 0.1180999999999999689 ) ;
#276 = ORIENTED_EDGE ( 'NONE', *, *, #7, .F. ) ;
#277 = DIRECTION ( 'NONE',  ( -6.982962677686265922E-15, -1.000000000000000000, 3.492891438329751887E-15 ) ) ;
#278 = APPROVAL_PERSON_ORGANIZATION ( #369, #350, #238 ) ;
#279 = UNCERTAINTY_MEASURE_WITH_UNIT (LENGTH_MEASURE( 1.000000000000000082E-05 ), #47, 'distance_accuracy_value', 'NONE');
#280 = DIRECTION ( 'NONE',  ( -2.444484138976457261E-29, 3.492891438329751493E-15, 1.000000000000000000 ) ) ;
#281 = CARTESIAN_POINT ( 'NONE',  ( 8.246878922348105826E-16, 0.1180999999999910732, -2.559000000000000608 ) ) ;
#282 = LINE ( 'NONE', #251, #385 ) ;
#283 = DIRECTION ( 'NONE',  ( 1.000000000000000000, -6.982962677686273021E-15, 0.000000000000000000 ) ) ;
#284 = APPROVAL ( #298, 'UNSPECIFIED' ) ;
#285 = APPROVAL_PERSON_ORGANIZATION ( #209, #284, #342 ) ;
#286 = ORIENTED_EDGE ( 'NONE', *, *, #95, .T. ) ;
#287 = DIRECTION ( 'NONE',  ( -7.105427357601001070E-15, -1.000000000000000000, 0.000000000000000000 ) ) ;
#288 = CARTESIAN_POINT ( 'NONE',  ( 6.255434911640756126E-29, -8.938309190685836494E-15, -2.559000000000000608 ) ) ;
#289 = DIRECTION ( 'NONE',  ( -6.982962677686265922E-15, -1.000000000000000000, 3.492891438329751493E-15 ) ) ;
#290 = CC_DESIGN_APPROVAL ( #284, ( #230 ) ) ;
#291 = VERTEX_POINT ( 'NONE', #71 ) ;
#292 = PLANE ( 'NONE',  #217 ) ;
#293 = ORIENTED_EDGE ( 'NONE', *, *, #83, .T. ) ;
#294 = LINE ( 'NONE', #102, #15 ) ;
#295 = DIRECTION ( 'NONE',  ( -2.445468806185136597E-29, 3.491481338843145583E-15, 1.000000000000000000 ) ) ;
#296 = APPLICATION_PROTOCOL_DEFINITION ( 'international standard', 'config_control_design', 1994, #18 ) ;
#297 = CALENDAR_DATE ( 2024, 10, 4 ) ;
#298 = APPROVAL_STATUS ( 'not_yet_approved' ) ;
#299 = EDGE_CURVE ( 'NONE', #320, #65, #101, .T. ) ;
#300 = PERSON_AND_ORGANIZATION ( #248, #27 ) ;
#301 = CIRCLE ( 'NONE', #4, 0.1180999999999999966 ) ;
#302 = CC_DESIGN_PERSON_AND_ORGANIZATION_ASSIGNMENT ( #235, #79, ( #201 ) ) ;
#303 = APPROVAL_DATE_TIME ( #399, #121 ) ;
#304 = EDGE_LOOP ( 'NONE', ( #389, #129, #363, #115 ) ) ;
#305 = SHAPE_DEFINITION_REPRESENTATION ( #72, #24 ) ;
#306 = ORIENTED_EDGE ( 'NONE', *, *, #49, .T. ) ;
#307 = DIRECTION ( 'NONE',  ( 5.024295867787975615E-15, 0.7071067811865378028, 0.7071067811865571207 ) ) ;
#308 = ADVANCED_FACE ( 'NONE', ( #228 ), #354, .F. ) ;
#309 = VERTEX_POINT ( 'NONE', #62 ) ;
#310 = DIRECTION ( 'NONE',  ( -6.982962677686265922E-15, -1.000000000000000000, 4.626330217890357503E-15 ) ) ;
#311 = CLOSED_SHELL ( 'NONE', ( #172, #259, #317, #332, #194, #240, #308, #391 ) ) ;
#312 = CYLINDRICAL_SURFACE ( 'NONE', #152, 0.1180999999999999828 ) ;
#313 = CC_DESIGN_APPROVAL ( #121, ( #270 ) ) ;
#314 = LOCAL_TIME ( 8, 31, 24.00000000000000000, #140 ) ;
#315 = DIRECTION ( 'NONE',  ( -2.444484138976457261E-29, 3.492891438329751493E-15, 1.000000000000000000 ) ) ;
#316 = CARTESIAN_POINT ( 'NONE',  ( 6.257954675027765161E-29, -8.934700746099610252E-15, -2.559000000000000163 ) ) ;
#317 = ADVANCED_FACE ( 'NONE', ( #160 ), #400, .T. ) ;
#318 = CARTESIAN_POINT ( 'NONE',  ( -8.102248135368172434E-16, -0.1181000000000000660, -0.01999999999999965000 ) ) ;
#319 = AXIS2_PLACEMENT_3D ( 'NONE', #351, #410, #26 ) ;
#320 = VERTEX_POINT ( 'NONE', #325 ) ;
#321 = DIRECTION ( 'NONE',  ( 2.444484138976457261E-29, -3.492891438329751493E-15, -1.000000000000000000 ) ) ;
#322 = VERTEX_POINT ( 'NONE', #261 ) ;
#323 = CARTESIAN_POINT ( 'NONE',  ( 6.255434911640756126E-29, -8.938309190685836494E-15, -2.559000000000000608 ) ) ;
#324 = EDGE_CURVE ( 'NONE', #352, #28, #225, .T. ) ;
#325 = CARTESIAN_POINT ( 'NONE',  ( 8.246878922348211336E-16, 0.1180999999999892691, -3.031500000000000750 ) ) ;
#326 = AXIS2_PLACEMENT_3D ( 'NONE', #216, #213, #244 ) ;
#327 = EDGE_LOOP ( 'NONE', ( #155, #375, #411, #392 ) ) ;
#328 = CARTESIAN_POINT ( 'NONE',  ( -8.102248135368172434E-16, -0.1181000000000000660, -0.01999999999999965000 ) ) ;
#329 = DIRECTION ( 'NONE',  ( 1.000000000000000000, -6.982962677686274599E-15, 0.000000000000000000 ) ) ;
#330 = AXIS2_PLACEMENT_3D ( 'NONE', #364, #368, #78 ) ;
#331 = DIRECTION ( 'NONE',  ( -6.982962677686267499E-15, -1.000000000000000000, 3.492891438329751887E-15 ) ) ;
#332 = ADVANCED_FACE ( 'NONE', ( #67 ), #257, .T. ) ;
#333 = CIRCLE ( 'NONE', #37, 0.09810000000000003439 ) ;
#334 = LENGTH_MEASURE_WITH_UNIT ( LENGTH_MEASURE( 0.02539999999999999897 ), #75 );
#335 = COORDINATED_UNIVERSAL_TIME_OFFSET ( 5, 0, .BEHIND. ) ;
#336 = AXIS2_PLACEMENT_3D ( 'NONE', #288, #61, #289 ) ;
#337 = CIRCLE ( 'NONE', #73, 0.09810000000000003439 ) ;
#338 = PERSON_AND_ORGANIZATION_ROLE ( 'creator' ) ;
#339 = ORIENTED_EDGE ( 'NONE', *, *, #111, .F. ) ;
#340 = AXIS2_PLACEMENT_3D ( 'NONE', #56, #344, #378 ) ;
#341 = ORIENTED_EDGE ( 'NONE', *, *, #25, .F. ) ;
#342 = APPROVAL_ROLE ( '' ) ;
#343 = ORIENTED_EDGE ( 'NONE', *, *, #234, .F. ) ;
#344 = DIRECTION ( 'NONE',  ( -2.445468806185136597E-29, 3.491481338843145583E-15, 1.000000000000000000 ) ) ;
#345 =( GEOMETRIC_REPRESENTATION_CONTEXT ( 3 ) GLOBAL_UNCERTAINTY_ASSIGNED_CONTEXT ( ( #279 ) ) GLOBAL_UNIT_ASSIGNED_CONTEXT ( ( #47, #169, #167 ) ) REPRESENTATION_CONTEXT ( 'NONE', 'WORKASPACE' ) );
#346 = LINE ( 'NONE', #318, #181 ) ;
#347 = CARTESIAN_POINT ( 'NONE',  ( 7.413438685950242831E-29, -1.058442567870299660E-14, -3.031500000000000306 ) ) ;
#348 = VECTOR ( 'NONE', #34, 39.37007874015748143 ) ;
#349 = FACE_OUTER_BOUND ( 'NONE', #86, .T. ) ;
#350 = APPROVAL ( #110, 'UNSPECIFIED' ) ;
#351 = CARTESIAN_POINT ( 'NONE',  ( 6.255434911640756126E-29, -8.938309190685836494E-15, -2.559000000000000608 ) ) ;
#352 = VERTEX_POINT ( 'NONE', #328 ) ;
#353 = DIRECTION ( 'NONE',  ( 1.000000000000000000, -6.982962677686274599E-15, 0.000000000000000000 ) ) ;
#354 = PLANE ( 'NONE',  #336 ) ;
#355 = EDGE_CURVE ( 'NONE', #322, #309, #171, .T. ) ;
#356 = ORIENTED_EDGE ( 'NONE', *, *, #324, .F. ) ;
#357 = LOCAL_TIME ( 8, 31, 24.00000000000000000, #173 ) ;
#358 = SPHERICAL_SURFACE ( 'NONE', #207, 0.1181000000000002326 ) ;
#359 = CARTESIAN_POINT ( 'NONE',  ( 7.413438685950242831E-29, -1.058442567870299660E-14, -3.031500000000000306 ) ) ;
#360 = DIRECTION ( 'NONE',  ( -2.444484138976457261E-29, 3.492891438329751493E-15, 1.000000000000000000 ) ) ;
#361 = ADVANCED_FACE ( 'NONE', ( #124 ), #99, .T. ) ;
#362 = AXIS2_PLACEMENT_3D ( 'NONE', #189, #159, #196 ) ;
#363 = ORIENTED_EDGE ( 'NONE', *, *, #134, .T. ) ;
#364 = CARTESIAN_POINT ( 'NONE',  ( 0.000000000000000000, 0.000000000000000000, 0.000000000000000000 ) ) ;
#365 = CARTESIAN_POINT ( 'NONE',  ( 8.246878922347484598E-16, 0.1180999999999999273, -0.02000000000000047920 ) ) ;
#366 = CARTESIAN_POINT ( 'NONE',  ( 7.082318908036356584E-29, -1.105860804684304690E-14, -3.031500000000000306 ) ) ;
#367 = CIRCLE ( 'NONE', #144, 0.1180999999999999966 ) ;
#368 = DIRECTION ( 'NONE',  ( 0.000000000000000000, 0.000000000000000000, 1.000000000000000000 ) ) ;
#369 = PERSON_AND_ORGANIZATION ( #248, #27 ) ;
#370 = AXIS2_PLACEMENT_3D ( 'NONE', #366, #136, #76 ) ;
#371 = VERTEX_POINT ( 'NONE', #162 ) ;
#372 = ORIENTED_EDGE ( 'NONE', *, *, #100, .T. ) ;
#373 = PERSON_AND_ORGANIZATION_ROLE ( 'classification_officer' ) ;
#374 = CARTESIAN_POINT ( 'NONE',  ( 0.000000000000000000, 0.000000000000000000, 0.000000000000000000 ) ) ;
#375 = ORIENTED_EDGE ( 'NONE', *, *, #355, .T. ) ;
#376 = CARTESIAN_POINT ( 'NONE',  ( 8.391509709327114278E-16, 0.1180999999999913785, -2.558000000000001162 ) ) ;
#377 = DESIGN_CONTEXT ( 'detailed design', #191, 'design' ) ;
#378 = DIRECTION ( 'NONE',  ( 1.000000000000000000, -6.982962677686273021E-15, 0.000000000000000000 ) ) ;
#379 = AXIS2_PLACEMENT_3D ( 'NONE', #374, #188, #277 ) ;
#380 = ORIENTED_EDGE ( 'NONE', *, *, #246, .F. ) ;
#381 = ADVANCED_FACE ( 'NONE', ( #386 ), #358, .T. ) ;
#382 = CARTESIAN_POINT ( 'NONE',  ( 7.548582654578857533E-16, 0.09810000000000003439, -3.851994442415168749E-16 ) ) ;
#383 = CARTESIAN_POINT ( 'NONE',  ( -8.246878922347490515E-16, -0.1181000000000001493, 4.125104788667442001E-16 ) ) ;
#384 = FACE_OUTER_BOUND ( 'NONE', #192, .T. ) ;
#385 = VECTOR ( 'NONE', #117, 39.37007874015748143 ) ;
#386 = FACE_OUTER_BOUND ( 'NONE', #327, .T. ) ;
#387 = AXIS2_PLACEMENT_3D ( 'NONE', #165, #321, #3 ) ;
#388 = DIRECTION ( 'NONE',  ( 6.982962677686265922E-15, 1.000000000000000000, -4.626330217890359870E-15 ) ) ;
#389 = ORIENTED_EDGE ( 'NONE', *, *, #11, .F. ) ;
#390 = DIRECTION ( 'NONE',  ( -1.000000000000000000, 6.982962677686265922E-15, -4.883557194083112901E-29 ) ) ;
#391 = ADVANCED_FACE ( 'NONE', ( #226 ), #292, .F. ) ;
#392 = ORIENTED_EDGE ( 'NONE', *, *, #299, .F. ) ;
#393 = CARTESIAN_POINT ( 'NONE',  ( 4.888968277952930497E-31, -6.985782876659524137E-17, -0.02000000000000006287 ) ) ;
#394 = PRODUCT_DEFINITION_FORMATION_WITH_SPECIFIED_SOURCE ( 'ANY', '', #201, .NOT_KNOWN. ) ;
#395 = DIRECTION ( 'NONE',  ( 2.444484138976456981E-29, -3.492891438329751493E-15, -1.000000000000000000 ) ) ;
#396 = CALENDAR_DATE ( 2024, 10, 4 ) ;
#397 = AXIS2_PLACEMENT_3D ( 'NONE', #68, #233, #41 ) ;
#398 = ORIENTED_EDGE ( 'NONE', *, *, #324, .T. ) ;
#399 = DATE_AND_TIME ( #267, #81 ) ;
#400 = CONICAL_SURFACE ( 'NONE', #362, 0.1180999999999999966, 0.7853981633974467247 ) ;
#401 = ORIENTED_EDGE ( 'NONE', *, *, #80, .F. ) ;
#402 = VERTEX_POINT ( 'NONE', #205 ) ;
#403 = EDGE_CURVE ( 'NONE', #322, #320, #114, .T. ) ;
#404 = CLOSED_SHELL ( 'NONE', ( #361, #381, #198, #183, #88 ) ) ;
#405 = CYLINDRICAL_SURFACE ( 'NONE', #379, 0.1181000000000001493 ) ;
#406 = CARTESIAN_POINT ( 'NONE',  ( 0.1180999999999999828, -8.246878922347479668E-16, 5.758764772214999039E-30 ) ) ;
#407 = CC_DESIGN_SECURITY_CLASSIFICATION ( #270, ( #394 ) ) ;
#408 = DIRECTION ( 'NONE',  ( -2.445468806185136877E-29, 3.491481338843145188E-15, 1.000000000000000000 ) ) ;
#409 = CARTESIAN_POINT ( 'NONE',  ( 1.040049634428707326E-45, -1.486113329847629943E-31, -4.254679414136808258E-17 ) ) ;
#410 = DIRECTION ( 'NONE',  ( -2.444484138976457261E-29, 3.492891438329751493E-15, 1.000000000000000000 ) ) ;
#411 = ORIENTED_EDGE ( 'NONE', *, *, #17, .F. ) ;
#412 = CARTESIAN_POINT ( 'NONE',  ( 0.000000000000000000, 0.000000000000000000, 0.000000000000000000 ) ) ;
ENDSEC;
END-ISO-10303-21;
