ISO-10303-21;
HEADER;
FILE_DESCRIPTION (( 'STEP AP203' ),
    '1' );
FILE_NAME ('49637.STEP',
    '2024-04-10T12:31:37',
    ( '' ),
    ( '' ),
    'SwSTEP 2.0',
    'SolidWorks 2023',
    '' );
FILE_SCHEMA (( 'CONFIG_CONTROL_DESIGN' ));
ENDSEC;

DATA;
#1 = DESIGN_CONTEXT ( 'detailed design', #307, 'design' ) ;
#2 = DIRECTION ( 'NONE',  ( 6.982962677686265922E-15, 1.000000000000000000, -3.487819265831411744E-15 ) ) ;
#3 = CIRCLE ( 'NONE', #194, 0.2351999999999999924 ) ;
#4 = AXIS2_PLACEMENT_3D ( 'NONE', #384, #275, #96 ) ;
#5 = DATE_AND_TIME ( #256, #305 ) ;
#6 = APPLICATION_PROTOCOL_DEFINITION ( 'international standard', 'config_control_design', 1994, #307 ) ;
#7 = ORIENTED_EDGE ( 'NONE', *, *, #368, .F. ) ;
#8 = PERSON_AND_ORGANIZATION_ROLE ( 'design_owner' ) ;
#9 = AXIS2_PLACEMENT_3D ( 'NONE', #33, #250, #350 ) ;
#10 = CALENDAR_DATE ( 2024, 10, 4 ) ;
#11 = DIRECTION ( 'NONE',  ( -6.982962677686265133E-15, -1.000000000000000000, 4.645999989224937221E-15 ) ) ;
#12 = DATE_AND_TIME ( #361, #243 ) ;
#13 = MECHANICAL_CONTEXT ( 'NONE', #197, 'mechanical' ) ;
#14 = COORDINATED_UNIVERSAL_TIME_OFFSET ( 5, 0, .BEHIND. ) ;
#15 = CYLINDRICAL_SURFACE ( 'NONE', #172, 0.2361999999999999933 ) ;
#16 = AXIS2_PLACEMENT_3D ( 'NONE', #319, #37, #74 ) ;
#17 = LENGTH_MEASURE_WITH_UNIT ( LENGTH_MEASURE( 0.02539999999999999897 ), #76 );
#18 = CARTESIAN_POINT ( 'NONE',  ( 1.674749228186634185E-15, 0.2351999999999890012, -3.149600000000001288 ) ) ;
#19 = VERTEX_POINT ( 'NONE', #89 ) ;
#20 = CARTESIAN_POINT ( 'NONE',  ( 7.699934738216713535E-29, -1.100008313779586868E-14, -3.149600000000000399 ) ) ;
#21 = VECTOR ( 'NONE', #366, 39.37007874015748143 ) ;
#22 = DIRECTION ( 'NONE',  ( -6.982962677686265922E-15, -1.000000000000000000, 3.492533381316950977E-15 ) ) ;
#23 =( GEOMETRIC_REPRESENTATION_CONTEXT ( 3 ) GLOBAL_UNCERTAINTY_ASSIGNED_CONTEXT ( ( #127 ) ) GLOBAL_UNIT_ASSIGNED_CONTEXT ( ( #42, #174, #358 ) ) REPRESENTATION_CONTEXT ( 'NONE', 'WORKASPACE' ) );
#24 = ADVANCED_FACE ( 'NONE', ( #241 ), #225, .F. ) ;
#25 = CARTESIAN_POINT ( 'NONE',  ( 4.889468337704301058E-31, -6.985066762633918669E-17, -0.02000000000000005246 ) ) ;
#26 = EDGE_CURVE ( 'NONE', #231, #139, #340, .T. ) ;
#27 = ORIENTED_EDGE ( 'NONE', *, *, #360, .F. ) ;
#28 = ORIENTED_EDGE ( 'NONE', *, *, #383, .T. ) ;
#29 = CARTESIAN_POINT ( 'NONE',  ( -1.642392821791732611E-15, -0.2352000000000109836, -3.149599999999999067 ) ) ;
#30 = ORIENTED_EDGE ( 'NONE', *, *, #348, .F. ) ;
#31 = VECTOR ( 'NONE', #62, 39.37007874015748143 ) ;
#32 = LOCAL_TIME ( 8, 31, 37.00000000000000000, #108 ) ;
#33 = CARTESIAN_POINT ( 'NONE',  ( -5.273295032992337859E-46, 7.533399404691048015E-32, 2.157001403333869871E-17 ) ) ;
#34 = CARTESIAN_POINT ( 'NONE',  ( 0.2361999999999999933, -1.429569576782631264E-14, -4.094500000000000028 ) ) ;
#35 = APPROVAL_DATE_TIME ( #5, #332 ) ;
#36 = VERTEX_POINT ( 'NONE', #371 ) ;
#37 = DIRECTION ( 'NONE',  ( -2.444734168852144381E-29, 3.492533381316950583E-15, 1.000000000000000000 ) ) ;
#38 = ORIENTED_EDGE ( 'NONE', *, *, #368, .T. ) ;
#39 = ORIENTED_EDGE ( 'NONE', *, *, #375, .T. ) ;
#40 = DIRECTION ( 'NONE',  ( 0.000000000000000000, 0.000000000000000000, 1.000000000000000000 ) ) ;
#41 = ORIENTED_EDGE ( 'NONE', *, *, #285, .T. ) ;
#42 =( CONVERSION_BASED_UNIT ( 'INCH', #17 ) LENGTH_UNIT ( ) NAMED_UNIT ( #294 ) );
#43 = PERSON_AND_ORGANIZATION_ROLE ( 'creator' ) ;
#44 = DIRECTION ( 'NONE',  ( -2.444734168852144381E-29, 3.492533381316950583E-15, 1.000000000000000000 ) ) ;
#45 = AXIS2_PLACEMENT_3D ( 'NONE', #302, #236, #185 ) ;
#46 = DATE_AND_TIME ( #289, #32 ) ;
#47 = EDGE_CURVE ( 'NONE', #316, #36, #364, .T. ) ;
#48 = CC_DESIGN_APPROVAL ( #103, ( #202 ) ) ;
#49 = ADVANCED_FACE ( 'NONE', ( #86 ), #93, .F. ) ;
#50 = ORIENTED_EDGE ( 'NONE', *, *, #78, .F. ) ;
#51 = DIRECTION ( 'NONE',  ( 1.000000000000000000, -6.982962677686265133E-15, 0.000000000000000000 ) ) ;
#52 = DIRECTION ( 'NONE',  ( -2.445468806185136877E-29, 3.491481338843145188E-15, 1.000000000000000000 ) ) ;
#53 = SECURITY_CLASSIFICATION ( '', '', #181 ) ;
#54 = DIRECTION ( 'NONE',  ( 6.982962677686265922E-15, 1.000000000000000000, -3.492533381316950977E-15 ) ) ;
#55 = DIRECTION ( 'NONE',  ( 6.982962677686265922E-15, 1.000000000000000000, -4.626330217890364603E-15 ) ) ;
#56 = FACE_OUTER_BOUND ( 'NONE', #359, .T. ) ;
#57 = CARTESIAN_POINT ( 'NONE',  ( 1.678301941865397218E-15, 0.2361999999999894184, -3.148600000000001398 ) ) ;
#58 = VERTEX_POINT ( 'NONE', #149 ) ;
#59 = AXIS2_PLACEMENT_3D ( 'NONE', #312, #189, #408 ) ;
#60 = ADVANCED_FACE ( 'NONE', ( #56 ), #192, .T. ) ;
#61 = EDGE_CURVE ( 'NONE', #119, #203, #115, .T. ) ;
#62 = DIRECTION ( 'NONE',  ( -2.444734168852144661E-29, 3.492533381316950977E-15, 1.000000000000000000 ) ) ;
#63 = CARTESIAN_POINT ( 'NONE',  ( 9.681852249011155898E-29, -1.477005271003331337E-14, -4.094500000000000028 ) ) ;
#64 = ORIENTED_EDGE ( 'NONE', *, *, #79, .T. ) ;
#65 = PERSON_AND_ORGANIZATION_ROLE ( 'creator' ) ;
#66 = CC_DESIGN_PERSON_AND_ORGANIZATION_ASSIGNMENT ( #110, #171, ( #53 ) ) ;
#67 = CIRCLE ( 'NONE', #45, 0.2161999999999999478 ) ;
#68 = CC_DESIGN_SECURITY_CLASSIFICATION ( #53, ( #202 ) ) ;
#69 = ORIENTED_EDGE ( 'NONE', *, *, #285, .F. ) ;
#70 = CARTESIAN_POINT ( 'NONE',  ( 7.699934738216713535E-29, -1.100008313779586868E-14, -3.149600000000000399 ) ) ;
#71 = VERTEX_POINT ( 'NONE', #34 ) ;
#72 = VERTEX_POINT ( 'NONE', #83 ) ;
#73 = CARTESIAN_POINT ( 'NONE',  ( 9.681852249011155898E-29, -1.477005271003331337E-14, -4.094500000000000028 ) ) ;
#74 = DIRECTION ( 'NONE',  ( -6.982962677686265133E-15, -1.000000000000000000, 3.492533381316950189E-15 ) ) ;
#75 = AXIS2_PLACEMENT_3D ( 'NONE', #282, #220, #54 ) ;
#76 =( LENGTH_UNIT ( ) NAMED_UNIT ( * ) SI_UNIT ( $, .METRE. ) );
#77 = DIRECTION ( 'NONE',  ( 6.982962677686265922E-15, 1.000000000000000000, -3.487819265831411744E-15 ) ) ;
#78 = EDGE_CURVE ( 'NONE', #71, #141, #337, .T. ) ;
#79 = EDGE_CURVE ( 'NONE', #36, #139, #410, .T. ) ;
#80 = CIRCLE ( 'NONE', #315, 0.2361999999999999933 ) ;
#81 = AXIS2_PLACEMENT_3D ( 'NONE', #397, #112, #206 ) ;
#82 = DIRECTION ( 'NONE',  ( -2.444734168852144381E-29, 3.492533381316950583E-15, 1.000000000000000000 ) ) ;
#83 = CARTESIAN_POINT ( 'NONE',  ( 1.649375784469595330E-15, 0.2361999999999855882, -4.094500000000001805 ) ) ;
#84 = CARTESIAN_POINT ( 'NONE',  ( 4.889468337704301058E-31, -6.985066762633918669E-17, -0.02000000000000005246 ) ) ;
#85 = AXIS2_PLACEMENT_3D ( 'NONE', #20, #82, #301 ) ;
#86 = FACE_OUTER_BOUND ( 'NONE', #179, .T. ) ;
#87 = VECTOR ( 'NONE', #154, 39.37007874015748143 ) ;
#88 = CARTESIAN_POINT ( 'NONE',  ( -0.2361999999999999933, 1.678301941865356591E-15, -1.161852468318208757E-29 ) ) ;
#89 = CARTESIAN_POINT ( 'NONE',  ( -1.642392821791732611E-15, -0.2352000000000109836, -3.149599999999999067 ) ) ;
#90 = PRODUCT_DEFINITION_SHAPE ( 'NONE', 'NONE',  #184 ) ;
#91 = FACE_OUTER_BOUND ( 'NONE', #412, .T. ) ;
#92 = EDGE_CURVE ( 'NONE', #170, #141, #207, .T. ) ;
#93 = PLANE ( 'NONE',  #75 ) ;
#94 = EDGE_LOOP ( 'NONE', ( #111, #27, #274, #217 ) ) ;
#95 = AXIS2_PLACEMENT_3D ( 'NONE', #341, #193, #314 ) ;
#96 = DIRECTION ( 'NONE',  ( -6.982962677686265922E-15, -1.000000000000000000, 4.626330217890361448E-15 ) ) ;
#97 = DIRECTION ( 'NONE',  ( 1.000000000000000000, -6.982962677686265133E-15, 0.000000000000000000 ) ) ;
#98 = EDGE_CURVE ( 'NONE', #205, #19, #258, .T. ) ;
#99 = VECTOR ( 'NONE', #52, 39.37007874015748143 ) ;
#100 = AXIS2_PLACEMENT_3D ( 'NONE', #264, #306, #211 ) ;
#101 = APPROVAL_STATUS ( 'not_yet_approved' ) ;
#102 = APPROVAL_DATE_TIME ( #46, #103 ) ;
#103 = APPROVAL ( #140, 'UNSPECIFIED' ) ;
#104 = EDGE_LOOP ( 'NONE', ( #117, #191, #64, #125 ) ) ;
#105 = DIRECTION ( 'NONE',  ( 2.438088387897960049E-29, -3.491481338843145188E-15, -1.000000000000000000 ) ) ;
#106 = AXIS2_PLACEMENT_3D ( 'NONE', #336, #180, #398 ) ;
#107 = APPROVAL_PERSON_ORGANIZATION ( #175, #162, #393 ) ;
#108 = COORDINATED_UNIVERSAL_TIME_OFFSET ( 5, 0, .BEHIND. ) ;
#109 = CARTESIAN_POINT ( 'NONE',  ( 4.889468337704301058E-31, -6.985066762633918669E-17, -0.02000000000000005246 ) ) ;
#110 = PERSON_AND_ORGANIZATION ( #163, #330 ) ;
#111 = ORIENTED_EDGE ( 'NONE', *, *, #26, .F. ) ;
#112 = DIRECTION ( 'NONE',  ( -2.445468806185136597E-29, 3.491481338843145583E-15, 1.000000000000000000 ) ) ;
#113 = FACE_OUTER_BOUND ( 'NONE', #254, .T. ) ;
#114 = DIRECTION ( 'NONE',  ( -2.445468806185136597E-29, 3.491481338843145583E-15, 1.000000000000000000 ) ) ;
#115 = CIRCLE ( 'NONE', #182, 0.2361999999999999933 ) ;
#116 = CONICAL_SURFACE ( 'NONE', #208, 0.2361999999999999933, 0.7853981633974479459 ) ;
#117 = ORIENTED_EDGE ( 'NONE', *, *, #235, .F. ) ;
#118 = DIRECTION ( 'NONE',  ( -6.982962677686265922E-15, -1.000000000000000000, 3.487819265831411744E-15 ) ) ;
#119 = VERTEX_POINT ( 'NONE', #151 ) ;
#120 = CARTESIAN_POINT ( 'NONE',  ( 0.2361999999999999933, -1.264614540928986883E-14, -3.149600000000000399 ) ) ;
#121 = AXIS2_PLACEMENT_3D ( 'NONE', #63, #223, #55 ) ;
#122 = SPHERICAL_SURFACE ( 'NONE', #121, 0.2362000000000002709 ) ;
#123 = DIRECTION ( 'NONE',  ( 1.000000000000000000, -6.982962677686266711E-15, 4.876176775795936353E-29 ) ) ;
#124 = EDGE_CURVE ( 'NONE', #72, #119, #137, .T. ) ;
#125 = ORIENTED_EDGE ( 'NONE', *, *, #299, .F. ) ;
#126 = DIRECTION ( 'NONE',  ( -2.445468806185136597E-29, 3.491481338843145583E-15, 1.000000000000000000 ) ) ;
#127 = UNCERTAINTY_MEASURE_WITH_UNIT (LENGTH_MEASURE( 1.000000000000000082E-05 ), #42, 'distance_accuracy_value', 'NONE');
#128 = CARTESIAN_POINT ( 'NONE',  ( -1.649375784469497314E-15, -0.2362000000000002153, 8.249363846670644203E-16 ) ) ;
#129 = DIRECTION ( 'NONE',  ( 1.000000000000000000, -6.982962677686265922E-15, 4.883557194083112340E-29 ) ) ;
#130 = ORIENTED_EDGE ( 'NONE', *, *, #360, .T. ) ;
#131 = DIRECTION ( 'NONE',  ( -2.445468806185136597E-29, 3.491481338843145583E-15, 1.000000000000000000 ) ) ;
#132 = CC_DESIGN_APPROVAL ( #162, ( #53 ) ) ;
#133 = LINE ( 'NONE', #283, #148 ) ;
#134 = ORIENTED_EDGE ( 'NONE', *, *, #92, .T. ) ;
#135 = PERSON_AND_ORGANIZATION ( #163, #330 ) ;
#136 = PERSON_AND_ORGANIZATION ( #163, #330 ) ;
#137 = CIRCLE ( 'NONE', #290, 0.2361999999999999933 ) ;
#138 = DATE_AND_TIME ( #10, #259 ) ;
#139 = VERTEX_POINT ( 'NONE', #273 ) ;
#140 = APPROVAL_STATUS ( 'not_yet_approved' ) ;
#141 = VERTEX_POINT ( 'NONE', #120 ) ;
#142 = CC_DESIGN_PERSON_AND_ORGANIZATION_ASSIGNMENT ( #136, #177, ( #202 ) ) ;
#143 = VECTOR ( 'NONE', #266, 39.37007874015748143 ) ;
#144 = CARTESIAN_POINT ( 'NONE',  ( 1.649375784469496525E-15, 0.2361999999999999378, -0.02000000000000087472 ) ) ;
#145 = FACE_OUTER_BOUND ( 'NONE', #104, .T. ) ;
#146 = ADVANCED_FACE ( 'NONE', ( #221 ), #245, .T. ) ;
#147 = AXIS2_PLACEMENT_3D ( 'NONE', #339, #276, #123 ) ;
#148 = VECTOR ( 'NONE', #378, 39.37007874015748143 ) ;
#149 = CARTESIAN_POINT ( 'NONE',  ( 1.026957149490729443E-28, -1.558027752357013406E-14, -4.330700000000000216 ) ) ;
#150 = ORIENTED_EDGE ( 'NONE', *, *, #281, .T. ) ;
#151 = CARTESIAN_POINT ( 'NONE',  ( -0.2361999999999999933, -1.096801804149146287E-14, -4.094500000000000028 ) ) ;
#152 = APPROVAL_ROLE ( '' ) ;
#153 = EDGE_LOOP ( 'NONE', ( #69, #320, #150, #272 ) ) ;
#154 = DIRECTION ( 'NONE',  ( -4.937700262166064233E-15, -0.7071067811867622899, 0.7071067811863327446 ) ) ;
#155 = PRODUCT ( '49637', '49637', '', ( #13 ) ) ;
#156 = APPROVAL_PERSON_ORGANIZATION ( #135, #332, #152 ) ;
#157 = EDGE_LOOP ( 'NONE', ( #200, #134 ) ) ;
#158 = CIRCLE ( 'NONE', #95, 0.2361999999999999933 ) ;
#159 = FACE_OUTER_BOUND ( 'NONE', #363, .T. ) ;
#160 = CARTESIAN_POINT ( 'NONE',  ( 0.2361999999999999933, -1.649375784469496131E-15, 1.151752954443000088E-29 ) ) ;
#161 = FACE_OUTER_BOUND ( 'NONE', #401, .T. ) ;
#162 = APPROVAL ( #297, 'UNSPECIFIED' ) ;
#163 = PERSON ( 'UNSPECIFIED', 'UNSPECIFIED', 'UNSPECIFIED', ('UNSPECIFIED'), ('UNSPECIFIED'), ('UNSPECIFIED') ) ;
#164 = ORIENTED_EDGE ( 'NONE', *, *, #98, .F. ) ;
#165 = CIRCLE ( 'NONE', #173, 0.2361999999999999933 ) ;
#166 = CIRCLE ( 'NONE', #183, 0.2362000000000002709 ) ;
#167 = CARTESIAN_POINT ( 'NONE',  ( 7.702248551960706711E-29, -1.099676962482037231E-14, -3.149600000000000399 ) ) ;
#168 = ORIENTED_EDGE ( 'NONE', *, *, #348, .T. ) ;
#169 = APPLICATION_PROTOCOL_DEFINITION ( 'international standard', 'config_control_design', 1994, #197 ) ;
#170 = VERTEX_POINT ( 'NONE', #379 ) ;
#171 = PERSON_AND_ORGANIZATION_ROLE ( 'classification_officer' ) ;
#172 = AXIS2_PLACEMENT_3D ( 'NONE', #240, #114, #334 ) ;
#173 = AXIS2_PLACEMENT_3D ( 'NONE', #25, #333, #118 ) ;
#174 =( NAMED_UNIT ( * ) PLANE_ANGLE_UNIT ( ) SI_UNIT ( $, .RADIAN. ) );
#175 = PERSON_AND_ORGANIZATION ( #163, #330 ) ;
#176 = CARTESIAN_POINT ( 'NONE',  ( 0.000000000000000000, 0.000000000000000000, 0.000000000000000000 ) ) ;
#177 = PERSON_AND_ORGANIZATION_ROLE ( 'design_supplier' ) ;
#178 = ADVANCED_FACE ( 'NONE', ( #91 ), #201, .T. ) ;
#179 = EDGE_LOOP ( 'NONE', ( #130, #41 ) ) ;
#180 = DIRECTION ( 'NONE',  ( -2.444734168852144381E-29, 3.492533381316950583E-15, 1.000000000000000000 ) ) ;
#181 = SECURITY_CLASSIFICATION_LEVEL ( 'unclassified' ) ;
#182 = AXIS2_PLACEMENT_3D ( 'NONE', #342, #196, #270 ) ;
#183 = AXIS2_PLACEMENT_3D ( 'NONE', #411, #129, #227 ) ;
#184 = PRODUCT_DEFINITION ( 'UNKNOWN', '', #202, #1 ) ;
#185 = DIRECTION ( 'NONE',  ( -6.982962677686265922E-15, -1.000000000000000000, 3.492533381316950189E-15 ) ) ;
#186 = ORIENTED_EDGE ( 'NONE', *, *, #61, .T. ) ;
#187 = FACE_OUTER_BOUND ( 'NONE', #244, .T. ) ;
#188 = AXIS2_PLACEMENT_3D ( 'NONE', #167, #131, #97 ) ;
#189 = DIRECTION ( 'NONE',  ( -1.000000000000000000, 6.982962677686265922E-15, -4.883557194083112901E-29 ) ) ;
#190 = LINE ( 'NONE', #88, #284 ) ;
#191 = ORIENTED_EDGE ( 'NONE', *, *, #47, .T. ) ;
#192 = SPHERICAL_SURFACE ( 'NONE', #59, 0.2362000000000002709 ) ;
#193 = DIRECTION ( 'NONE',  ( -2.445468806185136597E-29, 3.491481338843145583E-15, 1.000000000000000000 ) ) ;
#194 = AXIS2_PLACEMENT_3D ( 'NONE', #214, #268, #234 ) ;
#195 = CIRCLE ( 'NONE', #4, 0.2362000000000004096 ) ;
#196 = DIRECTION ( 'NONE',  ( -2.445468806185136597E-29, 3.491481338843145583E-15, 1.000000000000000000 ) ) ;
#197 = APPLICATION_CONTEXT ( 'configuration controlled 3d designs of mechanical parts and assemblies' ) ;
#198 = DIRECTION ( 'NONE',  ( 2.444734168852144381E-29, -3.492533381316950583E-15, -1.000000000000000000 ) ) ;
#199 = CYLINDRICAL_SURFACE ( 'NONE', #16, 0.2362000000000002153 ) ;
#200 = ORIENTED_EDGE ( 'NONE', *, *, #248, .T. ) ;
#201 = CONICAL_SURFACE ( 'NONE', #85, 0.2351999999999999924, 0.7853981633977554777 ) ;
#202 = PRODUCT_DEFINITION_FORMATION_WITH_SPECIFIED_SOURCE ( 'ANY', '', #155, .NOT_KNOWN. ) ;
#203 = VERTEX_POINT ( 'NONE', #300 ) ;
#204 = PERSON_AND_ORGANIZATION ( #163, #330 ) ;
#205 = VERTEX_POINT ( 'NONE', #18 ) ;
#206 = DIRECTION ( 'NONE',  ( 1.000000000000000000, -6.982962677686265133E-15, 0.000000000000000000 ) ) ;
#207 = CIRCLE ( 'NONE', #188, 0.2361999999999999933 ) ;
#208 = AXIS2_PLACEMENT_3D ( 'NONE', #109, #362, #77 ) ;
#209 = CARTESIAN_POINT ( 'NONE',  ( 1.649375784469572847E-15, 0.2361999999999890021, -3.149600000000001288 ) ) ;
#210 = CC_DESIGN_PERSON_AND_ORGANIZATION_ASSIGNMENT ( #287, #8, ( #155 ) ) ;
#211 = DIRECTION ( 'NONE',  ( -6.982962677686265133E-15, -1.000000000000000000, 4.645999989224937221E-15 ) ) ;
#212 = CLOSED_SHELL ( 'NONE', ( #178, #381, #303, #313, #233, #295, #24, #49 ) ) ;
#213 = APPROVAL_PERSON_ORGANIZATION ( #204, #103, #286 ) ;
#214 = CARTESIAN_POINT ( 'NONE',  ( 7.699934738216713535E-29, -1.100008313779586868E-14, -3.149600000000000399 ) ) ;
#215 = CC_DESIGN_PERSON_AND_ORGANIZATION_ASSIGNMENT ( #253, #65, ( #184 ) ) ;
#216 = CARTESIAN_POINT ( 'NONE',  ( 1.678301941865357775E-15, 0.2362000000000002153, -8.249363846670644203E-16 ) ) ;
#217 = ORIENTED_EDGE ( 'NONE', *, *, #299, .T. ) ;
#218 = CLOSED_SHELL ( 'NONE', ( #255, #326, #60, #388, #146 ) ) ;
#219 = EDGE_CURVE ( 'NONE', #386, #369, #402, .T. ) ;
#220 = DIRECTION ( 'NONE',  ( 2.444734168852143820E-29, -3.492533381316950977E-15, -1.000000000000000000 ) ) ;
#221 = FACE_OUTER_BOUND ( 'NONE', #387, .T. ) ;
#222 = DIRECTION ( 'NONE',  ( -4.851104656540961908E-15, -0.7071067811865496822, -0.7071067811865453523 ) ) ;
#223 = DIRECTION ( 'NONE',  ( -1.000000000000000000, 6.982962677686265922E-15, -4.883557194083112901E-29 ) ) ;
#224 = ORIENTED_EDGE ( 'NONE', *, *, #232, .T. ) ;
#225 = PLANE ( 'NONE',  #373 ) ;
#226 = ORIENTED_EDGE ( 'NONE', *, *, #375, .F. ) ;
#227 = DIRECTION ( 'NONE',  ( 6.982962677686265922E-15, 1.000000000000000000, 0.000000000000000000 ) ) ;
#228 = ORIENTED_EDGE ( 'NONE', *, *, #248, .F. ) ;
#229 = ORIENTED_EDGE ( 'NONE', *, *, #232, .F. ) ;
#230 = PRODUCT_RELATED_PRODUCT_CATEGORY ( 'detail', '', ( #155 ) ) ;
#231 = VERTEX_POINT ( 'NONE', #335 ) ;
#232 = EDGE_CURVE ( 'NONE', #19, #205, #3, .T. ) ;
#233 = ADVANCED_FACE ( 'NONE', ( #145 ), #367, .T. ) ;
#234 = DIRECTION ( 'NONE',  ( -6.982962677686265133E-15, -1.000000000000000000, 4.645999989224937221E-15 ) ) ;
#235 = EDGE_CURVE ( 'NONE', #316, #369, #298, .T. ) ;
#236 = DIRECTION ( 'NONE',  ( -2.444734168852144381E-29, 3.492533381316950583E-15, 1.000000000000000000 ) ) ;
#237 = DATE_TIME_ROLE ( 'creation_date' ) ;
#238 = ORIENTED_EDGE ( 'NONE', *, *, #98, .T. ) ;
#239 = ORIENTED_EDGE ( 'NONE', *, *, #389, .T. ) ;
#240 = CARTESIAN_POINT ( 'NONE',  ( 0.000000000000000000, 0.000000000000000000, 0.000000000000000000 ) ) ;
#241 = FACE_OUTER_BOUND ( 'NONE', #317, .T. ) ;
#242 = AXIS2_PLACEMENT_3D ( 'NONE', #84, #370, #271 ) ;
#243 = LOCAL_TIME ( 8, 31, 37.00000000000000000, #356 ) ;
#244 = EDGE_LOOP ( 'NONE', ( #249, #238, #310, #251 ) ) ;
#245 = CYLINDRICAL_SURFACE ( 'NONE', #147, 0.2361999999999999933 ) ;
#246 = CARTESIAN_POINT ( 'NONE',  ( -1.620449627073635079E-15, -0.2362000000000000766, -0.01999999999999922673 ) ) ;
#247 = MANIFOLD_SOLID_BREP ( 'Body-Move/Copy2[1]', #218 ) ;
#248 = EDGE_CURVE ( 'NONE', #141, #170, #80, .T. ) ;
#249 = ORIENTED_EDGE ( 'NONE', *, *, #321, .F. ) ;
#250 = DIRECTION ( 'NONE',  ( -2.444734168852144381E-29, 3.492533381316950583E-15, 1.000000000000000000 ) ) ;
#251 = ORIENTED_EDGE ( 'NONE', *, *, #47, .F. ) ;
#252 = MANIFOLD_SOLID_BREP ( 'Body-Move/Copy2[2]', #212 ) ;
#253 = PERSON_AND_ORGANIZATION ( #163, #330 ) ;
#254 = EDGE_LOOP ( 'NONE', ( #346, #323, #228, #50, #239 ) ) ;
#255 = ADVANCED_FACE ( 'NONE', ( #113 ), #15, .T. ) ;
#256 = CALENDAR_DATE ( 2024, 10, 4 ) ;
#257 = DATE_TIME_ROLE ( 'classification_date' ) ;
#258 = CIRCLE ( 'NONE', #328, 0.2351999999999999924 ) ;
#259 = LOCAL_TIME ( 8, 31, 37.00000000000000000, #14 ) ;
#260 = DIRECTION ( 'NONE',  ( -1.000000000000000000, 7.105427357601001070E-15, -4.926315508542082329E-29 ) ) ;
#261 = PLANE ( 'NONE',  #407 ) ;
#262 = SHAPE_DEFINITION_REPRESENTATION ( #90, #329 ) ;
#263 = LOCAL_TIME ( 8, 31, 37.00000000000000000, #404 ) ;
#264 = CARTESIAN_POINT ( 'NONE',  ( 7.699934738216713535E-29, -1.100008313779586868E-14, -3.149600000000000399 ) ) ;
#265 = DIRECTION ( 'NONE',  ( -2.445468806185136597E-29, 3.491481338843145583E-15, 1.000000000000000000 ) ) ;
#266 = DIRECTION ( 'NONE',  ( -2.444734168852144661E-29, 3.492533381316950977E-15, 1.000000000000000000 ) ) ;
#267 = ORIENTED_EDGE ( 'NONE', *, *, #78, .T. ) ;
#268 = DIRECTION ( 'NONE',  ( -2.444734168852144381E-29, 3.492533381316950583E-15, 1.000000000000000000 ) ) ;
#269 = CC_DESIGN_PERSON_AND_ORGANIZATION_ASSIGNMENT ( #325, #43, ( #202 ) ) ;
#270 = DIRECTION ( 'NONE',  ( 1.000000000000000000, -6.982962677686265133E-15, 0.000000000000000000 ) ) ;
#271 = DIRECTION ( 'NONE',  ( -6.982962677686265922E-15, -1.000000000000000000, 3.487819265831411744E-15 ) ) ;
#272 = ORIENTED_EDGE ( 'NONE', *, *, #219, .F. ) ;
#273 = CARTESIAN_POINT ( 'NONE',  ( -1.620449627073635079E-15, -0.2362000000000000766, -0.01999999999999922673 ) ) ;
#274 = ORIENTED_EDGE ( 'NONE', *, *, #219, .T. ) ;
#275 = DIRECTION ( 'NONE',  ( -2.444734168852144381E-29, 3.492533381316950583E-15, 1.000000000000000000 ) ) ;
#276 = DIRECTION ( 'NONE',  ( -2.445468806185136597E-29, 3.491481338843145583E-15, 1.000000000000000000 ) ) ;
#277 = AXIS2_PLACEMENT_3D ( 'NONE', #338, #406, #380 ) ;
#278 = CARTESIAN_POINT ( 'NONE',  ( 7.699934738216713535E-29, -1.100008313779586868E-14, -3.149600000000000399 ) ) ;
#279 = DIRECTION ( 'NONE',  ( -2.445468806185136877E-29, 3.491481338843145188E-15, 1.000000000000000000 ) ) ;
#280 = CARTESIAN_POINT ( 'NONE',  ( 1.001297202692504215E-28, -1.429587034189326149E-14, -4.094500000000000028 ) ) ;
#281 = EDGE_CURVE ( 'NONE', #139, #369, #344, .T. ) ;
#282 = CARTESIAN_POINT ( 'NONE',  ( 1.509716530915770323E-15, 0.2161999999999999478, -7.443007100240550862E-16 ) ) ;
#283 = CARTESIAN_POINT ( 'NONE',  ( 1.671196514507832300E-15, 0.2351999999999890012, -3.149600000000001288 ) ) ;
#284 = VECTOR ( 'NONE', #279, 39.37007874015748143 ) ;
#285 = EDGE_CURVE ( 'NONE', #231, #386, #67, .T. ) ;
#286 = APPROVAL_ROLE ( '' ) ;
#287 = PERSON_AND_ORGANIZATION ( #163, #330 ) ;
#288 = ORIENTED_EDGE ( 'NONE', *, *, #281, .F. ) ;
#289 = CALENDAR_DATE ( 2024, 10, 4 ) ;
#290 = AXIS2_PLACEMENT_3D ( 'NONE', #280, #126, #405 ) ;
#291 = CONICAL_SURFACE ( 'NONE', #365, 0.2361999999999999933, 0.7853981633974479459 ) ;
#292 = ORIENTED_EDGE ( 'NONE', *, *, #321, .T. ) ;
#293 = DIRECTION ( 'NONE',  ( 1.000000000000000000, 0.000000000000000000, 0.000000000000000000 ) ) ;
#294 = DIMENSIONAL_EXPONENTS ( 1.000000000000000000, 0.000000000000000000, 0.000000000000000000, 0.000000000000000000, 0.000000000000000000, 0.000000000000000000, 0.000000000000000000 ) ;
#295 = ADVANCED_FACE ( 'NONE', ( #187 ), #354, .T. ) ;
#296 = DIRECTION ( 'NONE',  ( -1.000000000000000000, 6.982962677686265922E-15, -4.876176775795935793E-29 ) ) ;
#297 = APPROVAL_STATUS ( 'not_yet_approved' ) ;
#298 = LINE ( 'NONE', #216, #143 ) ;
#299 = EDGE_CURVE ( 'NONE', #369, #139, #165, .T. ) ;
#300 = CARTESIAN_POINT ( 'NONE',  ( -1.678301941865258773E-15, -0.2362000000000146760, -4.094499999999999140 ) ) ;
#301 = DIRECTION ( 'NONE',  ( -6.982962677686265133E-15, -1.000000000000000000, 4.645999989224937221E-15 ) ) ;
#302 = CARTESIAN_POINT ( 'NONE',  ( -5.273295032992337859E-46, 7.533399404691048015E-32, 2.157001403333869871E-17 ) ) ;
#303 = ADVANCED_FACE ( 'NONE', ( #395 ), #116, .T. ) ;
#304 = ORIENTED_EDGE ( 'NONE', *, *, #124, .F. ) ;
#305 = LOCAL_TIME ( 8, 31, 37.00000000000000000, #376 ) ;
#306 = DIRECTION ( 'NONE',  ( -2.444734168852144381E-29, 3.492533381316950583E-15, 1.000000000000000000 ) ) ;
#307 = APPLICATION_CONTEXT ( 'configuration controlled 3d designs of mechanical parts and assemblies' ) ;
#308 = ORIENTED_EDGE ( 'NONE', *, *, #318, .F. ) ;
#309 = FACE_OUTER_BOUND ( 'NONE', #94, .T. ) ;
#310 = ORIENTED_EDGE ( 'NONE', *, *, #352, .T. ) ;
#311 = LINE ( 'NONE', #29, #87 ) ;
#312 = CARTESIAN_POINT ( 'NONE',  ( 9.681852249011155898E-29, -1.477005271003331337E-14, -4.094500000000000028 ) ) ;
#313 = ADVANCED_FACE ( 'NONE', ( #309 ), #291, .T. ) ;
#314 = DIRECTION ( 'NONE',  ( 1.000000000000000000, -6.982962677686265133E-15, 0.000000000000000000 ) ) ;
#315 = AXIS2_PLACEMENT_3D ( 'NONE', #399, #265, #51 ) ;
#316 = VERTEX_POINT ( 'NONE', #57 ) ;
#317 = EDGE_LOOP ( 'NONE', ( #229, #164 ) ) ;
#318 = EDGE_CURVE ( 'NONE', #119, #170, #190, .T. ) ;
#319 = CARTESIAN_POINT ( 'NONE',  ( 0.000000000000000000, 0.000000000000000000, 0.000000000000000000 ) ) ;
#320 = ORIENTED_EDGE ( 'NONE', *, *, #26, .T. ) ;
#321 = EDGE_CURVE ( 'NONE', #205, #316, #133, .T. ) ;
#322 = CIRCLE ( 'NONE', #81, 0.2361999999999999933 ) ;
#323 = ORIENTED_EDGE ( 'NONE', *, *, #318, .T. ) ;
#324 = ORIENTED_EDGE ( 'NONE', *, *, #92, .F. ) ;
#325 = PERSON_AND_ORGANIZATION ( #163, #330 ) ;
#326 = ADVANCED_FACE ( 'NONE', ( #161 ), #122, .T. ) ;
#327 = DIRECTION ( 'NONE',  ( -7.105427357601001070E-15, -1.000000000000000000, 0.000000000000000000 ) ) ;
#328 = AXIS2_PLACEMENT_3D ( 'NONE', #70, #44, #11 ) ;
#329 = ADVANCED_BREP_SHAPE_REPRESENTATION ( '49637', ( #247, #252, #374 ), #23 ) ;
#330 = ORGANIZATION ( 'UNSPECIFIED', 'UNSPECIFIED', '' ) ;
#331 = ORIENTED_EDGE ( 'NONE', *, *, #61, .F. ) ;
#332 = APPROVAL ( #101, 'UNSPECIFIED' ) ;
#333 = DIRECTION ( 'NONE',  ( -2.444734168852144381E-29, 3.492533381316950583E-15, 1.000000000000000000 ) ) ;
#334 = DIRECTION ( 'NONE',  ( 1.000000000000000000, -6.982962677686266711E-15, 4.876176775795936353E-29 ) ) ;
#335 = CARTESIAN_POINT ( 'NONE',  ( -1.551844647095919747E-15, -0.2161999999999999478, 7.766557310740631743E-16 ) ) ;
#336 = CARTESIAN_POINT ( 'NONE',  ( 0.000000000000000000, 0.000000000000000000, 0.000000000000000000 ) ) ;
#337 = LINE ( 'NONE', #160, #99 ) ;
#338 = CARTESIAN_POINT ( 'NONE',  ( 7.697490004047863104E-29, -1.099659060441455138E-14, -3.148600000000000509 ) ) ;
#339 = CARTESIAN_POINT ( 'NONE',  ( 0.000000000000000000, 0.000000000000000000, 0.000000000000000000 ) ) ;
#340 = LINE ( 'NONE', #246, #400 ) ;
#341 = CARTESIAN_POINT ( 'NONE',  ( 1.001297202692504215E-28, -1.429587034189326149E-14, -4.094500000000000028 ) ) ;
#342 = CARTESIAN_POINT ( 'NONE',  ( 1.001297202692504215E-28, -1.429587034189326149E-14, -4.094500000000000028 ) ) ;
#343 = CARTESIAN_POINT ( 'NONE',  ( 4.889468337704301058E-31, -6.985066762633918669E-17, -0.02000000000000005246 ) ) ;
#344 = CIRCLE ( 'NONE', #242, 0.2361999999999999933 ) ;
#345 = CC_DESIGN_APPROVAL ( #332, ( #184 ) ) ;
#346 = ORIENTED_EDGE ( 'NONE', *, *, #124, .T. ) ;
#347 = CARTESIAN_POINT ( 'NONE',  ( 1.649375784469496525E-15, 0.2361999999999999378, -0.02000000000000087472 ) ) ;
#348 = EDGE_CURVE ( 'NONE', #58, #72, #166, .T. ) ;
#349 = ORIENTED_EDGE ( 'NONE', *, *, #235, .T. ) ;
#350 = DIRECTION ( 'NONE',  ( -6.982962677686265922E-15, -1.000000000000000000, 3.492533381316950189E-15 ) ) ;
#351 = ORIENTED_EDGE ( 'NONE', *, *, #79, .F. ) ;
#352 = EDGE_CURVE ( 'NONE', #19, #36, #311, .T. ) ;
#353 = ORIENTED_EDGE ( 'NONE', *, *, #383, .F. ) ;
#354 = CONICAL_SURFACE ( 'NONE', #100, 0.2351999999999999924, 0.7853981633977554777 ) ;
#355 = CARTESIAN_POINT ( 'NONE',  ( 1.579546157692633424E-15, 0.2161999999999999478, -7.335157030073858878E-16 ) ) ;
#356 = COORDINATED_UNIVERSAL_TIME_OFFSET ( 5, 0, .BEHIND. ) ;
#357 = CC_DESIGN_DATE_AND_TIME_ASSIGNMENT ( #12, #257, ( #53 ) ) ;
#358 =( NAMED_UNIT ( * ) SI_UNIT ( $, .STERADIAN. ) SOLID_ANGLE_UNIT ( ) );
#359 = EDGE_LOOP ( 'NONE', ( #353, #168, #382, #226 ) ) ;
#360 = EDGE_CURVE ( 'NONE', #386, #231, #394, .T. ) ;
#361 = CALENDAR_DATE ( 2024, 10, 4 ) ;
#362 = DIRECTION ( 'NONE',  ( 2.444734168852144381E-29, -3.492533381316950583E-15, -1.000000000000000000 ) ) ;
#363 = EDGE_LOOP ( 'NONE', ( #38, #349, #288, #351 ) ) ;
#364 = CIRCLE ( 'NONE', #277, 0.2362000000000004096 ) ;
#365 = AXIS2_PLACEMENT_3D ( 'NONE', #343, #198, #2 ) ;
#366 = DIRECTION ( 'NONE',  ( 4.937700262164545676E-15, 0.7071067811865447972, -0.7071067811865502373 ) ) ;
#367 = CYLINDRICAL_SURFACE ( 'NONE', #106, 0.2362000000000002153 ) ;
#368 = EDGE_CURVE ( 'NONE', #36, #316, #195, .T. ) ;
#369 = VERTEX_POINT ( 'NONE', #347 ) ;
#370 = DIRECTION ( 'NONE',  ( -2.444734168852144381E-29, 3.492533381316950583E-15, 1.000000000000000000 ) ) ;
#371 = CARTESIAN_POINT ( 'NONE',  ( -1.649375784469421978E-15, -0.2362000000000114008, -3.148599999999999177 ) ) ;
#372 = CALENDAR_DATE ( 2024, 10, 4 ) ;
#373 = AXIS2_PLACEMENT_3D ( 'NONE', #278, #403, #22 ) ;
#374 = AXIS2_PLACEMENT_3D ( 'NONE', #176, #40, #293 ) ;
#375 = EDGE_CURVE ( 'NONE', #203, #71, #158, .T. ) ;
#376 = COORDINATED_UNIVERSAL_TIME_OFFSET ( 5, 0, .BEHIND. ) ;
#377 = ORIENTED_EDGE ( 'NONE', *, *, #352, .F. ) ;
#378 = DIRECTION ( 'NONE',  ( 5.024295867789605402E-15, 0.7071067811867671749, 0.7071067811863278596 ) ) ;
#379 = CARTESIAN_POINT ( 'NONE',  ( -0.2361999999999999933, -1.096801804149146130E-14, -3.149600000000000399 ) ) ;
#380 = DIRECTION ( 'NONE',  ( -6.982962677686265922E-15, -1.000000000000000000, 4.626330217890361448E-15 ) ) ;
#381 = ADVANCED_FACE ( 'NONE', ( #159 ), #199, .T. ) ;
#382 = ORIENTED_EDGE ( 'NONE', *, *, #389, .F. ) ;
#383 = EDGE_CURVE ( 'NONE', #58, #203, #390, .T. ) ;
#384 = CARTESIAN_POINT ( 'NONE',  ( 7.697490004047863104E-29, -1.099659060441455138E-14, -3.148600000000000509 ) ) ;
#385 = AXIS2_PLACEMENT_3D ( 'NONE', #73, #260, #327 ) ;
#386 = VERTEX_POINT ( 'NONE', #355 ) ;
#387 = EDGE_LOOP ( 'NONE', ( #308, #186, #39, #267, #324 ) ) ;
#388 = ADVANCED_FACE ( 'NONE', ( #392 ), #261, .F. ) ;
#389 = EDGE_CURVE ( 'NONE', #71, #72, #322, .T. ) ;
#390 = CIRCLE ( 'NONE', #385, 0.2362000000000002709 ) ;
#391 = APPROVAL_DATE_TIME ( #138, #162 ) ;
#392 = FACE_OUTER_BOUND ( 'NONE', #157, .T. ) ;
#393 = APPROVAL_ROLE ( '' ) ;
#394 = CIRCLE ( 'NONE', #9, 0.2161999999999999478 ) ;
#395 = FACE_OUTER_BOUND ( 'NONE', #153, .T. ) ;
#396 = DATE_AND_TIME ( #372, #263 ) ;
#397 = CARTESIAN_POINT ( 'NONE',  ( 1.001297202692504215E-28, -1.429587034189326149E-14, -4.094500000000000028 ) ) ;
#398 = DIRECTION ( 'NONE',  ( -6.982962677686265133E-15, -1.000000000000000000, 3.492533381316950189E-15 ) ) ;
#399 = CARTESIAN_POINT ( 'NONE',  ( 7.702248551960706711E-29, -1.099676962482037231E-14, -3.149600000000000399 ) ) ;
#400 = VECTOR ( 'NONE', #222, 39.37007874015748143 ) ;
#401 = EDGE_LOOP ( 'NONE', ( #30, #28, #331, #304 ) ) ;
#402 = LINE ( 'NONE', #144, #21 ) ;
#403 = DIRECTION ( 'NONE',  ( -2.444734168852143820E-29, 3.492533381316950977E-15, 1.000000000000000000 ) ) ;
#404 = COORDINATED_UNIVERSAL_TIME_OFFSET ( 5, 0, .BEHIND. ) ;
#405 = DIRECTION ( 'NONE',  ( 1.000000000000000000, -6.982962677686265133E-15, 0.000000000000000000 ) ) ;
#406 = DIRECTION ( 'NONE',  ( -2.444734168852144381E-29, 3.492533381316950583E-15, 1.000000000000000000 ) ) ;
#407 = AXIS2_PLACEMENT_3D ( 'NONE', #209, #105, #296 ) ;
#408 = DIRECTION ( 'NONE',  ( 6.982962677686265922E-15, 1.000000000000000000, -4.626330217890364603E-15 ) ) ;
#409 = CC_DESIGN_DATE_AND_TIME_ASSIGNMENT ( #396, #237, ( #184 ) ) ;
#410 = LINE ( 'NONE', #128, #31 ) ;
#411 = CARTESIAN_POINT ( 'NONE',  ( 9.681852249011155898E-29, -1.477005271003331337E-14, -4.094500000000000028 ) ) ;
#412 = EDGE_LOOP ( 'NONE', ( #224, #292, #7, #377 ) ) ;
ENDSEC;
END-ISO-10303-21;
